  0
SECTION
  2
HEADER
  9
$ACADVER
  1
AC1015
  9
$ACADMAINTVER
 70
    18
  9
$DWGCODEPAGE
  3
ANSI_1252
  9
$INSBASE
 10
0.0
 20
0.0
 30
0.0
  9
$EXTMIN
 10
-252.1307366203176
 20
-313.9990078527469
 30
-0.0015258207003583
  9
$EXTMAX
 10
356.6949471932544
 20
320.6200568713481
 30
0.0000000349246037
  9
$LIMMIN
 10
0.0
 20
0.0
  9
$LIMMAX
 10
420.0
 20
297.0
  9
$ORTHOMODE
 70
     0
  9
$REGENMODE
 70
     1
  9
$FILLMODE
 70
     1
  9
$QTEXTMODE
 70
     0
  9
$MIRRTEXT
 70
     0
  9
$LTSCALE
 40
1.0
  9
$ATTMODE
 70
     1
  9
$TEXTSIZE
 40
2.5
  9
$TRACEWID
 40
1.0
  9
$TEXTSTYLE
  7
Standard
  9
$CLAYER
  8
0
  9
$CELTYPE
  6
ByLayer
  9
$CECOLOR
 62
   256
  9
$CELTSCALE
 40
1.0
  9
$DISPSILH
 70
     0
  9
$DIMSCALE
 40
1.0
  9
$DIMASZ
 40
2.5
  9
$DIMEXO
 40
0.625
  9
$DIMDLI
 40
3.75
  9
$DIMRND
 40
0.0
  9
$DIMDLE
 40
0.0
  9
$DIMEXE
 40
1.25
  9
$DIMTP
 40
0.0
  9
$DIMTM
 40
0.0
  9
$DIMTXT
 40
2.5
  9
$DIMCEN
 40
2.5
  9
$DIMTSZ
 40
0.0
  9
$DIMTOL
 70
     0
  9
$DIMLIM
 70
     0
  9
$DIMTIH
 70
     0
  9
$DIMTOH
 70
     0
  9
$DIMSE1
 70
     0
  9
$DIMSE2
 70
     0
  9
$DIMTAD
 70
     1
  9
$DIMZIN
 70
     8
  9
$DIMBLK
  1

  9
$DIMASO
 70
     1
  9
$DIMSHO
 70
     1
  9
$DIMPOST
  1

  9
$DIMAPOST
  1

  9
$DIMALT
 70
     0
  9
$DIMALTD
 70
     3
  9
$DIMALTF
 40
0.03937007874016
  9
$DIMLFAC
 40
1.0
  9
$DIMTOFL
 70
     1
  9
$DIMTVP
 40
0.0
  9
$DIMTIX
 70
     0
  9
$DIMSOXD
 70
     0
  9
$DIMSAH
 70
     0
  9
$DIMBLK1
  1

  9
$DIMBLK2
  1

  9
$DIMSTYLE
  2
ISO-25
  9
$DIMCLRD
 70
     0
  9
$DIMCLRE
 70
     0
  9
$DIMCLRT
 70
     0
  9
$DIMTFAC
 40
1.0
  9
$DIMGAP
 40
0.625
  9
$DIMJUST
 70
     0
  9
$DIMSD1
 70
     0
  9
$DIMSD2
 70
     0
  9
$DIMTOLJ
 70
     0
  9
$DIMTZIN
 70
     8
  9
$DIMALTZ
 70
     0
  9
$DIMALTTZ
 70
     0
  9
$DIMUPT
 70
     0
  9
$DIMDEC
 70
     2
  9
$DIMTDEC
 70
     2
  9
$DIMALTU
 70
     2
  9
$DIMALTTD
 70
     3
  9
$DIMTXSTY
  7
Standard
  9
$DIMAUNIT
 70
     0
  9
$DIMADEC
 70
     0
  9
$DIMALTRND
 40
0.0
  9
$DIMAZIN
 70
     0
  9
$DIMDSEP
 70
    44
  9
$DIMATFIT
 70
     3
  9
$DIMFRAC
 70
     0
  9
$DIMLDRBLK
  1

  9
$DIMLUNIT
 70
     2
  9
$DIMLWD
 70
    -2
  9
$DIMLWE
 70
    -2
  9
$DIMTMOVE
 70
     0
  9
$LUNITS
 70
     2
  9
$LUPREC
 70
     4
  9
$SKETCHINC
 40
1.0
  9
$FILLETRAD
 40
0.0
  9
$AUNITS
 70
     0
  9
$AUPREC
 70
     0
  9
$MENU
  1
.
  9
$ELEVATION
 40
0.0
  9
$PELEVATION
 40
0.0
  9
$THICKNESS
 40
0.0
  9
$LIMCHECK
 70
     0
  9
$CHAMFERA
 40
0.0
  9
$CHAMFERB
 40
0.0
  9
$CHAMFERC
 40
0.0
  9
$CHAMFERD
 40
0.0
  9
$SKPOLY
 70
     0
  9
$TDCREATE
 40
2460398.356956019
  9
$TDUCREATE
 40
2460398.065289352
  9
$TDUPDATE
 40
2460398.392407408
  9
$TDUUPDATE
 40
2460398.100740741
  9
$TDINDWG
 40
0.0103356481
  9
$TDUSRTIMER
 40
0.0103356481
  9
$USRTIMER
 70
     1
  9
$ANGBASE
 50
0.0
  9
$ANGDIR
 70
     0
  9
$PDMODE
 70
     0
  9
$PDSIZE
 40
0.0
  9
$PLINEWID
 40
0.0
  9
$SPLFRAME
 70
     0
  9
$SPLINETYPE
 70
     6
  9
$SPLINESEGS
 70
     8
  9
$HANDSEED
  5
2BBA0
  9
$SURFTAB1
 70
     6
  9
$SURFTAB2
 70
     6
  9
$SURFTYPE
 70
     6
  9
$SURFU
 70
     6
  9
$SURFV
 70
     6
  9
$UCSBASE
  2

  9
$UCSNAME
  2

  9
$UCSORG
 10
0.0
 20
0.0
 30
0.0
  9
$UCSXDIR
 10
1.0
 20
0.0
 30
0.0
  9
$UCSYDIR
 10
0.0
 20
1.0
 30
0.0
  9
$UCSORTHOREF
  2

  9
$UCSORTHOVIEW
 70
     0
  9
$UCSORGTOP
 10
0.0
 20
0.0
 30
0.0
  9
$UCSORGBOTTOM
 10
0.0
 20
0.0
 30
0.0
  9
$UCSORGLEFT
 10
0.0
 20
0.0
 30
0.0
  9
$UCSORGRIGHT
 10
0.0
 20
0.0
 30
0.0
  9
$UCSORGFRONT
 10
0.0
 20
0.0
 30
0.0
  9
$UCSORGBACK
 10
0.0
 20
0.0
 30
0.0
  9
$PUCSBASE
  2

  9
$PUCSNAME
  2

  9
$PUCSORG
 10
0.0
 20
0.0
 30
0.0
  9
$PUCSXDIR
 10
1.0
 20
0.0
 30
0.0
  9
$PUCSYDIR
 10
0.0
 20
1.0
 30
0.0
  9
$PUCSORTHOREF
  2

  9
$PUCSORTHOVIEW
 70
     0
  9
$PUCSORGTOP
 10
0.0
 20
0.0
 30
0.0
  9
$PUCSORGBOTTOM
 10
0.0
 20
0.0
 30
0.0
  9
$PUCSORGLEFT
 10
0.0
 20
0.0
 30
0.0
  9
$PUCSORGRIGHT
 10
0.0
 20
0.0
 30
0.0
  9
$PUCSORGFRONT
 10
0.0
 20
0.0
 30
0.0
  9
$PUCSORGBACK
 10
0.0
 20
0.0
 30
0.0
  9
$USERI1
 70
     0
  9
$USERI2
 70
     0
  9
$USERI3
 70
     0
  9
$USERI4
 70
     0
  9
$USERI5
 70
     0
  9
$USERR1
 40
0.0
  9
$USERR2
 40
0.0
  9
$USERR3
 40
0.0
  9
$USERR4
 40
0.0
  9
$USERR5
 40
0.0
  9
$WORLDVIEW
 70
     1
  9
$SHADEDGE
 70
     3
  9
$SHADEDIF
 70
    70
  9
$TILEMODE
 70
     1
  9
$MAXACTVP
 70
    48
  9
$PINSBASE
 10
0.0
 20
0.0
 30
0.0
  9
$PLIMCHECK
 70
     0
  9
$PEXTMIN
 10
0.0
 20
0.0
 30
0.0
  9
$PEXTMAX
 10
0.0
 20
0.0
 30
0.0
  9
$PLIMMIN
 10
0.0
 20
0.0
  9
$PLIMMAX
 10
12.0
 20
9.0
  9
$UNITMODE
 70
     0
  9
$VISRETAIN
 70
     1
  9
$PLINEGEN
 70
     0
  9
$PSLTSCALE
 70
     1
  9
$TREEDEPTH
 70
  3020
  9
$CMLSTYLE
  2
Standard
  9
$CMLJUST
 70
     0
  9
$CMLSCALE
 40
20.0
  9
$PROXYGRAPHICS
 70
     1
  9
$MEASUREMENT
 70
     1
  9
$CELWEIGHT
370
    -1
  9
$ENDCAPS
280
     0
  9
$JOINSTYLE
280
     0
  9
$LWDISPLAY
290
     0
  9
$INSUNITS
 70
     4
  9
$HYPERLINKBASE
  1

  9
$STYLESHEET
  1

  9
$XEDIT
290
     1
  9
$CEPSNTYPE
380
     0
  9
$PSTYLEMODE
290
     1
  9
$FINGERPRINTGUID
  2
{6C1266EE-7BC1-BF4A-B059-A6E7702B10CE}
  9
$VERSIONGUID
  2
{C1573B01-BD51-2A45-A2FE-B16281D0F572}
  9
$EXTNAMES
290
     1
  9
$PSVPSCALE
 40
0.0
  9
$OLESTARTUP
290
     0
  0
ENDSEC
  0
SECTION
  2
CLASSES
  0
CLASS
  1
ACDBDICTIONARYWDFLT
  2
AcDbDictionaryWithDefault
  3
ObjectDBX Classes
 90
        0
280
     0
281
     0
  0
CLASS
  1
ACDBPLACEHOLDER
  2
AcDbPlaceHolder
  3
ObjectDBX Classes
 90
        0
280
     0
281
     0
  0
CLASS
  1
LAYOUT
  2
AcDbLayout
  3
ObjectDBX Classes
 90
        0
280
     0
281
     0
  0
CLASS
  1
DICTIONARYVAR
  2
AcDbDictionaryVar
  3
ObjectDBX Classes
 90
        0
280
     0
281
     0
  0
CLASS
  1
TABLESTYLE
  2
AcDbTableStyle
  3
ObjectDBX Classes
 90
     4095
280
     0
281
     0
  0
CLASS
  1
MATERIAL
  2
AcDbMaterial
  3
ObjectDBX Classes
 90
     1153
280
     0
281
     0
  0
CLASS
  1
VISUALSTYLE
  2
AcDbVisualStyle
  3
ObjectDBX Classes
 90
     4095
280
     0
281
     0
  0
CLASS
  1
SCALE
  2
AcDbScale
  3
ObjectDBX Classes
 90
     1153
280
     0
281
     0
  0
CLASS
  1
MLEADERSTYLE
  2
AcDbMLeaderStyle
  3
ACDB_MLEADERSTYLE_CLASS
 90
     4095
280
     0
281
     0
  0
CLASS
  1
CELLSTYLEMAP
  2
AcDbCellStyleMap
  3
ObjectDBX Classes
 90
     1152
280
     0
281
     0
  0
CLASS
  1
EXACXREFPANELOBJECT
  2
ExAcXREFPanelObject
  3
EXAC_ESW
 90
    33793
280
     0
281
     0
  0
CLASS
  1
NPOCOLLECTION
  2
AcDbImpNonPersistentObjectsCollection
  3
ObjectDBX Classes
 90
    33921
280
     0
281
     0
  0
CLASS
  1
LAYER_INDEX
  2
AcDbLayerIndex
  3
ObjectDBX Classes
 90
    32768
280
     0
281
     0
  0
CLASS
  1
SPATIAL_INDEX
  2
AcDbSpatialIndex
  3
ObjectDBX Classes
 90
    32768
280
     0
281
     0
  0
CLASS
  1
IDBUFFER
  2
AcDbIdBuffer
  3
ObjectDBX Classes
 90
    32768
280
     0
281
     0
  0
CLASS
  1
ACDBSECTIONVIEWSTYLE
  2
AcDbSectionViewStyle
  3
ObjectDBX Classes
 90
     1025
280
     0
281
     0
  0
CLASS
  1
ACDBDETAILVIEWSTYLE
  2
AcDbDetailViewStyle
  3
ObjectDBX Classes
 90
     1025
280
     0
281
     0
  0
CLASS
  1
XRECORD
  2
AcDbXrecord
  3
ObjectDBX Classes
 90
        0
280
     0
281
     0
  0
ENDSEC
  0
SECTION
  2
TABLES
  0
TABLE
  2
VPORT
  5
8
102
{ACAD_XDICTIONARY
360
2BAAE
102
}
330
0
100
AcDbSymbolTable
 70
     1
  0
VPORT
  5
EA
330
8
100
AcDbSymbolTableRecord
100
AcDbViewportTableRecord
  2
*Active
 70
     0
 10
0.0
 20
0.0
 11
1.0
 21
1.0
 12
52.28210528646837
 22
3.310524509300591
 13
0.0
 23
0.0
 14
10.0
 24
10.0
 15
10.0
 25
10.0
 16
0.0
 26
0.0
 36
1.0
 17
0.0
 27
0.0
 37
0.0
 40
674.8598640500525
 41
0.9846153846153848
 42
50.0
 43
0.0
 44
0.0
 50
0.0
 51
0.0
 71
     0
 72
  1000
 73
     1
 74
     3
 75
     0
 76
     1
 77
     0
 78
     0
281
     0
 65
     1
110
0.0
120
0.0
130
0.0
111
1.0
121
0.0
131
0.0
112
0.0
122
1.0
132
0.0
 79
     0
146
0.0
1001
ACAD_NAV_VCDISPLAY
1070
     3
  0
ENDTAB
  0
TABLE
  2
LTYPE
  5
5
330
0
100
AcDbSymbolTable
 70
     1
  0
LTYPE
  5
14
330
5
100
AcDbSymbolTableRecord
100
AcDbLinetypeTableRecord
  2
ByBlock
 70
     0
  3

 72
    65
 73
     0
 40
0.0
  0
LTYPE
  5
15
330
5
100
AcDbSymbolTableRecord
100
AcDbLinetypeTableRecord
  2
ByLayer
 70
     0
  3

 72
    65
 73
     0
 40
0.0
  0
LTYPE
  5
16
330
5
100
AcDbSymbolTableRecord
100
AcDbLinetypeTableRecord
  2
Continuous
 70
     0
  3
Solid line
 72
    65
 73
     0
 40
0.0
  0
ENDTAB
  0
TABLE
  2
LAYER
  5
2
102
{ACAD_XDICTIONARY
360
1FF
102
}
330
0
100
AcDbSymbolTable
 70
     1
  0
LAYER
  5
10
102
{ACAD_XDICTIONARY
360
13C
102
}
330
2
100
AcDbSymbolTableRecord
100
AcDbLayerTableRecord
  2
0
 70
     0
 62
     7
  6
Continuous
370
    -3
390
F
  0
ENDTAB
  0
TABLE
  2
STYLE
  5
3
330
0
100
AcDbSymbolTable
 70
     1
  0
STYLE
  5
11
330
3
100
AcDbSymbolTableRecord
100
AcDbTextStyleTableRecord
  2
Standard
 70
     0
 40
0.0
 41
1.0
 50
0.0
 71
     0
 42
2.5
  3
arial.ttf
  4

1001
ACAD
1000
Arial
1071
       34
  0
ENDTAB
  0
TABLE
  2
VIEW
  5
6
330
0
100
AcDbSymbolTable
 70
     0
  0
ENDTAB
  0
TABLE
  2
UCS
  5
7
330
0
100
AcDbSymbolTable
 70
     0
  0
ENDTAB
  0
TABLE
  2
APPID
  5
9
330
0
100
AcDbSymbolTable
 70
     8
  0
APPID
  5
12
330
9
100
AcDbSymbolTableRecord
100
AcDbRegAppTableRecord
  2
ACAD
 70
     0
  0
APPID
  5
9E
330
9
100
AcDbSymbolTableRecord
100
AcDbRegAppTableRecord
  2
ACAD_PSEXT
 70
     0
  0
APPID
  5
133
330
9
100
AcDbSymbolTableRecord
100
AcDbRegAppTableRecord
  2
AcadAnnoPO
 70
     0
  0
APPID
  5
134
330
9
100
AcDbSymbolTableRecord
100
AcDbRegAppTableRecord
  2
AcadAnnotative
 70
     0
  0
APPID
  5
135
330
9
100
AcDbSymbolTableRecord
100
AcDbRegAppTableRecord
  2
ACAD_DSTYLE_DIMJAG
 70
     0
  0
APPID
  5
136
330
9
100
AcDbSymbolTableRecord
100
AcDbRegAppTableRecord
  2
ACAD_DSTYLE_DIMTALN
 70
     0
  0
APPID
  5
165
330
9
100
AcDbSymbolTableRecord
100
AcDbRegAppTableRecord
  2
ACAD_MLEADERVER
 70
     0
  0
APPID
  5
217
330
9
100
AcDbSymbolTableRecord
100
AcDbRegAppTableRecord
  2
ACAD_NAV_VCDISPLAY
 70
     0
  0
ENDTAB
  0
TABLE
  2
DIMSTYLE
  5
A
330
0
100
AcDbSymbolTable
 70
     1
100
AcDbDimStyleTable
 71
     0
  0
DIMSTYLE
105
27
330
A
100
AcDbSymbolTableRecord
100
AcDbDimStyleTableRecord
  2
ISO-25
 70
     0
 41
2.5
 42
0.625
 43
3.75
 44
1.25
 73
     0
 74
     0
 77
     1
 78
     8
140
2.5
141
2.5
143
0.03937007874016
147
0.625
171
     3
172
     1
271
     2
272
     2
274
     3
278
    44
283
     0
284
     8
340
11
  0
ENDTAB
  0
TABLE
  2
BLOCK_RECORD
  5
1
330
0
100
AcDbSymbolTable
 70
     7
  0
BLOCK_RECORD
  5
1F
102
{ACAD_XDICTIONARY
360
1CE
102
}
330
1
100
AcDbSymbolTableRecord
100
AcDbBlockTableRecord
  2
*Model_Space
340
22
  0
BLOCK_RECORD
  5
D2
102
{ACAD_XDICTIONARY
360
2BA61
102
}
330
1
100
AcDbSymbolTableRecord
100
AcDbBlockTableRecord
  2
*Paper_Space
340
D3
  0
BLOCK_RECORD
  5
D6
102
{ACAD_XDICTIONARY
360
2BA63
102
}
330
1
100
AcDbSymbolTableRecord
100
AcDbBlockTableRecord
  2
*Paper_Space0
340
D7
  0
BLOCK_RECORD
  5
2B892
330
1
100
AcDbSymbolTableRecord
100
AcDbBlockTableRecord
  2
SAEL500_140_2-Front
340
0
102
{BLKREFS
331
2BA57
102
}
  0
BLOCK_RECORD
  5
2B8F8
330
1
100
AcDbSymbolTableRecord
100
AcDbBlockTableRecord
  2
SAEL500_140_2-Left
340
0
102
{BLKREFS
331
2BA58
102
}
  0
BLOCK_RECORD
  5
2B921
330
1
100
AcDbSymbolTableRecord
100
AcDbBlockTableRecord
  2
SAEL500_140_2-Right
340
0
102
{BLKREFS
331
2BA59
102
}
  0
BLOCK_RECORD
  5
2B948
330
1
100
AcDbSymbolTableRecord
100
AcDbBlockTableRecord
  2
SAEL500_140_2-Top
340
0
102
{BLKREFS
331
2BA5A
102
}
  0
BLOCK_RECORD
  5
2B980
330
1
100
AcDbSymbolTableRecord
100
AcDbBlockTableRecord
  2
SAEL500_140_2-Bottom
340
0
102
{BLKREFS
331
2BA5B
102
}
  0
BLOCK_RECORD
  5
2B9A8
330
1
100
AcDbSymbolTableRecord
100
AcDbBlockTableRecord
  2
SAEL500_140_2-ISO
340
0
102
{BLKREFS
331
2BA5C
102
}
  0
ENDTAB
  0
ENDSEC
  0
SECTION
  2
BLOCKS
  0
BLOCK
  5
20
330
1F
100
AcDbEntity
  8
0
100
AcDbBlockBegin
  2
*Model_Space
 70
     0
 10
0.0
 20
0.0
 30
0.0
  3
*Model_Space
  1

  0
ENDBLK
  5
21
330
1F
100
AcDbEntity
  8
0
100
AcDbBlockEnd
  0
BLOCK
  5
D4
330
D2
100
AcDbEntity
 67
     1
  8
0
100
AcDbBlockBegin
  2
*Paper_Space
 70
     0
 10
0.0
 20
0.0
 30
0.0
  3
*Paper_Space
  1

  0
ENDBLK
  5
D5
330
D2
100
AcDbEntity
 67
     1
  8
0
100
AcDbBlockEnd
  0
BLOCK
  5
D8
330
D6
100
AcDbEntity
 67
     1
  8
0
100
AcDbBlockBegin
  2
*Paper_Space0
 70
     0
 10
0.0
 20
0.0
 30
0.0
  3
*Paper_Space0
  1

  0
ENDBLK
  5
D9
330
D6
100
AcDbEntity
 67
     1
  8
0
100
AcDbBlockEnd
  0
BLOCK
  5
2B893
330
2B892
100
AcDbEntity
  8
0
100
AcDbBlockBegin
  2
SAEL500_140_2-Front
 70
     0
 10
0.0
 20
0.0
 30
0.0
  3
SAEL500_140_2-Front
  1

  0
SPLINE
  5
2B895
330
2B892
100
AcDbEntity
  8
0
100
AcDbSpline
210
0.0
220
0.0
230
1.0
 70
     8
 71
     3
 72
    14
 73
    10
 74
     0
 42
0.000000001
 43
0.0000000001
 40
0.0
 40
0.0
 40
0.0
 40
0.0
 40
0.2870001856706885
 40
0.2870001856706885
 40
0.2870001856706885
 40
0.8282911261529793
 40
0.8282911261529793
 40
0.8282911261529793
 40
0.9976758091501816
 40
0.9976758091501816
 40
0.9976758091501816
 40
0.9976758091501816
 10
74.13175911166539
 20
10.46251060667356
 30
0.0
 10
73.77222392422199
 20
10.39911489184605
 30
0.0
 10
73.466209151719
 20
10.27267956155842
 30
0.0
 10
73.18206703770584
 20
10.08956682451761
 30
0.0
 10
72.64616650591567
 20
9.744210721644451
 30
0.0
 10
72.2426430998639
 20
9.210651672363637
 30
0.0
 10
72.07927432869521
 20
8.590857296232083
 30
0.0
 10
72.02815178913931
 20
8.396906749358066
 30
0.0
 10
72.00192552936096
 20
8.194309023686871
 30
0.0
 10
72.00006291307016
 20
7.988474800142161
 30
0.0
  0
LINE
  5
2B896
330
2B892
100
AcDbEntity
  8
0
100
AcDbLine
 10
74.0
 20
10.46251060667355
 30
0.0
 11
74.1317591116654
 21
10.46251060667355
 31
0.0
  0
LINE
  5
2B897
330
2B892
100
AcDbEntity
  8
0
100
AcDbLine
 10
72.0
 20
10.46251060667355
 30
0.0
 11
74.0
 21
10.46251060667355
 31
0.0
  0
SPLINE
  5
2B898
330
2B892
100
AcDbEntity
  8
0
100
AcDbSpline
210
0.0
220
0.0
230
1.0
 70
     8
 71
     3
 72
     8
 73
     4
 74
     0
 42
0.000000001
 43
0.0000000001
 40
0.0
 40
0.0
 40
0.0
 40
0.0
 40
0.0034227324416929
 40
0.0034227324416929
 40
0.0034227324416929
 40
0.0034227324416929
 10
69.99959240457704
 20
7.980002372969168
 30
0.0
 10
69.99959864683976
 20
7.98984982516373
 30
0.0
 10
69.99960619809145
 20
7.999248275002588
 30
0.0
 10
69.99961240446689
 20
8.007627280999011
 30
0.0
  0
SPLINE
  5
2B899
330
2B892
100
AcDbEntity
  8
0
100
AcDbSpline
210
0.0
220
0.0
230
1.0
 70
     8
 71
     3
 72
    10
 73
     6
 74
     0
 42
0.000000001
 43
0.0000000001
 40
0.0
 40
0.0
 40
0.0
 40
0.0
 40
0.0051506308191156
 40
0.0051506308191156
 40
0.0088587239226472
 40
0.0088587239226472
 40
0.0088587239226472
 40
0.0088587239226472
 10
69.99992826212409
 20
7.979999206664418
 30
0.0
 10
69.99977708727583
 20
7.99348439393562
 30
0.0
 10
69.99962816472711
 20
8.006316977840752
 30
0.0
 10
69.99942725326423
 20
8.023475770667353
 30
0.0
 10
69.99935779555369
 20
8.029335472962635
 30
0.0
 10
69.99930015107697
 20
8.034148278860913
 30
0.0
  0
SPLINE
  5
2B89A
330
2B892
100
AcDbEntity
  8
0
100
AcDbSpline
210
0.0
220
0.0
230
1.0
 70
     8
 71
     3
 72
     8
 73
     4
 74
     0
 42
0.000000001
 43
0.0000000001
 40
0.0071153756452212
 40
0.0071153756452212
 40
0.0071153756452212
 40
0.0071153756452212
 40
0.0262284623701173
 40
0.0262284623701173
 40
0.0262284623701173
 40
0.0262284623701173
 10
69.99994257961645
 20
7.984866236133619
 30
0.0
 10
69.99991630222123
 20
7.988001709154336
 30
0.0
 10
69.99992081328624
 20
7.987221818797066
 30
0.0
 10
69.99994209150776
 20
7.985235367699027
 30
0.0
  0
SPLINE
  5
2B89B
330
2B892
100
AcDbEntity
  8
0
100
AcDbSpline
210
0.0
220
0.0
230
1.0
 70
     8
 71
     3
 72
    34
 73
    30
 74
     0
 42
0.000000001
 43
0.0000000001
 40
0.0414735835309897
 40
0.0414735835309897
 40
0.0414735835309897
 40
0.0414735835309897
 40
0.048481340052039
 40
0.048481340052039
 40
0.0587222466023719
 40
0.0587222466023719
 40
0.0628023528028359
 40
0.0628023528028359
 40
0.0639673805502082
 40
0.0639673805502082
 40
0.0649006504922115
 40
0.0649006504922115
 40
0.0658354510716343
 40
0.0658354510716343
 40
0.0677308773070124
 40
0.0677308773070124
 40
0.0715074950208515
 40
0.0715074950208515
 40
0.0754912163007572
 40
0.0754912163007572
 40
0.0874438648104195
 40
0.0874438648104195
 40
0.1232518123833374
 40
0.1232518123833374
 40
0.2009897735265189
 40
0.2009897735265189
 40
0.2882932878604657
 40
0.2882932878604657
 40
0.3082494012918797
 40
0.3082494012918797
 40
0.3082494012918797
 40
0.3082494012918797
 10
69.9999424829999
 20
7.984939362288992
 30
0.0
 10
69.99989458576139
 20
7.988876967751026
 30
0.0
 10
69.99981066650462
 20
7.995626514046792
 30
0.0
 10
69.99955154039785
 20
8.015642129816274
 30
0.0
 10
69.99935821219939
 20
8.030025600603963
 30
0.0
 10
69.9990100361037
 20
8.055248267553354
 30
0.0
 10
69.99890005139416
 20
8.063158950820959
 30
0.0
 10
69.99872001541546
 20
8.076133820725335
 30
0.0
 10
69.99867709624573
 20
8.079229131906298
 30
0.0
 10
69.99859449739751
 20
8.08520018937855
 30
0.0
 10
69.99855553542307
 20
8.088021575801345
 30
0.0
 10
69.99847483911543
 20
8.093882948101057
 30
0.0
 10
69.99843266134698
 20
8.096955381019867
 30
0.0
 10
69.99830457640135
 20
8.106324539873439
 30
0.0
 10
69.99821658432569
 20
8.112816778788118
 30
0.0
 10
69.99797119565538
 20
8.13112892076352
 30
0.0
 10
69.99782256664289
 20
8.142500490290123
 30
0.0
 10
69.99754208410383
 20
8.164551022228078
 30
0.0
 10
69.99740899273516
 20
8.175356239521926
 30
0.0
 10
69.99690611766059
 20
8.21763458137153
 30
0.0
 10
69.99659401454069
 20
8.247389416690818
 30
0.0
 10
69.9955449233392
 20
8.363847533412899
 30
0.0
 10
69.99519969736013
 20
8.444684614590846
 30
0.0
 10
69.99498304874555
 20
8.719600628955038
 30
0.0
 10
69.99658214134425
 20
8.939901303010641
 30
0.0
 10
69.99935010651291
 20
9.429891169778571
 30
0.0
 10
69.99992984176802
 20
9.716716063510652
 30
0.0
 10
69.99999216089946
 20
10.07130958874601
 30
0.0
 10
69.99999697435609
 20
10.1375750053821
 30
0.0
 10
70.00000003594269
 20
10.20388578425712
 30
0.0
  0
SPLINE
  5
2B89C
330
2B892
100
AcDbEntity
  8
0
100
AcDbSpline
210
0.0
220
0.0
230
1.0
 70
     8
 71
     3
 72
    12
 73
     8
 74
     0
 42
0.000000001
 43
0.0000000001
 40
0.0
 40
0.0
 40
0.0
 40
0.0
 40
0.0034392369926644
 40
0.0034392369926644
 40
0.0064136964020714
 40
0.0064136964020714
 40
0.0082335177728526
 40
0.0082335177728526
 40
0.0082335177728526
 40
0.0082335177728526
 10
69.99994892666285
 20
7.979999959426327
 30
0.0
 10
69.99993669885968
 20
7.989489427073809
 30
0.0
 10
69.99992477169908
 20
7.998105184333517
 30
0.0
 10
69.99990546492256
 20
8.010253757853154
 30
0.0
 10
69.99989752731609
 20
8.014443616796496
 30
0.0
 10
69.99989013719084
 20
8.018012113481546
 30
0.0
 10
69.99988854558489
 20
8.018675062809364
 30
0.0
 10
69.99988854558703
 20
8.018675061923786
 30
0.0
  0
SPLINE
  5
2B89D
330
2B892
100
AcDbEntity
  8
0
100
AcDbSpline
210
0.0
220
0.0
230
1.0
 70
     8
 71
     3
 72
    10
 73
     6
 74
     0
 42
0.000000001
 43
0.0000000001
 40
0.0156910365993902
 40
0.0156910365993902
 40
0.0156910365993902
 40
0.0156910365993902
 40
0.0169445936685177
 40
0.0169445936685177
 40
0.017511399555808
 40
0.017511399555808
 40
0.017511399555808
 40
0.017511399555808
 10
72.0
 20
7.996749842484767
 30
0.0
 10
72.00002403353686
 20
7.992908767612495
 30
0.0
 10
72.00005145648955
 20
7.989053092446788
 30
0.0
 10
72.00009524178527
 20
7.983471393435913
 30
0.0
 10
72.00010943729987
 20
7.981735225464461
 30
0.0
 10
72.00012413304992
 20
7.980003227608425
 30
0.0
  0
SPLINE
  5
2B89E
330
2B892
100
AcDbEntity
  8
0
100
AcDbSpline
210
0.0
220
0.0
230
1.0
 70
     8
 71
     3
 72
    14
 73
    10
 74
     0
 42
0.000000001
 43
0.0000000001
 40
0.012642712290234
 40
0.012642712290234
 40
0.012642712290234
 40
0.012642712290234
 40
0.0127966412673612
 40
0.0127966412673612
 40
0.0130268138104029
 40
0.0130268138104029
 40
0.0131131281303122
 40
0.0131131281303122
 40
0.0131778638465786
 40
0.0131778638465786
 40
0.0131778638465786
 40
0.0131778638465786
 10
71.9999999999999
 20
7.98232313940987
 30
0.0
 10
72.00000401115909
 20
7.982100895669819
 30
0.0
 10
72.00000801918513
 20
7.981879514141503
 30
0.0
 10
72.00001800717642
 20
7.981329510448516
 30
0.0
 10
72.00002398061823
 20
7.981002080465042
 30
0.0
 10
72.00003216736276
 20
7.980555323239238
 30
0.0
 10
72.00003439737554
 20
7.980433834088962
 30
0.0
 10
72.0000382944092
 20
7.98022187943452
 30
0.0
 10
72.00003996280424
 20
7.980131250978628
 30
0.0
 10
72.00004162926389
 20
7.980040839728972
 30
0.0
  0
SPLINE
  5
2B89F
330
2B892
100
AcDbEntity
  8
0
100
AcDbSpline
210
0.0
220
0.0
230
1.0
 70
     8
 71
     3
 72
    11
 73
     7
 74
     0
 42
0.000000001
 43
0.0000000001
 40
-0.9986961890018722
 40
-0.9986961890018722
 40
-0.9986961890018722
 40
-0.9986961890018722
 40
-0.3390592624406961
 40
-0.3390592624406961
 40
-0.3390592624406961
 40
0.0
 40
0.0
 40
0.0
 40
0.0
 10
-72.00000469935841
 20
7.984770849678785
 30
0.0
 10
-72.00160258715709
 20
8.789199609990802
 30
0.0
 10
-72.41053366768044
 20
9.52113975515417
 30
0.0
 10
-73.03126175361144
 20
9.984710580957511
 30
0.0
 10
-73.35032152500597
 20
10.22299011922609
 30
0.0
 10
-73.72931332033232
 20
10.38726325905112
 30
0.0
 10
-74.13175911206891
 20
10.4625106067676
 30
0.0
  0
LINE
  5
2B8A0
330
2B892
100
AcDbEntity
  8
0
100
AcDbLine
 10
-74.0
 20
10.46251060667355
 30
0.0
 11
-72.0
 21
10.46251060667355
 31
0.0
  0
SPLINE
  5
2B8A1
330
2B892
100
AcDbEntity
  8
0
100
AcDbSpline
210
0.0
220
0.0
230
1.0
 70
     8
 71
     3
 72
    34
 73
    30
 74
     0
 42
0.000000001
 43
0.0000000001
 40
0.0038131203441853
 40
0.0038131203441853
 40
0.0038131203441853
 40
0.0038131203441853
 40
0.0383813887458156
 40
0.0383813887458156
 40
0.0963711693654532
 40
0.0963711693654532
 40
0.1739469404159067
 40
0.1739469404159067
 40
0.1833080063589164
 40
0.1833080063589164
 40
0.2114072230642906
 40
0.2114072230642906
 40
0.2297483654766344
 40
0.2297483654766344
 40
0.243293229153278
 40
0.243293229153278
 40
0.2461221616081964
 40
0.2461221616081964
 40
0.2481252658965803
 40
0.2481252658965803
 40
0.2510808721097022
 40
0.2510808721097022
 40
0.2536356400299247
 40
0.2536356400299247
 40
0.2567875314904874
 40
0.2567875314904874
 40
0.2617785115977912
 40
0.2617785115977912
 40
0.2691256943102674
 40
0.2691256943102674
 40
0.2691256943102674
 40
0.2691256943102674
 10
-70.00000959943988
 20
10.23185432859968
 30
0.0
 10
-70.00000959944029
 20
10.1171273734873
 30
0.0
 10
-69.99998219075585
 20
10.00269097139258
 30
0.0
 10
-69.99974281208221
 20
9.699424748137579
 30
0.0
 10
-69.99935081065958
 20
9.512620905749077
 30
0.0
 10
-69.99739147472698
 20
9.100810202149387
 30
0.0
 10
-69.99540616736929
 20
8.877607829309543
 30
0.0
 10
-69.99470892541916
 20
8.65156606888182
 30
0.0
 10
-69.99465344370513
 20
8.627527210523833
 30
0.0
 10
-69.99451935407595
 20
8.53265699051483
 30
0.0
 10
-69.99461377402299
 20
8.46478654097716
 30
0.0
 10
-69.99518289064051
 20
8.353207472237718
 30
0.0
 10
-69.9955112685184
 20
8.309346023123534
 30
0.0
 10
-69.99636153923548
 20
8.22765682036864
 30
0.0
 10
-69.99681992008193
 20
8.190534703231445
 30
0.0
 10
-69.99756837701077
 20
8.138603914204837
 30
0.0
 10
-69.99770591140768
 20
8.129289503388324
 30
0.0
 10
-69.99794748210061
 20
8.113244759639995
 30
0.0
 10
-69.99805055072046
 20
8.106488438408147
 30
0.0
 10
-69.99830277039301
 20
8.090107038853536
 30
0.0
 10
-69.99845373172464
 20
8.080436464693566
 30
0.0
 10
-69.99870629642209
 20
8.064321203504725
 30
0.0
 10
-69.998814580672
 20
8.057437700515109
 30
0.0
 10
-69.99903142434398
 20
8.043635126132279
 30
0.0
 10
-69.99913663055406
 20
8.036925788225135
 30
0.0
 10
-69.99937921813506
 20
8.021373732509566
 30
0.0
 10
-69.99950334034448
 20
8.01332836729432
 30
0.0
 10
-69.99976262089983
 20
7.996310188849951
 30
0.0
 10
-69.99987825205415
 20
7.988487592087595
 30
0.0
 10
-69.99994666155449
 20
7.983776698146925
 30
0.0
  0
SPLINE
  5
2B8A2
330
2B892
100
AcDbEntity
  8
0
100
AcDbSpline
210
0.0
220
0.0
230
1.0
 70
     8
 71
     3
 72
     8
 73
     4
 74
     0
 42
0.000000001
 43
0.0000000001
 40
0.0210093797572275
 40
0.0210093797572275
 40
0.0210093797572275
 40
0.0210093797572275
 40
0.0217125239959892
 40
0.0217125239959892
 40
0.0217125239959892
 40
0.0217125239959892
 10
-69.99965587505157
 20
7.98597611393216
 30
0.0
 10
-69.99965360638244
 20
7.984005957345057
 30
0.0
 10
-69.99965137758985
 20
7.982013086924374
 30
0.0
 10
-69.99964918939577
 20
7.980001066750348
 30
0.0
  0
SPLINE
  5
2B8A3
330
2B892
100
AcDbEntity
  8
0
100
AcDbSpline
210
0.0
220
0.0
230
1.0
 70
     8
 71
     3
 72
    16
 73
    12
 74
     0
 42
0.000000001
 43
0.0000000001
 40
0.0350597686179036
 40
0.0350597686179036
 40
0.0350597686179036
 40
0.0350597686179036
 40
0.0372059517576799
 40
0.0372059517576799
 40
0.0391199891897691
 40
0.0391199891897691
 40
0.0421214815739097
 40
0.0421214815739097
 40
0.0450583202968724
 40
0.0450583202968724
 40
0.0460521772356116
 40
0.0460521772356116
 40
0.0460521772356116
 40
0.0460521772356116
 10
-69.99871640597999
 20
8.063684992289944
 30
0.0
 10
-69.99874990806176
 20
8.060973528463517
 30
0.0
 10
-69.99879003109571
 20
8.057702150843743
 30
0.0
 10
-69.99888010576132
 20
8.050305842357182
 30
0.0
 10
-69.99892896542931
 20
8.046276621943194
 30
0.0
 10
-69.99906895769925
 20
8.034706381634592
 30
0.0
 10
-69.99917050774752
 20
8.026295431802456
 30
0.0
 10
-69.9993842759237
 20
8.008576669264213
 30
0.0
 10
-69.99949755582915
 20
7.999179809298234
 30
0.0
 10
-69.99964992868608
 20
7.986474613715187
 30
0.0
 10
-69.99968863695598
 20
7.983241251014058
 30
0.0
 10
-69.99972738408015
 20
7.979996757260934
 30
0.0
  0
SPLINE
  5
2B8A4
330
2B892
100
AcDbEntity
  8
0
100
AcDbSpline
210
0.0
220
0.0
230
1.0
 70
     8
 71
     3
 72
    14
 73
    10
 74
     0
 42
0.000000001
 43
0.0000000001
 40
0.0155647537494956
 40
0.0155647537494956
 40
0.0155647537494956
 40
0.0155647537494956
 40
0.0156837142893265
 40
0.0156837142893265
 40
0.0197622213175083
 40
0.0197622213175083
 40
0.0217708363239953
 40
0.0217708363239953
 40
0.024871724687453
 40
0.024871724687453
 40
0.024871724687453
 40
0.024871724687453
 10
-69.9998872618771
 20
8.014360168456837
 30
0.0
 10
-69.9998872618771
 20
8.01436016845586
 30
0.0
 10
-69.99988726626478
 20
8.014358664373023
 30
0.0
 10
-69.99988757559879
 20
8.01425179686775
 30
0.0
 10
-69.99989326871707
 20
8.01228481730139
 30
0.0
 10
-69.99990741778048
 20
8.005704918037274
 30
0.0
 10
-69.99991301253358
 20
8.002929327438209
 30
0.0
 10
-69.99992891290962
 20
7.994395292325036
 30
0.0
 10
-69.99994026614356
 20
7.987699775552993
 30
0.0
 10
-69.99995288445105
 20
7.980000142771553
 30
0.0
  0
SPLINE
  5
2B8A5
330
2B892
100
AcDbEntity
  8
0
100
AcDbSpline
210
0.0
220
0.0
230
1.0
 70
     8
 71
     3
 72
    10
 73
     6
 74
     0
 42
0.000000001
 43
0.0000000001
 40
0.0
 40
0.0
 40
0.0
 40
0.0
 40
0.0019466748232944
 40
0.0019466748232944
 40
0.0023991235686533
 40
0.0023991235686533
 40
0.0023991235686533
 40
0.0023991235686533
 10
-72.00005163212743
 20
7.979999684721993
 30
0.0
 10
-72.00003469692299
 20
7.984993078623291
 30
0.0
 10
-72.0000189737901
 20
7.990256123581697
 30
0.0
 10
-72.00000472048794
 20
7.996526760861366
 30
0.0
 10
-72.00000238084128
 20
7.997711836780929
 30
0.0
 10
-72.00000014506279
 20
7.998881276478877
 30
0.0
  0
SPLINE
  5
2B8A6
330
2B892
100
AcDbEntity
  8
0
100
AcDbSpline
210
0.0
220
0.0
230
1.0
 70
     8
 71
     3
 72
     8
 73
     4
 74
     0
 42
0.000000001
 43
0.0000000001
 40
0.0
 40
0.0
 40
0.0
 40
0.0
 40
0.0008022217702811
 40
0.0008022217702811
 40
0.0008022217702811
 40
0.0008022217702811
 10
-72.00001109133086
 20
7.9800001125046
 30
0.0
 10
-72.00000754538776
 20
7.981091216403451
 30
0.0
 10
-72.00000361733538
 20
7.982352252250265
 30
0.0
 10
-71.99999977258508
 20
7.983599319582165
 30
0.0
  0
SPLINE
  5
2B8A7
330
2B892
100
AcDbEntity
  8
0
100
AcDbSpline
210
0.0
220
0.0
230
1.0
 70
     8
 71
     3
 72
     8
 73
     4
 74
     0
 42
0.000000001
 43
0.0000000001
 40
0.0232594235009478
 40
0.0232594235009478
 40
0.0232594235009478
 40
0.0232594235009478
 40
0.0256604915312686
 40
0.0256604915312686
 40
0.0256604915312686
 40
0.0256604915312686
 10
-74.10911452171379
 20
10.45839665049367
 30
0.0
 10
-74.11663887110555
 20
10.4597203801003
 30
0.0
 10
-74.12422152988495
 20
10.46104905814388
 30
0.0
 10
-74.13178374571828
 20
10.46237151522918
 30
0.0
  0
ARC
  5
2B8A8
330
2B892
100
AcDbEntity
  8
0
100
AcDbCircle
 10
-67.99999999999998
 20
2.0
 30
0.0
 40
4.000000000000003
100
AcDbArc
 50
180.0
 51
270.0
  0
ARC
  5
2B8A9
330
2B892
100
AcDbEntity
  8
0
100
AcDbCircle
 10
-67.99999999999998
 20
2.0
 30
0.0
 40
2.000000000000001
100
AcDbArc
 50
180.0
 51
270.0
  0
ARC
  5
2B8AA
330
2B892
100
AcDbEntity
  8
0
100
AcDbCircle
 10
67.99999999999998
 20
2.0
 30
0.0
 40
4.000000000000003
100
AcDbArc
 50
270.0
 51
0.0
  0
LINE
  5
2B8AB
330
2B892
100
AcDbEntity
  8
0
100
AcDbLine
 10
74.13175911166539
 20
10.46251060667354
 30
0.0
 11
101.6799503970238
 21
15.32000000000003
 31
0.0
  0
LINE
  5
2B8AC
330
2B892
100
AcDbEntity
  8
0
100
AcDbLine
 10
101.6799503970238
 20
15.32000000000003
 30
0.0
 11
111.5
 21
23.55999999999998
 31
0.0
  0
LINE
  5
2B8AD
330
2B892
100
AcDbEntity
  8
0
100
AcDbLine
 10
70.00000000000003
 20
15.32000000000003
 30
0.0
 11
70.00000000000003
 21
23.55999999999998
 31
0.0
  0
LINE
  5
2B8AE
330
2B892
100
AcDbEntity
  8
0
100
AcDbLine
 10
72.0
 20
15.32000000000003
 30
0.0
 11
70.00000000000003
 21
15.32000000000003
 31
0.0
  0
LINE
  5
2B8AF
330
2B892
100
AcDbEntity
  8
0
100
AcDbLine
 10
72.0
 20
23.55999999999998
 30
0.0
 11
72.0
 21
15.32000000000003
 31
0.0
  0
LINE
  5
2B8B0
330
2B892
100
AcDbEntity
  8
0
100
AcDbLine
 10
72.0
 20
23.55999999999998
 30
0.0
 11
70.00000000000003
 21
23.55999999999998
 31
0.0
  0
LINE
  5
2B8B1
330
2B892
100
AcDbEntity
  8
0
100
AcDbLine
 10
70.00000000000003
 20
10.72700107773627
 30
0.0
 11
70.00000000000003
 21
15.32000000000003
 31
0.0
  0
LINE
  5
2B8B2
330
2B892
100
AcDbEntity
  8
0
100
AcDbLine
 10
72.0
 20
15.32000000000003
 30
0.0
 11
72.0
 21
10.72700107773627
 31
0.0
  0
LINE
  5
2B8B3
330
2B892
100
AcDbEntity
  8
0
100
AcDbLine
 10
70.0
 20
10.72700107773629
 30
0.0
 11
70.0
 21
5.802962312675249
 31
0.0
  0
LINE
  5
2B8B4
330
2B892
100
AcDbEntity
  8
0
100
AcDbLine
 10
72.0
 20
5.80296231267525
 30
0.0
 11
72.0
 21
10.72700107773629
 31
0.0
  0
LINE
  5
2B8B5
330
2B892
100
AcDbEntity
  8
0
100
AcDbLine
 10
70.00000000000003
 20
23.55999999999998
 30
0.0
 11
70.00000000000003
 21
180.0
 31
0.0
  0
LINE
  5
2B8B6
330
2B892
100
AcDbEntity
  8
0
100
AcDbLine
 10
72.0
 20
180.0
 30
0.0
 11
72.0
 21
23.55999999999998
 31
0.0
  0
LINE
  5
2B8B7
330
2B892
100
AcDbEntity
  8
0
100
AcDbLine
 10
70.00000000000003
 20
180.0
 30
0.0
 11
72.0
 21
180.0
 31
0.0
  0
LINE
  5
2B8B8
330
2B892
100
AcDbEntity
  8
0
100
AcDbLine
 10
111.5
 20
23.55999999999998
 30
0.0
 11
111.5
 21
180.0
 31
0.0
  0
LINE
  5
2B8B9
330
2B892
100
AcDbEntity
  8
0
100
AcDbLine
 10
72.0
 20
5.802962312675248
 30
0.0
 11
72.0
 21
2.0
 31
0.0
  0
LINE
  5
2B8BA
330
2B892
100
AcDbEntity
  8
0
100
AcDbLine
 10
69.99999999999999
 20
2.0
 30
0.0
 11
70.00000000000003
 21
5.802962312675248
 31
0.0
  0
ARC
  5
2B8BB
330
2B892
100
AcDbEntity
  8
0
100
AcDbCircle
 10
67.99999999999998
 20
2.0
 30
0.0
 40
2.000000000000001
100
AcDbArc
 50
270.0
 51
0.0
  0
LINE
  5
2B8BC
330
2B892
100
AcDbEntity
  8
0
100
AcDbLine
 10
74.0
 20
180.0
 30
0.0
 11
72.0
 21
180.0
 31
0.0
  0
LINE
  5
2B8BD
330
2B892
100
AcDbEntity
  8
0
100
AcDbLine
 10
111.5
 20
180.0
 30
0.0
 11
74.0
 21
180.0
 31
0.0
  0
CIRCLE
  5
2B8BE
330
2B892
100
AcDbEntity
  8
0
100
AcDbCircle
 10
92.0
 20
160.0
 30
0.0
 40
6.5
  0
CIRCLE
  5
2B8BF
330
2B892
100
AcDbEntity
  8
0
100
AcDbCircle
 10
103.0
 20
165.0
 30
0.0
 40
2.5
  0
CIRCLE
  5
2B8C0
330
2B892
100
AcDbEntity
  8
0
100
AcDbCircle
 10
-92.0
 20
30.0
 30
0.0
 40
6.5
  0
CIRCLE
  5
2B8C1
330
2B892
100
AcDbEntity
  8
0
100
AcDbCircle
 10
92.0
 20
30.0
 30
0.0
 40
6.5
  0
CIRCLE
  5
2B8C2
330
2B892
100
AcDbEntity
  8
0
100
AcDbCircle
 10
-92.0
 20
100.0
 30
0.0
 40
6.5
  0
CIRCLE
  5
2B8C3
330
2B892
100
AcDbEntity
  8
0
100
AcDbCircle
 10
92.0
 20
100.0
 30
0.0
 40
6.5
  0
CIRCLE
  5
2B8C4
330
2B892
100
AcDbEntity
  8
0
100
AcDbCircle
 10
-92.0
 20
160.0
 30
0.0
 40
6.5
  0
CIRCLE
  5
2B8C5
330
2B892
100
AcDbEntity
  8
0
100
AcDbCircle
 10
-81.00000000000001
 20
35.0
 30
0.0
 40
2.5
  0
CIRCLE
  5
2B8C6
330
2B892
100
AcDbEntity
  8
0
100
AcDbCircle
 10
-81.00000000000001
 20
55.0
 30
0.0
 40
2.5
  0
CIRCLE
  5
2B8C7
330
2B892
100
AcDbEntity
  8
0
100
AcDbCircle
 10
-81.00000000000001
 20
75.0
 30
0.0
 40
2.5
  0
CIRCLE
  5
2B8C8
330
2B892
100
AcDbEntity
  8
0
100
AcDbCircle
 10
-81.00000000000001
 20
95.0
 30
0.0
 40
2.5
  0
CIRCLE
  5
2B8C9
330
2B892
100
AcDbEntity
  8
0
100
AcDbCircle
 10
-81.00000000000001
 20
115.0
 30
0.0
 40
2.5
  0
CIRCLE
  5
2B8CA
330
2B892
100
AcDbEntity
  8
0
100
AcDbCircle
 10
-81.00000000000001
 20
135.0
 30
0.0
 40
2.5
  0
CIRCLE
  5
2B8CB
330
2B892
100
AcDbEntity
  8
0
100
AcDbCircle
 10
-81.00000000000001
 20
155.0
 30
0.0
 40
2.5
  0
CIRCLE
  5
2B8CC
330
2B892
100
AcDbEntity
  8
0
100
AcDbCircle
 10
81.00000000000001
 20
35.0
 30
0.0
 40
2.5
  0
CIRCLE
  5
2B8CD
330
2B892
100
AcDbEntity
  8
0
100
AcDbCircle
 10
81.00000000000001
 20
55.0
 30
0.0
 40
2.5
  0
CIRCLE
  5
2B8CE
330
2B892
100
AcDbEntity
  8
0
100
AcDbCircle
 10
81.00000000000001
 20
75.0
 30
0.0
 40
2.5
  0
CIRCLE
  5
2B8CF
330
2B892
100
AcDbEntity
  8
0
100
AcDbCircle
 10
81.00000000000001
 20
95.0
 30
0.0
 40
2.5
  0
CIRCLE
  5
2B8D0
330
2B892
100
AcDbEntity
  8
0
100
AcDbCircle
 10
81.00000000000001
 20
115.0
 30
0.0
 40
2.5
  0
CIRCLE
  5
2B8D1
330
2B892
100
AcDbEntity
  8
0
100
AcDbCircle
 10
81.00000000000001
 20
135.0
 30
0.0
 40
2.5
  0
CIRCLE
  5
2B8D2
330
2B892
100
AcDbEntity
  8
0
100
AcDbCircle
 10
81.00000000000001
 20
155.0
 30
0.0
 40
2.5
  0
CIRCLE
  5
2B8D3
330
2B892
100
AcDbEntity
  8
0
100
AcDbCircle
 10
-81.00000000000001
 20
175.0
 30
0.0
 40
2.5
  0
CIRCLE
  5
2B8D4
330
2B892
100
AcDbEntity
  8
0
100
AcDbCircle
 10
81.00000000000001
 20
175.0
 30
0.0
 40
2.5
  0
CIRCLE
  5
2B8D5
330
2B892
100
AcDbEntity
  8
0
100
AcDbCircle
 10
-103.0
 20
25.0
 30
0.0
 40
2.5
  0
CIRCLE
  5
2B8D6
330
2B892
100
AcDbEntity
  8
0
100
AcDbCircle
 10
-103.0
 20
45.0
 30
0.0
 40
2.5
  0
CIRCLE
  5
2B8D7
330
2B892
100
AcDbEntity
  8
0
100
AcDbCircle
 10
-103.0
 20
65.0
 30
0.0
 40
2.5
  0
CIRCLE
  5
2B8D8
330
2B892
100
AcDbEntity
  8
0
100
AcDbCircle
 10
-103.0
 20
85.0
 30
0.0
 40
2.5
  0
CIRCLE
  5
2B8D9
330
2B892
100
AcDbEntity
  8
0
100
AcDbCircle
 10
-103.0
 20
105.0
 30
0.0
 40
2.5
  0
CIRCLE
  5
2B8DA
330
2B892
100
AcDbEntity
  8
0
100
AcDbCircle
 10
-103.0
 20
125.0
 30
0.0
 40
2.5
  0
CIRCLE
  5
2B8DB
330
2B892
100
AcDbEntity
  8
0
100
AcDbCircle
 10
-103.0
 20
145.0
 30
0.0
 40
2.5
  0
CIRCLE
  5
2B8DC
330
2B892
100
AcDbEntity
  8
0
100
AcDbCircle
 10
103.0
 20
25.0
 30
0.0
 40
2.5
  0
CIRCLE
  5
2B8DD
330
2B892
100
AcDbEntity
  8
0
100
AcDbCircle
 10
103.0
 20
45.0
 30
0.0
 40
2.5
  0
CIRCLE
  5
2B8DE
330
2B892
100
AcDbEntity
  8
0
100
AcDbCircle
 10
103.0
 20
65.0
 30
0.0
 40
2.5
  0
CIRCLE
  5
2B8DF
330
2B892
100
AcDbEntity
  8
0
100
AcDbCircle
 10
103.0
 20
85.0
 30
0.0
 40
2.5
  0
CIRCLE
  5
2B8E0
330
2B892
100
AcDbEntity
  8
0
100
AcDbCircle
 10
103.0
 20
105.0
 30
0.0
 40
2.5
  0
CIRCLE
  5
2B8E1
330
2B892
100
AcDbEntity
  8
0
100
AcDbCircle
 10
103.0
 20
125.0
 30
0.0
 40
2.5
  0
CIRCLE
  5
2B8E2
330
2B892
100
AcDbEntity
  8
0
100
AcDbCircle
 10
103.0
 20
145.0
 30
0.0
 40
2.5
  0
CIRCLE
  5
2B8E3
330
2B892
100
AcDbEntity
  8
0
100
AcDbCircle
 10
-103.0
 20
165.0
 30
0.0
 40
2.5
  0
LINE
  5
2B8E4
330
2B892
100
AcDbEntity
  8
0
100
AcDbLine
 10
-111.5
 20
180.0
 30
0.0
 11
-74.0
 21
180.0
 31
0.0
  0
LINE
  5
2B8E5
330
2B892
100
AcDbEntity
  8
0
100
AcDbLine
 10
-111.5
 20
23.55999999999998
 30
0.0
 11
-111.5
 21
180.0
 31
0.0
  0
LINE
  5
2B8E6
330
2B892
100
AcDbEntity
  8
0
100
AcDbLine
 10
-72.0
 20
5.802962312675248
 30
0.0
 11
-72.0
 21
2.0
 31
0.0
  0
LINE
  5
2B8E7
330
2B892
100
AcDbEntity
  8
0
100
AcDbLine
 10
-69.99999999999999
 20
2.0
 30
0.0
 11
-70.00000000000003
 21
5.802962312675248
 31
0.0
  0
LINE
  5
2B8E8
330
2B892
100
AcDbEntity
  8
0
100
AcDbLine
 10
-111.5
 20
23.55999999999998
 30
0.0
 11
-101.6799503970238
 21
15.32000000000003
 31
0.0
  0
LINE
  5
2B8E9
330
2B892
100
AcDbEntity
  8
0
100
AcDbLine
 10
-101.6799503970238
 20
15.32000000000003
 30
0.0
 11
-74.13175911166539
 21
10.46251060667354
 31
0.0
  0
LINE
  5
2B8EA
330
2B892
100
AcDbEntity
  8
0
100
AcDbLine
 10
-70.00000000000003
 20
23.55999999999998
 30
0.0
 11
-70.00000000000003
 21
15.32000000000003
 31
0.0
  0
LINE
  5
2B8EB
330
2B892
100
AcDbEntity
  8
0
100
AcDbLine
 10
-72.0
 20
23.55999999999998
 30
0.0
 11
-70.00000000000003
 21
23.55999999999998
 31
0.0
  0
LINE
  5
2B8EC
330
2B892
100
AcDbEntity
  8
0
100
AcDbLine
 10
-72.0
 20
15.32000000000003
 30
0.0
 11
-72.0
 21
23.55999999999998
 31
0.0
  0
LINE
  5
2B8ED
330
2B892
100
AcDbEntity
  8
0
100
AcDbLine
 10
-72.0
 20
15.32000000000003
 30
0.0
 11
-70.00000000000003
 21
15.32000000000003
 31
0.0
  0
LINE
  5
2B8EE
330
2B892
100
AcDbEntity
  8
0
100
AcDbLine
 10
-70.00000000000003
 20
15.32000000000003
 30
0.0
 11
-70.00000000000003
 21
10.72700107773627
 31
0.0
  0
LINE
  5
2B8EF
330
2B892
100
AcDbEntity
  8
0
100
AcDbLine
 10
-72.0
 20
10.72700107773627
 30
0.0
 11
-72.0
 21
15.32000000000003
 31
0.0
  0
LINE
  5
2B8F0
330
2B892
100
AcDbEntity
  8
0
100
AcDbLine
 10
-70.0
 20
5.80296231267525
 30
0.0
 11
-70.0
 21
10.72700107773629
 31
0.0
  0
LINE
  5
2B8F1
330
2B892
100
AcDbEntity
  8
0
100
AcDbLine
 10
-72.0
 20
10.72700107773629
 30
0.0
 11
-72.0
 21
5.802962312675249
 31
0.0
  0
LINE
  5
2B8F2
330
2B892
100
AcDbEntity
  8
0
100
AcDbLine
 10
-70.00000000000003
 20
180.0
 30
0.0
 11
-70.00000000000003
 21
23.55999999999998
 31
0.0
  0
LINE
  5
2B8F3
330
2B892
100
AcDbEntity
  8
0
100
AcDbLine
 10
-72.0
 20
180.0
 30
0.0
 11
-70.00000000000003
 21
180.0
 31
0.0
  0
LINE
  5
2B8F4
330
2B892
100
AcDbEntity
  8
0
100
AcDbLine
 10
-72.0
 20
23.55999999999998
 30
0.0
 11
-72.0
 21
180.0
 31
0.0
  0
LINE
  5
2B8F5
330
2B892
100
AcDbEntity
  8
0
100
AcDbLine
 10
-74.0
 20
180.0
 30
0.0
 11
-72.0
 21
180.0
 31
0.0
  0
LINE
  5
2B8F6
330
2B892
100
AcDbEntity
  8
0
100
AcDbLine
 10
-67.99999999999998
 20
0.0
 30
0.0
 11
67.99999999999998
 21
0.0
 31
0.0
  0
LINE
  5
2B8F7
330
2B892
100
AcDbEntity
  8
0
100
AcDbLine
 10
68.0
 20
-2.0
 30
0.0
 11
-67.99999999999998
 21
-2.000000000000003
 31
0.0
  0
ENDBLK
  5
2B894
330
2B892
100
AcDbEntity
  8
0
100
AcDbBlockEnd
  0
BLOCK
  5
2B8F9
330
2B8F8
100
AcDbEntity
  8
0
100
AcDbBlockBegin
  2
SAEL500_140_2-Left
 70
     0
 10
0.0
 20
0.0
 30
0.0
  3
SAEL500_140_2-Left
  1

  0
SPLINE
  5
2B8FB
330
2B8F8
100
AcDbEntity
  8
0
100
AcDbSpline
210
0.0
220
0.0
230
1.0
 70
     8
 71
     3
 72
    11
 73
     7
 74
     0
 42
0.000000001
 43
0.0000000001
 40
0.0
 40
0.0
 40
0.0
 40
0.0
 40
0.2630945547036993
 40
0.2630945547036993
 40
0.2630945547036993
 40
0.3972400822976386
 40
0.3972400822976386
 40
0.3972400822976386
 40
0.3972400822976386
 10
-0.0000000000000059
 20
10.46251060667358
 30
0.0
 10
0.0000028677165409
 20
10.38069514173719
 30
0.0
 10
0.1353978453908692
 20
10.31746038279386
 30
0.0
 10
0.3412741587833015
 20
10.23491903391364
 30
0.0
 10
0.4462454939377903
 20
10.19283320356903
 30
0.0
 10
0.5677281833644981
 20
10.14503122421709
 30
0.0
 10
0.6963018294767587
 20
10.0852169615507
 30
0.0
  0
SPLINE
  5
2B8FC
330
2B8F8
100
AcDbEntity
  8
0
100
AcDbSpline
210
0.0
220
0.0
230
1.0
 70
     8
 71
     3
 72
    11
 73
     7
 74
     0
 42
0.000000001
 43
0.0000000001
 40
0.6188797066555853
 40
0.6188797066555853
 40
0.6188797066555853
 40
0.6188797066555853
 40
0.6652191719040235
 40
0.6652191719040235
 40
0.6652191719040235
 40
0.7872173741063941
 40
0.7872173741063941
 40
0.7872173741063941
 40
0.7872173741063941
 10
1.349185177615655
 20
9.661961715707347
 30
0.0
 10
1.39281066316265
 20
9.621650017175362
 30
0.0
 10
1.435424978265957
 20
9.578663541213481
 30
0.0
 10
1.476639799408728
 20
9.532742751321871
 30
0.0
 10
1.58514631877733
 20
9.411846798370016
 30
0.0
 10
1.684106522847896
 20
9.270591791717798
 30
0.0
 10
1.766114387207741
 20
9.104173222411684
 30
0.0
  0
LINE
  5
2B8FD
330
2B8F8
100
AcDbEntity
  8
0
100
AcDbLine
 10
1.845078367041157
 20
10.46251060667355
 30
0.0
 11
1.690952694430051
 21
10.46251060667355
 31
0.0
  0
LINE
  5
2B8FE
330
2B8F8
100
AcDbEntity
  8
0
100
AcDbLine
 10
0.1517362809224382
 20
10.46251060667355
 30
0.0
 11
0.0
 21
10.46251060667355
 31
0.0
  0
SPLINE
  5
2B8FF
330
2B8F8
100
AcDbEntity
  8
0
100
AcDbSpline
210
0.0
220
0.0
230
1.0
 70
     8
 71
     3
 72
    14
 73
    10
 74
     0
 42
0.000000001
 43
0.0000000001
 40
0.0
 40
0.0
 40
0.0
 40
0.0
 40
0.3894396598240881
 40
0.3894396598240881
 40
0.3894396598240881
 40
0.7616502545678037
 40
0.7616502545678037
 40
0.7616502545678037
 40
0.7796363604686519
 40
0.7796363604686519
 40
0.7796363604686519
 40
0.7796363604686519
 10
0.0000000000000168
 20
10.46251060667355
 30
0.0
 10
0.0000033433566141
 20
10.33776639078149
 30
0.0
 10
0.3049729408110074
 20
10.26547024796807
 30
0.0
 10
0.6743917850822841
 20
10.09548616922059
 30
0.0
 10
1.027467298238438
 20
9.933022297215003
 30
0.0
 10
1.439329893801405
 20
9.686745185560964
 30
0.0
 10
1.712905503760453
 20
9.205386828665458
 30
0.0
 10
1.726125331358323
 20
9.182126441922997
 30
0.0
 10
1.738972926431911
 20
9.158450769295672
 30
0.0
 10
1.751430085786242
 20
9.134324632307631
 30
0.0
  0
SPLINE
  5
2B900
330
2B8F8
100
AcDbEntity
  8
0
100
AcDbSpline
210
0.0
220
0.0
230
1.0
 70
     8
 71
     3
 72
    11
 73
     7
 74
     0
 42
0.000000001
 43
0.0000000001
 40
-1.0
 40
-1.0
 40
-1.0
 40
-1.0
 40
-0.3390592624406961
 40
-0.3390592624406961
 40
-0.3390592624406961
 40
0.0
 40
0.0
 40
0.0
 40
0.0
 10
2.000000000000067
 20
7.979999999999972
 30
0.0
 10
2.00083377250651
 20
8.786305116445801
 30
0.0
 10
2.000384176564073
 20
9.520223480281197
 30
0.0
 10
2.000035059029015
 20
9.984710580957511
 30
0.0
 10
1.999855963495611
 20
10.22299011922609
 30
0.0
 10
1.99993224117684
 20
10.38726325905112
 30
0.0
 10
1.999999998862178
 20
10.4625106067676
 30
0.0
  0
SPLINE
  5
2B901
330
2B8F8
100
AcDbEntity
  8
0
100
AcDbSpline
210
0.0
220
0.0
230
1.0
 70
     8
 71
     3
 72
    14
 73
    10
 74
     0
 42
0.000000001
 43
0.0000000001
 40
0.0
 40
0.0
 40
0.0
 40
0.0
 40
0.0049219032016793
 40
0.0049219032016793
 40
0.0069182730937757
 40
0.0069182730937757
 40
0.0100207133802902
 40
0.0100207133802902
 40
0.0124520403803913
 40
0.0124520403803913
 40
0.0124520403803913
 40
0.0124520403803913
 10
1.999592629282694
 20
7.979998964484874
 30
0.0
 10
1.999557424170106
 20
7.995794059737171
 30
0.0
 10
1.99947468333465
 20
8.011260111890234
 30
0.0
 10
1.999316282387982
 20
8.029425173390485
 30
0.0
 10
1.99926563032378
 20
8.034306394139097
 30
0.0
 10
1.999136276225381
 20
8.045243551717879
 30
0.0
 10
1.999054276743692
 20
8.050683201146313
 30
0.0
 10
1.99895121572327
 20
8.056872462955574
 30
0.0
 10
1.99892132356224
 20
8.058388675389892
 30
0.0
 10
1.99892132359011
 20
8.058388673968387
 30
0.0
  0
SPLINE
  5
2B902
330
2B8F8
100
AcDbEntity
  8
0
100
AcDbSpline
210
0.0
220
0.0
230
1.0
 70
     8
 71
     3
 72
     8
 73
     4
 74
     0
 42
0.000000001
 43
0.0000000001
 40
0.0
 40
0.0
 40
0.0
 40
0.0
 40
0.0024647164547015
 40
0.0024647164547015
 40
0.0024647164547015
 40
0.0024647164547015
 10
1.999984291762224
 20
7.979999710486064
 30
0.0
 10
1.999971022098681
 20
7.980720389859438
 30
0.0
 10
1.999944869577046
 20
7.982053354288909
 30
0.0
 10
1.999915217663821
 20
7.983578117583657
 30
0.0
  0
SPLINE
  5
2B903
330
2B8F8
100
AcDbEntity
  8
0
100
AcDbSpline
210
0.0
220
0.0
230
1.0
 70
     8
 71
     3
 72
    10
 73
     6
 74
     0
 42
0.000000001
 43
0.0000000001
 40
0.0107640459682189
 40
0.0107640459682189
 40
0.0107640459682189
 40
0.0107640459682189
 40
0.0125679382179085
 40
0.0125679382179085
 40
0.0137556575819575
 40
0.0137556575819575
 40
0.0137556575819575
 40
0.0137556575819575
 10
1.999514033038821
 20
8.001920689106743
 30
0.0
 10
1.999495164779039
 20
8.00269364794261
 30
0.0
 10
1.999481028676425
 20
8.003258862832399
 30
0.0
 10
1.999468047961782
 20
8.003779595841772
 30
0.0
 10
1.999465381556799
 20
8.003885744753477
 30
0.0
 10
1.999465381509476
 20
8.003885746640023
 30
0.0
  0
SPLINE
  5
2B904
330
2B8F8
100
AcDbEntity
  8
0
100
AcDbSpline
210
0.0
220
0.0
230
1.0
 70
     8
 71
     3
 72
    34
 73
    30
 74
     0
 42
0.000000001
 43
0.0000000001
 40
0.0085780134419317
 40
0.0085780134419317
 40
0.0085780134419317
 40
0.0085780134419317
 40
0.0104272625416262
 40
0.0104272625416262
 40
0.0128592638496976
 40
0.0128592638496976
 40
0.0148362496850013
 40
0.0148362496850013
 40
0.0169851750006338
 40
0.0169851750006338
 40
0.0209646073832573
 40
0.0209646073832573
 40
0.0295841307511725
 40
0.0295841307511725
 40
0.0478975143350374
 40
0.0478975143350374
 40
0.0879499999295523
 40
0.0879499999295523
 40
0.1313691958343919
 40
0.1313691958343919
 40
0.1471376550539108
 40
0.1471376550539108
 40
0.1510005069155615
 40
0.1510005069155615
 40
0.1532905483810384
 40
0.1532905483810384
 40
0.1546200710044502
 40
0.1546200710044502
 40
0.1552388137775976
 40
0.1552388137775976
 40
0.1552388137775976
 40
0.1552388137775976
 10
1.999517233980866
 20
8.001650542815132
 30
0.0
 10
1.999449934245496
 20
8.004356271000451
 30
0.0
 10
1.999369882888657
 20
8.00745144584051
 30
0.0
 10
1.999146119730564
 20
8.015709130083459
 30
0.0
 10
1.998978576833781
 20
8.02160579693945
 30
0.0
 10
1.998589690651352
 20
8.034039251189993
 30
0.0
 10
1.998382444623615
 20
8.04028350467213
 30
0.0
 10
1.997909809453918
 20
8.053531677628694
 30
0.0
 10
1.997637738911403
 20
8.060659144732756
 30
0.0
 10
1.996807345190772
 20
8.08097405317804
 30
0.0
 10
1.996197105114806
 20
8.094300769271953
 30
0.0
 10
1.994065178079505
 20
8.136189857574478
 30
0.0
 10
1.992295928376749
 20
8.164710663266415
 30
0.0
 10
1.985846221434432
 20
8.252477078010389
 30
0.0
 10
1.98011079216001
 20
8.310726285774984
 30
0.0
 10
1.95722852282197
 20
8.493201886247495
 30
0.0
 10
1.934422901209918
 20
8.615580549141267
 30
0.0
 10
1.867228129930426
 20
8.865723107489364
 30
0.0
 10
1.819949582518617
 20
8.994806294274015
 30
0.0
 10
1.74132254412628
 20
9.15509206516914
 30
0.0
 10
1.718035948694454
 20
9.197850744545714
 30
0.0
 10
1.693534755357868
 20
9.239659109057738
 30
0.0
 10
1.688953480880661
 20
9.247312596658707
 30
0.0
 10
1.683274694409286
 20
9.256688957474988
 30
0.0
 10
1.681508846089995
 20
9.259575826455604
 30
0.0
 10
1.679708594776316
 20
9.262510095659159
 30
0.0
 10
1.679252633986231
 20
9.263250621745349
 30
0.0
 10
1.678933312413381
 20
9.26376911998447
 30
0.0
 10
1.678882176522745
 20
9.26385208151016
 30
0.0
 10
1.678882176254913
 20
9.263852081944762
 30
0.0
  0
LINE
  5
2B905
330
2B8F8
100
AcDbEntity
  8
0
100
AcDbLine
 10
2.000000000000073
 20
1.999999999999999
 30
0.0
 11
2.000000000000069
 21
-2.0
 31
0.0
  0
LINE
  5
2B906
330
2B8F8
100
AcDbEntity
  8
0
100
AcDbLine
 10
2.000000000000073
 20
2.0
 30
0.0
 11
2.000000000000073
 21
7.979999999999975
 31
0.0
  0
LINE
  5
2B907
330
2B8F8
100
AcDbEntity
  8
0
100
AcDbLine
 10
2.000000000000006
 20
-2.0
 30
0.0
 11
86.00000000000001
 21
-2.000000000000003
 31
0.0
  0
LINE
  5
2B908
330
2B8F8
100
AcDbEntity
  8
0
100
AcDbLine
 10
86.00000000000001
 20
-2.000000000000003
 30
0.0
 11
86.00000000000001
 21
2.0
 31
0.0
  0
LINE
  5
2B909
330
2B8F8
100
AcDbEntity
  8
0
100
AcDbLine
 10
2.000000000000028
 20
23.55999999999998
 30
0.0
 11
2.00000000000001
 21
180.0
 31
0.0
  0
LINE
  5
2B90A
330
2B8F8
100
AcDbEntity
  8
0
100
AcDbLine
 10
0.0
 20
180.0
 30
0.0
 11
2.00000000000001
 21
180.0
 31
0.0
  0
LINE
  5
2B90B
330
2B8F8
100
AcDbEntity
  8
0
100
AcDbLine
 10
0.0
 20
23.55999999999998
 30
0.0
 11
0.0
 21
180.0
 31
0.0
  0
LINE
  5
2B90C
330
2B8F8
100
AcDbEntity
  8
0
100
AcDbLine
 10
4.000000000000003
 20
180.0
 30
0.0
 11
46.00000000000001
 21
180.0
 31
0.0
  0
LINE
  5
2B90D
330
2B8F8
100
AcDbEntity
  8
0
100
AcDbLine
 10
86.00000000000006
 20
5.802962312675248
 30
0.0
 11
86.00000000000001
 21
2.0
 31
0.0
  0
LINE
  5
2B90E
330
2B8F8
100
AcDbEntity
  8
0
100
AcDbLine
 10
2.000000000000028
 20
23.55999999999998
 30
0.0
 11
2.000000000000019
 21
15.32000000000003
 31
0.0
  0
LINE
  5
2B90F
330
2B8F8
100
AcDbEntity
  8
0
100
AcDbLine
 10
2.000000000000019
 20
15.32000000000003
 30
0.0
 11
2.000000000000003
 21
10.46251060667354
 31
0.0
  0
LINE
  5
2B910
330
2B8F8
100
AcDbEntity
  8
0
100
AcDbLine
 10
0.0
 20
10.46251060667354
 30
0.0
 11
0.0
 21
15.32000000000003
 31
0.0
  0
LINE
  5
2B911
330
2B8F8
100
AcDbEntity
  8
0
100
AcDbLine
 10
2.000000000000019
 20
15.32000000000003
 30
0.0
 11
0.0
 21
15.32000000000003
 31
0.0
  0
LINE
  5
2B912
330
2B8F8
100
AcDbEntity
  8
0
100
AcDbLine
 10
0.0
 20
15.32000000000003
 30
0.0
 11
0.0
 21
23.55999999999998
 31
0.0
  0
LINE
  5
2B913
330
2B8F8
100
AcDbEntity
  8
0
100
AcDbLine
 10
0.0
 20
23.55999999999998
 30
0.0
 11
2.000000000000028
 21
23.55999999999998
 31
0.0
  0
LINE
  5
2B914
330
2B8F8
100
AcDbEntity
  8
0
100
AcDbLine
 10
55.82004960297631
 20
15.32000000000003
 30
0.0
 11
46.00000000000004
 21
23.55999999999998
 31
0.0
  0
LINE
  5
2B915
330
2B8F8
100
AcDbEntity
  8
0
100
AcDbLine
 10
81.8682408883347
 20
10.72700107773627
 30
0.0
 11
55.82004960297631
 21
15.32000000000003
 31
0.0
  0
ARC
  5
2B916
330
2B8F8
100
AcDbEntity
  8
0
100
AcDbCircle
 10
81.00000000000006
 20
5.802962312675248
 30
0.0
 40
5.0
100
AcDbArc
 50
0.0
 51
80.00000000000003
  0
LINE
  5
2B917
330
2B8F8
100
AcDbEntity
  8
0
100
AcDbLine
 10
46.00000000000004
 20
23.55999999999998
 30
0.0
 11
46.00000000000001
 21
180.0
 31
0.0
  0
LINE
  5
2B918
330
2B8F8
100
AcDbEntity
  8
0
100
AcDbLine
 10
2.000000000000001
 20
180.0
 30
0.0
 11
4.000000000000003
 21
180.0
 31
0.0
  0
CIRCLE
  5
2B919
330
2B8F8
100
AcDbEntity
  8
0
100
AcDbCircle
 10
38.5
 20
35.0
 30
0.0
 40
2.5
  0
CIRCLE
  5
2B91A
330
2B8F8
100
AcDbEntity
  8
0
100
AcDbCircle
 10
38.5
 20
55.0
 30
0.0
 40
2.5
  0
CIRCLE
  5
2B91B
330
2B8F8
100
AcDbEntity
  8
0
100
AcDbCircle
 10
38.5
 20
75.0
 30
0.0
 40
2.5
  0
CIRCLE
  5
2B91C
330
2B8F8
100
AcDbEntity
  8
0
100
AcDbCircle
 10
38.5
 20
95.0
 30
0.0
 40
2.5
  0
CIRCLE
  5
2B91D
330
2B8F8
100
AcDbEntity
  8
0
100
AcDbCircle
 10
38.5
 20
115.0
 30
0.0
 40
2.5
  0
CIRCLE
  5
2B91E
330
2B8F8
100
AcDbEntity
  8
0
100
AcDbCircle
 10
38.5
 20
135.0
 30
0.0
 40
2.5
  0
CIRCLE
  5
2B91F
330
2B8F8
100
AcDbEntity
  8
0
100
AcDbCircle
 10
38.5
 20
155.0
 30
0.0
 40
2.5
  0
CIRCLE
  5
2B920
330
2B8F8
100
AcDbEntity
  8
0
100
AcDbCircle
 10
38.5
 20
175.0
 30
0.0
 40
2.5
  0
ENDBLK
  5
2B8FA
330
2B8F8
100
AcDbEntity
  8
0
100
AcDbBlockEnd
  0
BLOCK
  5
2B922
330
2B921
100
AcDbEntity
  8
0
100
AcDbBlockBegin
  2
SAEL500_140_2-Right
 70
     0
 10
0.0
 20
0.0
 30
0.0
  3
SAEL500_140_2-Right
  1

  0
SPLINE
  5
2B924
330
2B921
100
AcDbEntity
  8
0
100
AcDbSpline
210
0.0
220
0.0
230
1.0
 70
     8
 71
     3
 72
    17
 73
    13
 74
     0
 42
0.000000001
 43
0.0000000001
 40
0.0
 40
0.0
 40
0.0
 40
0.0
 40
0.2630945547036993
 40
0.2630945547036993
 40
0.2630945547036993
 40
0.6652191719040235
 40
0.6652191719040235
 40
0.6652191719040235
 40
0.9355086585159327
 40
0.9355086585159327
 40
0.9355086585159327
 40
1.0
 40
1.0
 40
1.0
 40
1.0
 10
0.0000000000000059
 20
10.46251060667358
 30
0.0
 10
-0.0000028677165409
 20
10.38069514173719
 30
0.0
 10
-0.1353978453908692
 20
10.31746038279386
 30
0.0
 10
-0.3412741587833015
 20
10.23491903391364
 30
0.0
 10
-0.6559440454587695
 20
10.10875941666487
 30
0.0
 10
-1.11898581945532
 20
9.931234187459518
 30
0.0
 10
-1.476639799408728
 20
9.532742751321871
 30
0.0
 10
-1.717038189587749
 20
9.264895320237515
 30
0.0
 10
-1.910578205233537
 20
8.897114864352479
 30
0.0
 10
-1.976719719940765
 20
8.37715260120655
 30
0.0
 10
-1.992501151415315
 20
8.253089085855986
 30
0.0
 10
-1.999065688200521
 20
8.11964286484862
 30
0.0
 10
-1.999999999999948
 20
7.979999999999956
 30
0.0
  0
SPLINE
  5
2B925
330
2B921
100
AcDbEntity
  8
0
100
AcDbSpline
210
0.0
220
0.0
230
1.0
 70
     8
 71
     3
 72
    14
 73
    10
 74
     0
 42
0.000000001
 43
0.0000000001
 40
0.0
 40
0.0
 40
0.0
 40
0.0
 40
0.2870001856706885
 40
0.2870001856706885
 40
0.2870001856706885
 40
0.8282911261529793
 40
0.8282911261529793
 40
0.8282911261529793
 40
1.0
 40
1.0
 40
1.0
 40
1.0
 10
-1.999999999999995
 20
10.46251060667356
 30
0.0
 10
-2.000346318721013
 20
10.39911489184605
 30
0.0
 10
-2.000215842365186
 20
10.27267956155842
 30
0.0
 10
-2.000098106197991
 20
10.08956682451761
 30
0.0
 10
-1.999876052262655
 20
9.744210721644451
 30
0.0
 10
-2.000046339026058
 20
9.210651672363637
 30
0.0
 10
-2.000163544094249
 20
8.590857296232083
 30
0.0
 10
-2.000200724007607
 20
8.394245481063993
 30
0.0
 10
-2.000026720759608
 20
8.188747556665566
 30
0.0
 10
-2.000000000000077
 20
7.979999999999929
 30
0.0
  0
SPLINE
  5
2B926
330
2B921
100
AcDbEntity
  8
0
100
AcDbSpline
210
0.0
220
0.0
230
1.0
 70
     8
 71
     3
 72
     8
 73
     4
 74
     0
 42
0.000000001
 43
0.0000000001
 40
0.3972932997874012
 40
0.3972932997874012
 40
0.3972932997874012
 40
0.3972932997874012
 40
0.6189293334749188
 40
0.6189293334749188
 40
0.6189293334749188
 40
0.6189293334749188
 10
-0.6968181212822734
 20
10.08508884644373
 30
0.0
 10
-0.9084849813249007
 20
9.986202132043791
 30
0.0
 10
-1.139521640132199
 20
9.856465965602103
 30
0.0
 10
-1.348319373717964
 20
9.663942767729377
 30
0.0
  0
SPLINE
  5
2B927
330
2B921
100
AcDbEntity
  8
0
100
AcDbSpline
210
0.0
220
0.0
230
1.0
 70
     8
 71
     3
 72
     8
 73
     4
 74
     0
 42
0.000000001
 43
0.0000000001
 40
0.819148054824055
 40
0.819148054824055
 40
0.819148054824055
 40
0.819148054824055
 40
0.9812142248988159
 40
0.9812142248988159
 40
0.9812142248988159
 40
0.9812142248988159
 10
-1.82768179375498
 20
8.968429864498164
 30
0.0
 10
-1.923680180873579
 20
8.731675026668327
 30
0.0
 10
-1.98473178200484
 20
8.452071867265116
 30
0.0
 10
-1.997519385883476
 20
8.103884289107112
 30
0.0
  0
SPLINE
  5
2B928
330
2B921
100
AcDbEntity
  8
0
100
AcDbSpline
210
0.0
220
0.0
230
1.0
 70
     8
 71
     3
 72
     8
 73
     4
 74
     0
 42
0.000000001
 43
0.0000000001
 40
0.0236657911454027
 40
0.0236657911454027
 40
0.0236657911454027
 40
0.0236657911454027
 40
0.0259773650729488
 40
0.0259773650729488
 40
0.0259773650729488
 40
0.0259773650729488
 10
-1.999514426697319
 20
8.001731211215755
 30
0.0
 10
-1.999549743565004
 20
7.994729291747945
 30
0.0
 10
-1.999576095186625
 20
7.987417137673624
 30
0.0
 10
-1.999592629282693
 20
7.979998964484874
 30
0.0
  0
SPLINE
  5
2B929
330
2B921
100
AcDbEntity
  8
0
100
AcDbSpline
210
0.0
220
0.0
230
1.0
 70
     8
 71
     3
 72
    12
 73
     8
 74
     0
 42
0.000000001
 43
0.0000000001
 40
0.0085430932551559
 40
0.0085430932551559
 40
0.0085430932551559
 40
0.0085430932551559
 40
0.0108850245915549
 40
0.0108850245915549
 40
0.0178250004814839
 40
0.0178250004814839
 40
0.0205934103709817
 40
0.0205934103709817
 40
0.0205934103709817
 40
0.0205934103709817
 10
-1.999465381509539
 20
8.003885746637468
 30
0.0
 10
-1.999465381509122
 20
8.003885746654088
 30
0.0
 10
-1.999475770876001
 20
8.003473707368357
 30
0.0
 10
-1.999552945119606
 20
8.000340852617039
 30
0.0
 10
-1.999715716292245
 20
7.993417815193824
 30
0.0
 10
-1.999878565571793
 20
7.985525612834978
 30
0.0
 10
-1.999916774133275
 20
7.983574091233622
 30
0.0
 10
-1.999944488250292
 20
7.982121247099998
 30
0.0
  0
SPLINE
  5
2B92A
330
2B921
100
AcDbEntity
  8
0
100
AcDbSpline
210
0.0
220
0.0
230
1.0
 70
     8
 71
     3
 72
     8
 73
     4
 74
     0
 42
0.000000001
 43
0.0000000001
 40
0.0315135455664454
 40
0.0315135455664454
 40
0.0315135455664454
 40
0.0315135455664454
 40
0.0522786779013171
 40
0.0522786779013171
 40
0.0522786779013171
 40
0.0522786779013171
 10
-1.999919449692514
 20
7.984759324409002
 30
0.0
 10
-1.999919449695002
 20
7.984759324211339
 30
0.0
 10
-1.999932383618232
 20
7.984140319729293
 30
0.0
 10
-1.999960619753128
 20
7.979999746164414
 30
0.0
  0
SPLINE
  5
2B92B
330
2B921
100
AcDbEntity
  8
0
100
AcDbSpline
210
0.0
220
0.0
230
1.0
 70
     8
 71
     3
 72
    28
 73
    24
 74
     0
 42
0.000000001
 43
0.0000000001
 40
0.1835905094898692
 40
0.1835905094898692
 40
0.1835905094898692
 40
0.1835905094898692
 40
0.2176281745418136
 40
0.2176281745418136
 40
0.2546916075401707
 40
0.2546916075401707
 40
0.2790630747527357
 40
0.2790630747527357
 40
0.2840385874886173
 40
0.2840385874886173
 40
0.2876483154973179
 40
0.2876483154973179
 40
0.289416425873155
 40
0.289416425873155
 40
0.291116209682064
 40
0.291116209682064
 40
0.2932011326853725
 40
0.2932011326853725
 40
0.2951178128577074
 40
0.2951178128577074
 40
0.298401603511691
 40
0.298401603511691
 40
0.3016647909049625
 40
0.3016647909049625
 40
0.3016647909049625
 40
0.3016647909049625
 10
-1.804437519494006
 20
9.020304746047564
 30
0.0
 10
-1.845555951565212
 20
8.923927854535563
 30
0.0
 10
-1.879376856328496
 20
8.822941218095033
 30
0.0
 10
-1.935236639300512
 20
8.609489385752791
 30
0.0
 10
-1.956353271732439
 20
8.496222883052364
 30
0.0
 10
-1.981169742382072
 20
8.304546289664834
 30
0.0
 10
-1.988467769991711
 20
8.226529531767484
 30
0.0
 10
-1.994366981290749
 20
8.129710905320958
 30
0.0
 10
-1.995267851627488
 20
8.113166337046813
 30
0.0
 10
-1.996642713917937
 20
8.084587857590456
 30
0.0
 10
-1.997169074215102
 20
8.072485986668262
 30
0.0
 10
-1.997862263899759
 20
8.054755648064096
 30
0.0
 10
-1.998076615696342
 20
8.048945113115674
 30
0.0
 10
-1.998460301399903
 20
8.037942765696058
 30
0.0
 10
-1.998632898633426
 20
8.032676636593665
 30
0.0
 10
-1.998962897149683
 20
8.022081459819336
 30
0.0
 10
-1.999110447593137
 20
8.016949069206532
 30
0.0
 10
-1.99933342358619
 20
8.008842567362023
 30
0.0
 10
-1.999417967037544
 20
8.005583147692025
 30
0.0
 10
-1.999613860896059
 20
7.997780873023625
 30
0.0
 10
-1.999706269285099
 20
7.993768395203705
 30
0.0
 10
-1.99984948774369
 20
7.987305702958009
 30
0.0
 10
-1.999899963298067
 20
7.984884472157171
 30
0.0
 10
-1.999937280652076
 20
7.983043577431479
 30
0.0
  0
LINE
  5
2B92C
330
2B921
100
AcDbEntity
  8
0
100
AcDbLine
 10
-1.999999999999927
 20
7.979999999999959
 30
0.0
 11
-1.999999999999927
 21
1.999999999999996
 31
0.0
  0
LINE
  5
2B92D
330
2B921
100
AcDbEntity
  8
0
100
AcDbLine
 10
-1.99999999999993
 20
-2.000000000000003
 30
0.0
 11
-1.999999999999926
 21
1.999999999999996
 31
0.0
  0
LINE
  5
2B92E
330
2B921
100
AcDbEntity
  8
0
100
AcDbLine
 10
-86.00000000000001
 20
-2.000000000000003
 30
0.0
 11
-86.00000000000001
 21
2.0
 31
0.0
  0
LINE
  5
2B92F
330
2B921
100
AcDbEntity
  8
0
100
AcDbLine
 10
-2.000000000000006
 20
-2.0
 30
0.0
 11
-86.00000000000001
 21
-2.0
 31
0.0
  0
LINE
  5
2B930
330
2B921
100
AcDbEntity
  8
0
100
AcDbLine
 10
0.0
 20
23.55999999999998
 30
0.0
 11
0.0
 21
180.0
 31
0.0
  0
LINE
  5
2B931
330
2B921
100
AcDbEntity
  8
0
100
AcDbLine
 10
0.0
 20
23.55999999999998
 30
0.0
 11
0.0
 21
15.32000000000003
 31
0.0
  0
LINE
  5
2B932
330
2B921
100
AcDbEntity
  8
0
100
AcDbLine
 10
0.0
 20
15.32000000000003
 30
0.0
 11
0.0
 21
10.46251060667354
 31
0.0
  0
CIRCLE
  5
2B933
330
2B921
100
AcDbEntity
  8
0
100
AcDbCircle
 10
-38.50000000000003
 20
165.0
 30
0.0
 40
2.5
  0
LINE
  5
2B934
330
2B921
100
AcDbEntity
  8
0
100
AcDbLine
 10
-2.000000000000019
 20
15.32000000000003
 30
0.0
 11
0.0
 21
15.32000000000003
 31
0.0
  0
LINE
  5
2B935
330
2B921
100
AcDbEntity
  8
0
100
AcDbLine
 10
-2.000000000000003
 20
10.46251060667354
 30
0.0
 11
-2.000000000000019
 21
15.32000000000003
 31
0.0
  0
LINE
  5
2B936
330
2B921
100
AcDbEntity
  8
0
100
AcDbLine
 10
-2.000000000000028
 20
23.55999999999998
 30
0.0
 11
0.0
 21
23.55999999999998
 31
0.0
  0
LINE
  5
2B937
330
2B921
100
AcDbEntity
  8
0
100
AcDbLine
 10
-2.000000000000019
 20
15.32000000000003
 30
0.0
 11
-2.000000000000028
 21
23.55999999999998
 31
0.0
  0
LINE
  5
2B938
330
2B921
100
AcDbEntity
  8
0
100
AcDbLine
 10
-46.00000000000004
 20
23.55999999999998
 30
0.0
 11
-55.82004960297631
 21
15.32000000000003
 31
0.0
  0
LINE
  5
2B939
330
2B921
100
AcDbEntity
  8
0
100
AcDbLine
 10
-55.82004960297631
 20
15.32000000000003
 30
0.0
 11
-81.8682408883347
 21
10.72700107773627
 31
0.0
  0
ARC
  5
2B93A
330
2B921
100
AcDbEntity
  8
0
100
AcDbCircle
 10
-81.00000000000006
 20
5.802962312675248
 30
0.0
 40
5.0
100
AcDbArc
 50
100.0
 51
180.0
  0
LINE
  5
2B93B
330
2B921
100
AcDbEntity
  8
0
100
AcDbLine
 10
-46.00000000000001
 20
180.0
 30
0.0
 11
-46.00000000000004
 21
23.55999999999998
 31
0.0
  0
LINE
  5
2B93C
330
2B921
100
AcDbEntity
  8
0
100
AcDbLine
 10
0.0
 20
180.0
 30
0.0
 11
-2.00000000000001
 21
180.0
 31
0.0
  0
LINE
  5
2B93D
330
2B921
100
AcDbEntity
  8
0
100
AcDbLine
 10
-2.000000000000028
 20
23.55999999999998
 30
0.0
 11
-2.00000000000001
 21
180.0
 31
0.0
  0
LINE
  5
2B93E
330
2B921
100
AcDbEntity
  8
0
100
AcDbLine
 10
-86.00000000000006
 20
5.802962312675248
 30
0.0
 11
-86.00000000000001
 21
2.0
 31
0.0
  0
LINE
  5
2B93F
330
2B921
100
AcDbEntity
  8
0
100
AcDbLine
 10
-4.000000000000003
 20
180.0
 30
0.0
 11
-46.00000000000001
 21
180.0
 31
0.0
  0
LINE
  5
2B940
330
2B921
100
AcDbEntity
  8
0
100
AcDbLine
 10
-2.000000000000001
 20
180.0
 30
0.0
 11
-4.000000000000003
 21
180.0
 31
0.0
  0
CIRCLE
  5
2B941
330
2B921
100
AcDbEntity
  8
0
100
AcDbCircle
 10
-38.50000000000003
 20
25.0
 30
0.0
 40
2.5
  0
CIRCLE
  5
2B942
330
2B921
100
AcDbEntity
  8
0
100
AcDbCircle
 10
-38.50000000000003
 20
45.0
 30
0.0
 40
2.5
  0
CIRCLE
  5
2B943
330
2B921
100
AcDbEntity
  8
0
100
AcDbCircle
 10
-38.50000000000003
 20
65.0
 30
0.0
 40
2.5
  0
CIRCLE
  5
2B944
330
2B921
100
AcDbEntity
  8
0
100
AcDbCircle
 10
-38.50000000000003
 20
85.0
 30
0.0
 40
2.5
  0
CIRCLE
  5
2B945
330
2B921
100
AcDbEntity
  8
0
100
AcDbCircle
 10
-38.50000000000003
 20
105.0
 30
0.0
 40
2.5
  0
CIRCLE
  5
2B946
330
2B921
100
AcDbEntity
  8
0
100
AcDbCircle
 10
-38.50000000000003
 20
125.0
 30
0.0
 40
2.5
  0
CIRCLE
  5
2B947
330
2B921
100
AcDbEntity
  8
0
100
AcDbCircle
 10
-38.50000000000003
 20
145.0
 30
0.0
 40
2.5
  0
ENDBLK
  5
2B923
330
2B921
100
AcDbEntity
  8
0
100
AcDbBlockEnd
  0
BLOCK
  5
2B949
330
2B948
100
AcDbEntity
  8
0
100
AcDbBlockBegin
  2
SAEL500_140_2-Top
 70
     0
 10
0.0
 20
0.0
 30
0.0
  3
SAEL500_140_2-Top
  1

  0
SPLINE
  5
2B94B
330
2B948
100
AcDbEntity
  8
0
100
AcDbSpline
210
0.0
220
0.0
230
1.0
 70
     8
 71
     3
 72
    14
 73
    10
 74
     0
 42
0.000000001
 43
0.0000000001
 40
0.5188985697045413
 40
0.5188985697045413
 40
0.5188985697045413
 40
0.5188985697045413
 40
0.6652191719040235
 40
0.6652191719040235
 40
0.6652191719040235
 40
0.9355086585159327
 40
0.9355086585159327
 40
0.9355086585159327
 40
1.0
 40
1.0
 40
1.0
 40
1.0
 10
71.28994262301988
 20
-1.056587465078068
 30
0.0
 10
71.06011017593806
 20
-1.202408152833065
 30
0.0
 10
70.85050242190655
 20
-1.346500674651404
 30
0.0
 10
70.66915930665429
 20
-1.476639799408728
 30
0.0
 10
70.33417478099389
 20
-1.717038189587749
 30
0.0
 10
70.1085864539683
 20
-1.910578205233537
 30
0.0
 10
70.02755061003046
 20
-1.976719719940765
 30
0.0
 10
70.00821537672431
 20
-1.992501151415315
 30
0.0
 10
70.00000613706449
 20
-1.999065688200521
 30
0.0
 10
69.99999999999992
 20
-1.999999999999948
 30
0.0
  0
LINE
  5
2B94C
330
2B948
100
AcDbEntity
  8
0
100
AcDbLine
 10
69.99999999999994
 20
-1.999999999999928
 30
0.0
 11
69.99999999999994
 21
-2.071110112471394
 31
0.0
  0
LINE
  5
2B94D
330
2B948
100
AcDbEntity
  8
0
100
AcDbLine
 10
74.13175911166539
 20
-1.999999999999995
 30
0.0
 11
74.13050953113169
 21
-2.000001201934012
 31
0.0
  0
SPLINE
  5
2B94E
330
2B948
100
AcDbEntity
  8
0
100
AcDbSpline
210
0.0
220
0.0
230
1.0
 70
     8
 71
     3
 72
    12
 73
     8
 74
     0
 42
0.000000001
 43
0.0000000001
 40
0.0
 40
0.0
 40
0.0
 40
0.0
 40
0.0081091830920292
 40
0.0081091830920292
 40
0.0105804424831887
 40
0.0105804424831887
 40
0.0106499985718604
 40
0.0106499985718604
 40
0.0106499985718604
 40
0.0106499985718604
 10
69.999946325709
 20
-3.999998158186302
 30
0.0
 10
69.99998260552988
 20
-3.987607235581902
 30
0.0
 10
70.00002888859444
 20
-3.975890565741699
 30
0.0
 10
70.00006245451951
 20
-3.968408250431867
 30
0.0
 10
70.00006754915641
 20
-3.967305420246727
 30
0.0
 10
70.00006781890539
 20
-3.967245380447623
 30
0.0
 10
70.00006782260841
 20
-3.967244554618101
 30
0.0
 10
70.00006782260668
 20
-3.967244555005153
 30
0.0
  0
SPLINE
  5
2B94F
330
2B948
100
AcDbEntity
  8
0
100
AcDbSpline
210
0.0
220
0.0
230
1.0
 70
     8
 71
     3
 72
    28
 73
    24
 74
     0
 42
0.000000001
 43
0.0000000001
 40
0.0042907741921443
 40
0.0042907741921443
 40
0.0042907741921443
 40
0.0042907741921443
 40
0.0051876083754239
 40
0.0051876083754239
 40
0.006126316302763
 40
0.006126316302763
 40
0.0079768751062303
 40
0.0079768751062303
 40
0.0112147098276674
 40
0.0112147098276674
 40
0.0209251540375221
 40
0.0209251540375221
 40
0.050062636699185
 40
0.050062636699185
 40
0.1375023618734747
 40
0.1375023618734747
 40
0.1779468120993685
 40
0.1779468120993685
 40
0.1982105423603146
 40
0.1982105423603146
 40
0.2084416817123377
 40
0.2084416817123377
 40
0.2194256380308312
 40
0.2194256380308312
 40
0.2194256380308312
 40
0.2194256380308312
 10
69.99995503002596
 20
-3.997074847017399
 30
0.0
 10
69.99994485159311
 20
-3.996408609815849
 30
0.0
 10
69.99993011432533
 20
-3.995442902585846
 30
0.0
 10
69.99988166733642
 20
-3.992255354735947
 30
0.0
 10
69.99984656084714
 20
-3.989938445453731
 30
0.0
 10
69.99973523329384
 20
-3.98254077405763
 30
0.0
 10
69.99965254924714
 20
-3.976984771660875
 30
0.0
 10
69.99943057406198
 20
-3.96185611352908
 30
0.0
 10
69.99928994928648
 20
-3.95204419469095
 30
0.0
 10
69.99874222975273
 20
-3.912844922726684
 30
0.0
 10
69.99836131178446
 20
-3.883328753886343
 30
0.0
 10
69.99697551009529
 20
-3.765728601183094
 30
0.0
 10
69.99625324439728
 20
-3.678414516018433
 30
0.0
 10
69.9944418498704
 20
-3.332161085252307
 30
0.0
 10
69.99528438297925
 20
-3.071061561609331
 30
0.0
 10
69.99701862310752
 20
-2.675241719794632
 30
0.0
 10
69.99760384216668
 20
-2.549484978205715
 30
0.0
 10
69.99858534141636
 20
-2.362688959727913
 30
0.0
 10
69.99899458404974
 20
-2.298821274446089
 30
0.0
 10
69.99945063554292
 20
-2.205815217938062
 30
0.0
 10
69.99955932870475
 20
-2.175338273788717
 30
0.0
 10
69.99964494282244
 20
-2.118065435750835
 30
0.0
 10
69.99961660538978
 20
-2.090607727992622
 30
0.0
 10
69.99959654476755
 20
-2.071110112471393
 30
0.0
  0
SPLINE
  5
2B950
330
2B948
100
AcDbEntity
  8
0
100
AcDbSpline
210
0.0
220
0.0
230
1.0
 70
     8
 71
     3
 72
    10
 73
     6
 74
     0
 42
0.000000001
 43
0.0000000001
 40
0.0
 40
0.0
 40
0.0
 40
0.0
 40
0.0142578775651564
 40
0.0142578775651564
 40
0.0186060998826717
 40
0.0186060998826717
 40
0.0186060998826717
 40
0.0186060998826717
 10
74.13050983551333
 20
-2.000001198236931
 30
0.0
 10
74.0833954812464
 20
-2.000046197985515
 30
0.0
 10
74.03611102319525
 20
-2.000140794716482
 30
0.0
 10
73.97489132269901
 20
-2.000502706379779
 30
0.0
 10
73.96060447388828
 20
-2.00060171922231
 30
0.0
 10
73.94630515696111
 20
-2.000720913971481
 30
0.0
  0
SPLINE
  5
2B951
330
2B948
100
AcDbEntity
  8
0
100
AcDbSpline
210
0.0
220
0.0
230
1.0
 70
     8
 71
     3
 72
     8
 73
     4
 74
     0
 42
0.000000001
 43
0.0000000001
 40
0.0371070431094865
 40
0.0371070431094865
 40
0.0371070431094865
 40
0.0371070431094865
 40
0.0386949749465849
 40
0.0386949749465849
 40
0.0386949749465849
 40
0.0386949749465849
 10
73.97294671048284
 20
-2.000182978488707
 30
0.0
 10
73.97817092696697
 20
-2.00013384864808
 30
0.0
 10
73.98339928575065
 20
-2.000091228252186
 30
0.0
 10
73.98863138565454
 20
-2.00005501819404
 30
0.0
  0
SPLINE
  5
2B952
330
2B948
100
AcDbEntity
  8
0
100
AcDbSpline
210
0.0
220
0.0
230
1.0
 70
     8
 71
     3
 72
     8
 73
     4
 74
     0
 42
0.000000001
 43
0.0000000001
 40
0.0171163501894963
 40
0.0171163501894963
 40
0.0171163501894963
 40
0.0171163501894963
 40
0.0175573141809893
 40
0.0175573141809893
 40
0.0175573141809893
 40
0.0175573141809893
 10
72.00000281104451
 20
-3.99664676722468
 30
0.0
 10
72.00001167119506
 20
-3.997774957315149
 30
0.0
 10
72.00002078703239
 20
-3.998894106876582
 30
0.0
 10
72.00003012162364
 20
-4.00000089973037
 30
0.0
  0
LINE
  5
2B953
330
2B948
100
AcDbEntity
  8
0
100
AcDbLine
 10
-69.99999999999999
 20
-2.000000000000071
 30
0.0
 11
-69.99999999999999
 21
-2.07116491823743
 31
0.0
  0
SPLINE
  5
2B954
330
2B948
100
AcDbEntity
  8
0
100
AcDbSpline
210
0.0
220
0.0
230
1.0
 70
     8
 71
     3
 72
    11
 73
     7
 74
     0
 42
0.000000001
 43
0.0000000001
 40
0.5165110364572896
 40
0.5165110364572896
 40
0.5165110364572896
 40
0.5165110364572896
 40
0.7616502545678037
 40
0.7616502545678037
 40
0.7616502545678037
 40
1.0
 40
1.0
 40
1.0
 40
1.0
 10
-71.30103524111511
 20
-1.048721509984526
 30
0.0
 10
-70.91453133238312
 20
-1.292566595506045
 30
0.0
 10
-70.58653163749685
 20
-1.532727636535462
 30
0.0
 10
-70.35494570855134
 20
-1.712905503760453
 30
0.0
 10
-70.12977387503037
 20
-1.888093093557823
 30
0.0
 10
-70.00000062358511
 20
-1.997912049311414
 30
0.0
 10
-69.99999999999385
 20
-1.999999999999922
 30
0.0
  0
SPLINE
  5
2B955
330
2B948
100
AcDbEntity
  8
0
100
AcDbSpline
210
0.0
220
0.0
230
1.0
 70
     8
 71
     3
 72
    10
 73
     6
 74
     0
 42
0.000000001
 43
0.0000000001
 40
0.0
 40
0.0
 40
0.0
 40
0.0
 40
0.0072945852443091
 40
0.0072945852443091
 40
0.0085767040044352
 40
0.0085767040044352
 40
0.0085767040044352
 40
0.0085767040044352
 10
-71.18000315418592
 20
-1.163167661688829
 30
0.0
 10
-71.17268945183564
 20
-1.170437960070784
 30
0.0
 10
-71.16785279211716
 20
-1.175180466956651
 30
0.0
 10
-71.16642805127032
 20
-1.176565904461582
 30
0.0
 10
-71.16632056652537
 20
-1.176669843013468
 30
0.0
 10
-71.16632056652308
 20
-1.176669843015683
 30
0.0
  0
SPLINE
  5
2B956
330
2B948
100
AcDbEntity
  8
0
100
AcDbSpline
210
0.0
220
0.0
230
1.0
 70
     8
 71
     3
 72
    14
 73
    10
 74
     0
 42
0.000000001
 43
0.0000000001
 40
0.0094375096012979
 40
0.0094375096012979
 40
0.0094375096012979
 40
0.0094375096012979
 40
0.0111326026899302
 40
0.0111326026899302
 40
0.0134302904918286
 40
0.0134302904918286
 40
0.0168843628319045
 40
0.0168843628319045
 40
0.0210563277371337
 40
0.0210563277371337
 40
0.0210563277371337
 40
0.0210563277371337
 10
-70.00014631260896
 20
-3.945150273069961
 30
0.0
 10
-70.00014631259128
 20
-3.945150275906961
 30
0.0
 10
-70.00014139922931
 20
-3.945923554769564
 30
0.0
 10
-70.00012193601534
 20
-3.949007846111038
 30
0.0
 10
-70.00010465089994
 20
-3.951773992320014
 30
0.0
 10
-70.00005685463928
 20
-3.960051763999505
 30
0.0
 10
-70.00002414934214
 20
-3.966283485516775
 30
0.0
 10
-69.99995869323036
 20
-3.981300585090335
 30
0.0
 10
-69.99992664642753
 20
-3.990462169408826
 30
0.0
 10
-69.99990096457834
 20
-3.99998164256743
 30
0.0
  0
SPLINE
  5
2B957
330
2B948
100
AcDbEntity
  8
0
100
AcDbSpline
210
0.0
220
0.0
230
1.0
 70
     8
 71
     3
 72
    30
 73
    26
 74
     0
 42
0.000000001
 43
0.0000000001
 40
0.0
 40
0.0
 40
0.0
 40
0.0
 40
0.0048624001562901
 40
0.0048624001562901
 40
0.0122186643469546
 40
0.0122186643469546
 40
0.0268750545620236
 40
0.0268750545620236
 40
0.0440059308894764
 40
0.0440059308894764
 40
0.0953984107175762
 40
0.0953984107175762
 40
0.1380154373976598
 40
0.1380154373976598
 40
0.1798900854379924
 40
0.1798900854379924
 40
0.2008027065436923
 40
0.2008027065436923
 40
0.211070200367645
 40
0.211070200367645
 40
0.2139138755500122
 40
0.2139138755500122
 40
0.2154679204958723
 40
0.2154679204958723
 40
0.2161375050527591
 40
0.2161375050527591
 40
0.2161375050527591
 40
0.2161375050527591
 10
-69.9996602213764
 20
-2.07116491823743
 30
0.0
 10
-69.99967488844041
 20
-2.079837299684826
 30
0.0
 10
-69.99969278088515
 20
-2.090676038946832
 30
0.0
 10
-69.99972396360388
 20
-2.119182103025063
 30
0.0
 10
-69.99972800060588
 20
-2.137980359006205
 30
0.0
 10
-69.99960508044257
 20
-2.197111520169777
 30
0.0
 10
-69.99930224172803
 20
-2.241973328713026
 30
0.0
 10
-69.9985739174103
 20
-2.341021644537075
 30
0.0
 10
-69.99822906278952
 20
-2.394475214628851
 30
0.0
 10
-69.99698174235482
 20
-2.60389837186925
 30
0.0
 10
-69.99601925074798
 20
-2.763475789471522
 30
0.0
 10
-69.99481339516774
 20
-3.051778958677322
 30
0.0
 10
-69.99450379676154
 20
-3.180643562525442
 30
0.0
 10
-69.9946931864115
 20
-3.432168956916721
 30
0.0
 10
-69.99518695738837
 20
-3.555109850575175
 30
0.0
 10
-69.99675873413237
 20
-3.742449975218333
 30
0.0
 10
-69.99742195393776
 20
-3.805556777304424
 30
0.0
 10
-69.99859369146664
 20
-3.89990649340124
 30
0.0
 10
-69.99901534998915
 20
-3.93147183863554
 30
0.0
 10
-69.99955174119671
 20
-3.969485159639876
 30
0.0
 10
-69.99967113973977
 20
-3.977807768141151
 30
0.0
 10
-69.99981726897409
 20
-3.987890031306528
 30
0.0
 10
-69.99986044471047
 20
-3.990847339282206
 30
0.0
 10
-69.99989904309174
 20
-3.993486667850165
 30
0.0
 10
-69.99990837706237
 20
-3.994124169929649
 30
0.0
 10
-69.99991611364895
 20
-3.994652203068363
 30
0.0
  0
LINE
  5
2B958
330
2B948
100
AcDbEntity
  8
0
100
AcDbLine
 10
-69.99999999999999
 20
-2.000000000000071
 30
0.0
 11
-67.99999999999998
 21
-2.000000000000069
 31
0.0
  0
LINE
  5
2B959
330
2B948
100
AcDbEntity
  8
0
100
AcDbLine
 10
-68.0
 20
-2.000000000000006
 30
0.0
 11
68.0
 21
-2.000000000000006
 31
0.0
  0
LINE
  5
2B95A
330
2B948
100
AcDbEntity
  8
0
100
AcDbLine
 10
67.99999999999994
 20
-1.99999999999993
 30
0.0
 11
69.99999999999994
 21
-1.999999999999928
 31
0.0
  0
LINE
  5
2B95B
330
2B948
100
AcDbEntity
  8
0
100
AcDbLine
 10
74.0
 20
0.0
 30
0.0
 11
111.5
 21
0.0
 31
0.0
  0
ARC
  5
2B95C
330
2B948
100
AcDbEntity
  8
0
100
AcDbCircle
 10
74.0
 20
-4.000000000000002
 30
0.0
 40
4.000000000000003
100
AcDbArc
 50
90.0
 51
180.0
  0
LINE
  5
2B95D
330
2B948
100
AcDbEntity
  8
0
100
AcDbLine
 10
70.00000000000003
 20
-55.82004960297631
 30
0.0
 11
70.00000000000003
 21
-46.00000000000004
 31
0.0
  0
LINE
  5
2B95E
330
2B948
100
AcDbEntity
  8
0
100
AcDbLine
 10
72.0
 20
-55.82004960297631
 30
0.0
 11
70.00000000000003
 21
-55.82004960297631
 31
0.0
  0
LINE
  5
2B95F
330
2B948
100
AcDbEntity
  8
0
100
AcDbLine
 10
72.0
 20
-46.00000000000004
 30
0.0
 11
72.0
 21
-55.82004960297631
 31
0.0
  0
LINE
  5
2B960
330
2B948
100
AcDbEntity
  8
0
100
AcDbLine
 10
70.00000000000003
 20
-81.8682408883347
 30
0.0
 11
70.00000000000003
 21
-55.82004960297631
 31
0.0
  0
LINE
  5
2B961
330
2B948
100
AcDbEntity
  8
0
100
AcDbLine
 10
72.0
 20
-55.82004960297631
 30
0.0
 11
72.0
 21
-81.8682408883347
 31
0.0
  0
LINE
  5
2B962
330
2B948
100
AcDbEntity
  8
0
100
AcDbLine
 10
70.0
 20
-81.8682408883347
 30
0.0
 11
70.0
 21
-86.00000000000006
 31
0.0
  0
LINE
  5
2B963
330
2B948
100
AcDbEntity
  8
0
100
AcDbLine
 10
72.0
 20
-86.00000000000006
 30
0.0
 11
70.00000000000003
 21
-86.00000000000006
 31
0.0
  0
LINE
  5
2B964
330
2B948
100
AcDbEntity
  8
0
100
AcDbLine
 10
72.0
 20
-86.00000000000006
 30
0.0
 11
72.0
 21
-81.8682408883347
 31
0.0
  0
LINE
  5
2B965
330
2B948
100
AcDbEntity
  8
0
100
AcDbLine
 10
70.00000000000003
 20
-46.00000000000001
 30
0.0
 11
72.0
 21
-46.00000000000001
 31
0.0
  0
LINE
  5
2B966
330
2B948
100
AcDbEntity
  8
0
100
AcDbLine
 10
111.5
 20
0.0
 30
0.0
 11
111.5
 21
-2.00000000000001
 31
0.0
  0
LINE
  5
2B967
330
2B948
100
AcDbEntity
  8
0
100
AcDbLine
 10
72.0
 20
-4.000000000000003
 30
0.0
 11
72.0
 21
-46.00000000000001
 31
0.0
  0
LINE
  5
2B968
330
2B948
100
AcDbEntity
  8
0
100
AcDbLine
 10
70.00000000000003
 20
-46.00000000000001
 30
0.0
 11
70.0
 21
-4.000000000000003
 31
0.0
  0
LINE
  5
2B969
330
2B948
100
AcDbEntity
  8
0
100
AcDbLine
 10
69.99999999999999
 20
-86.00000000000001
 30
0.0
 11
67.99999999999998
 21
-86.00000000000001
 31
0.0
  0
ARC
  5
2B96A
330
2B948
100
AcDbEntity
  8
0
100
AcDbCircle
 10
74.0
 20
-4.000000000000002
 30
0.0
 40
2.000000000000001
100
AcDbArc
 50
90.0
 51
180.0
  0
LINE
  5
2B96B
330
2B948
100
AcDbEntity
  8
0
100
AcDbLine
 10
111.5
 20
-2.00000000000001
 30
0.0
 11
74.0
 21
-2.000000000000001
 31
0.0
  0
LINE
  5
2B96C
330
2B948
100
AcDbEntity
  8
0
100
AcDbLine
 10
-111.5
 20
-2.00000000000001
 30
0.0
 11
-74.0
 21
-2.000000000000001
 31
0.0
  0
LINE
  5
2B96D
330
2B948
100
AcDbEntity
  8
0
100
AcDbLine
 10
-111.5
 20
0.0
 30
0.0
 11
-111.5
 21
-2.00000000000001
 31
0.0
  0
LINE
  5
2B96E
330
2B948
100
AcDbEntity
  8
0
100
AcDbLine
 10
-72.0
 20
-4.000000000000003
 30
0.0
 11
-72.0
 21
-46.00000000000001
 31
0.0
  0
LINE
  5
2B96F
330
2B948
100
AcDbEntity
  8
0
100
AcDbLine
 10
-70.00000000000003
 20
-46.00000000000001
 30
0.0
 11
-70.0
 21
-4.000000000000003
 31
0.0
  0
LINE
  5
2B970
330
2B948
100
AcDbEntity
  8
0
100
AcDbLine
 10
-74.0
 20
0.0
 30
0.0
 11
-111.5
 21
0.0
 31
0.0
  0
ARC
  5
2B971
330
2B948
100
AcDbEntity
  8
0
100
AcDbCircle
 10
-74.0
 20
-4.000000000000002
 30
0.0
 40
2.000000000000001
100
AcDbArc
 50
0.0
 51
90.0
  0
ARC
  5
2B972
330
2B948
100
AcDbEntity
  8
0
100
AcDbCircle
 10
-74.0
 20
-4.000000000000002
 30
0.0
 40
4.000000000000003
100
AcDbArc
 50
0.0
 51
90.0
  0
LINE
  5
2B973
330
2B948
100
AcDbEntity
  8
0
100
AcDbLine
 10
-67.99999999999998
 20
-86.00000000000001
 30
0.0
 11
67.99999999999998
 21
-86.00000000000001
 31
0.0
  0
CIRCLE
  5
2B974
330
2B948
100
AcDbEntity
  8
0
100
AcDbCircle
 10
0.0
 20
-67.99999999999998
 30
0.0
 40
2.5
  0
CIRCLE
  5
2B975
330
2B948
100
AcDbEntity
  8
0
100
AcDbCircle
 10
0.0
 20
-47.99999999999998
 30
0.0
 40
2.5
  0
LINE
  5
2B976
330
2B948
100
AcDbEntity
  8
0
100
AcDbLine
 10
-70.00000000000003
 20
-46.00000000000004
 30
0.0
 11
-70.00000000000003
 21
-55.82004960297631
 31
0.0
  0
LINE
  5
2B977
330
2B948
100
AcDbEntity
  8
0
100
AcDbLine
 10
-72.0
 20
-55.82004960297631
 30
0.0
 11
-72.0
 21
-46.00000000000004
 31
0.0
  0
LINE
  5
2B978
330
2B948
100
AcDbEntity
  8
0
100
AcDbLine
 10
-72.0
 20
-55.82004960297631
 30
0.0
 11
-70.00000000000003
 21
-55.82004960297631
 31
0.0
  0
LINE
  5
2B979
330
2B948
100
AcDbEntity
  8
0
100
AcDbLine
 10
-70.00000000000003
 20
-55.82004960297631
 30
0.0
 11
-70.00000000000003
 21
-81.8682408883347
 31
0.0
  0
LINE
  5
2B97A
330
2B948
100
AcDbEntity
  8
0
100
AcDbLine
 10
-72.0
 20
-81.8682408883347
 30
0.0
 11
-72.0
 21
-55.82004960297631
 31
0.0
  0
LINE
  5
2B97B
330
2B948
100
AcDbEntity
  8
0
100
AcDbLine
 10
-70.0
 20
-86.00000000000006
 30
0.0
 11
-70.0
 21
-81.8682408883347
 31
0.0
  0
LINE
  5
2B97C
330
2B948
100
AcDbEntity
  8
0
100
AcDbLine
 10
-72.0
 20
-81.8682408883347
 30
0.0
 11
-72.0
 21
-86.00000000000006
 31
0.0
  0
LINE
  5
2B97D
330
2B948
100
AcDbEntity
  8
0
100
AcDbLine
 10
-70.00000000000003
 20
-86.00000000000006
 30
0.0
 11
-72.0
 21
-86.00000000000006
 31
0.0
  0
LINE
  5
2B97E
330
2B948
100
AcDbEntity
  8
0
100
AcDbLine
 10
-72.0
 20
-46.00000000000001
 30
0.0
 11
-70.00000000000003
 21
-46.00000000000001
 31
0.0
  0
LINE
  5
2B97F
330
2B948
100
AcDbEntity
  8
0
100
AcDbLine
 10
-69.99999999999999
 20
-86.00000000000001
 30
0.0
 11
-67.99999999999998
 21
-86.00000000000001
 31
0.0
  0
ENDBLK
  5
2B94A
330
2B948
100
AcDbEntity
  8
0
100
AcDbBlockEnd
  0
BLOCK
  5
2B981
330
2B980
100
AcDbEntity
  8
0
100
AcDbBlockBegin
  2
SAEL500_140_2-Bottom
 70
     0
 10
0.0
 20
0.0
 30
0.0
  3
SAEL500_140_2-Bottom
  1

  0
LINE
  5
2B983
330
2B980
100
AcDbEntity
  8
0
100
AcDbLine
 10
74.1317591116654
 20
0.0
 30
0.0
 11
74.0
 21
0.0
 31
0.0
  0
SPLINE
  5
2B984
330
2B980
100
AcDbEntity
  8
0
100
AcDbSpline
210
0.0
220
0.0
230
1.0
 70
     8
 71
     3
 72
    17
 73
    13
 74
     0
 42
0.000000001
 43
0.0000000001
 40
0.0
 40
0.0
 40
0.0
 40
0.0
 40
0.2630945547036993
 40
0.2630945547036993
 40
0.2630945547036993
 40
0.6652191719040235
 40
0.6652191719040235
 40
0.6652191719040235
 40
0.9355086585159327
 40
0.9355086585159327
 40
0.9355086585159327
 40
1.0
 40
1.0
 40
1.0
 40
1.0
 10
74.1317591116654
 20
-0.0000000000000059
 30
0.0
 10
73.65968744606634
 20
0.0000028677165409
 30
0.0
 10
73.1340557201544
 20
0.1353978453908692
 30
0.0
 10
72.63783379557212
 20
0.3412741587833015
 30
0.0
 10
71.87938764797403
 20
0.6559440454587695
 30
0.0
 10
71.16753431131231
 20
1.11898581945532
 30
0.0
 10
70.66915930665429
 20
1.476639799408728
 30
0.0
 10
70.33417478099389
 20
1.717038189587749
 30
0.0
 10
70.1085864539683
 20
1.910578205233537
 30
0.0
 10
70.02755061003046
 20
1.976719719940765
 30
0.0
 10
70.00821537672431
 20
1.992501151415315
 30
0.0
 10
70.00000613706449
 20
1.999065688200521
 30
0.0
 10
69.99999999999992
 20
1.999999999999948
 30
0.0
  0
ARC
  5
2B985
330
2B980
100
AcDbEntity
  8
0
100
AcDbCircle
 10
74.0
 20
4.000000000000002
 30
0.0
 40
4.000000000000002
100
AcDbArc
 50
227.3580443702605
 51
270.0
  0
SPLINE
  5
2B986
330
2B980
100
AcDbEntity
  8
0
100
AcDbSpline
210
0.0
220
0.0
230
1.0
 70
     8
 71
     3
 72
    14
 73
    10
 74
     0
 42
0.000000001
 43
0.0000000001
 40
0.0
 40
0.0
 40
0.0
 40
0.0
 40
0.2870001856706885
 40
0.2870001856706885
 40
0.2870001856706885
 40
0.8282911261529793
 40
0.8282911261529793
 40
0.8282911261529793
 40
1.0
 40
1.0
 40
1.0
 40
1.0
 10
74.13175911166539
 20
1.999999999999995
 30
0.0
 10
73.77222392422199
 20
2.000346318721013
 30
0.0
 10
73.466209151719
 20
2.000215842365186
 30
0.0
 10
73.18206703770584
 20
2.000098106197991
 30
0.0
 10
72.64616650591567
 20
1.999876052262655
 30
0.0
 10
72.2426430998639
 20
2.000046339026058
 30
0.0
 10
72.07927432869521
 20
2.000163544094249
 30
0.0
 10
72.02745031757439
 20
2.000200724007607
 30
0.0
 10
72.00121049601659
 20
2.000026720759608
 30
0.0
 10
71.99999999999997
 20
2.000000000000077
 30
0.0
  0
ARC
  5
2B987
330
2B980
100
AcDbEntity
  8
0
100
AcDbCircle
 10
74.0
 20
4.000000000000002
 30
0.0
 40
2.0
100
AcDbArc
 50
180.0541372144703
 51
268.5006047386691
  0
ARC
  5
2B988
330
2B980
100
AcDbEntity
  8
0
100
AcDbCircle
 10
74.0
 20
4.000000000000002
 30
0.0
 40
2.0
100
AcDbArc
 50
269.5183340402206
 51
269.674307737964
  0
SPLINE
  5
2B989
330
2B980
100
AcDbEntity
  8
0
100
AcDbSpline
210
0.0
220
0.0
230
1.0
 70
     8
 71
     3
 72
    14
 73
    10
 74
     0
 42
0.000000001
 43
0.0000000001
 40
0.0118649783381822
 40
0.0118649783381822
 40
0.0118649783381822
 40
0.0118649783381822
 40
0.0118716600607501
 40
0.0118716600607501
 40
0.0130350273016971
 40
0.0130350273016971
 40
0.0155595045083576
 40
0.0155595045083576
 40
0.0169778308757655
 40
0.0169778308757655
 40
0.0169778308757655
 40
0.0169778308757655
 10
73.87281974298416
 20
2.001908314498106
 30
0.0
 10
73.87281974692907
 20
2.001908314404325
 30
0.0
 10
73.87282363421589
 20
2.001908221992586
 30
0.0
 10
73.87412916539483
 20
2.001877218061824
 30
0.0
 10
73.88060237386392
 20
2.00172919387507
 30
0.0
 10
73.89283487679811
 20
2.001466161187288
 30
0.0
 10
73.90117337544973
 20
2.001303563898597
 30
0.0
 10
73.91422703490853
 20
2.00107564204955
 30
0.0
 10
73.91893778270312
 20
2.000998889000398
 30
0.0
 10
73.92365492797435
 20
2.000928691293738
 30
0.0
  0
SPLINE
  5
2B98A
330
2B980
100
AcDbEntity
  8
0
100
AcDbSpline
210
0.0
220
0.0
230
1.0
 70
     8
 71
     3
 72
     8
 73
     4
 74
     0
 42
0.000000001
 43
0.0000000001
 40
0.0
 40
0.0
 40
0.0
 40
0.0
 40
0.0004577657654133
 40
0.0004577657654133
 40
0.0004577657654133
 40
0.0004577657654133
 10
72.00001567016397
 20
3.999999878025582
 30
0.0
 10
72.0000105690451
 20
3.999567572128233
 30
0.0
 10
72.00000531490234
 20
3.999115250777693
 30
0.0
 10
71.9999999999999
 20
3.998649690002735
 30
0.0
  0
SPLINE
  5
2B98B
330
2B980
100
AcDbEntity
  8
0
100
AcDbSpline
210
0.0
220
0.0
230
1.0
 70
     8
 71
     3
 72
     8
 73
     4
 74
     0
 42
0.000000001
 43
0.0000000001
 40
0.0
 40
0.0
 40
0.0
 40
0.0
 40
0.0004828733950475
 40
0.0004828733950475
 40
0.0004828733950475
 40
0.0004828733950475
 10
72.00001979668477
 20
3.999999484541774
 30
0.0
 10
72.00001348640913
 20
3.999551841850465
 30
0.0
 10
72.0000068797319
 20
3.999077910570715
 30
0.0
 10
71.99999999999994
 20
3.998577730421902
 30
0.0
  0
SPLINE
  5
2B98C
330
2B980
100
AcDbEntity
  8
0
100
AcDbSpline
210
0.0
220
0.0
230
1.0
 70
     8
 71
     3
 72
     8
 73
     4
 74
     0
 42
0.000000001
 43
0.0000000001
 40
0.0
 40
0.0
 40
0.0
 40
0.0
 40
0.0004862067200455
 40
0.0004862067200455
 40
0.0004862067200455
 40
0.0004862067200455
 10
72.00003012162369
 20
4.000000899730372
 30
0.0
 10
72.00001982930712
 20
3.998780550373996
 30
0.0
 10
72.00000976143615
 20
3.997544074364334
 30
0.0
 10
71.99999999999995
 20
3.99629682155869
 30
0.0
  0
LINE
  5
2B98D
330
2B980
100
AcDbEntity
  8
0
100
AcDbLine
 10
-74.0
 20
0.0
 30
0.0
 11
-74.1317591116654
 21
0.0
 31
0.0
  0
ARC
  5
2B98E
330
2B980
100
AcDbEntity
  8
0
100
AcDbCircle
 10
-74.0
 20
4.000000000000002
 30
0.0
 40
4.000000000000002
100
AcDbArc
 50
270.0
 51
312.4822782988567
  0
SPLINE
  5
2B98F
330
2B980
100
AcDbEntity
  8
0
100
AcDbSpline
210
0.0
220
0.0
230
1.0
 70
     8
 71
     3
 72
    14
 73
    10
 74
     0
 42
0.000000001
 43
0.0000000001
 40
0.0
 40
0.0
 40
0.0
 40
0.0
 40
0.3894396598240881
 40
0.3894396598240881
 40
0.3894396598240881
 40
0.7616502545678037
 40
0.7616502545678037
 40
0.7616502545678037
 40
1.0
 40
1.0
 40
1.0
 40
1.0
 10
-74.13175911166539
 20
0.0000000000000168
 30
0.0
 10
-73.41149638408149
 20
0.0000033433566141
 30
0.0
 10
-72.63815665532534
 20
0.3049729408110074
 30
0.0
 10
-71.94396477323171
 20
0.6743917850822841
 30
0.0
 10
-71.28048439371145
 20
1.027467298238438
 30
0.0
 10
-70.7065774752327
 20
1.439329893801405
 30
0.0
 10
-70.35494570855134
 20
1.712905503760453
 30
0.0
 10
-70.12977387503037
 20
1.888093093557823
 30
0.0
 10
-70.00000062358511
 20
1.997912049311414
 30
0.0
 10
-69.99999999999385
 20
1.999999999999922
 30
0.0
  0
SPLINE
  5
2B990
330
2B980
100
AcDbEntity
  8
0
100
AcDbSpline
210
0.0
220
0.0
230
1.0
 70
     8
 71
     3
 72
    11
 73
     7
 74
     0
 42
0.000000001
 43
0.0000000001
 40
-1.0
 40
-1.0
 40
-1.0
 40
-1.0
 40
-0.3390592624406961
 40
-0.3390592624406961
 40
-0.3390592624406961
 40
0.0
 40
0.0
 40
0.0
 40
0.0
 10
-72.0
 20
2.000000000000067
 30
0.0
 10
-71.99998686216614
 20
2.00083377250651
 30
0.0
 10
-72.40930676228339
 20
2.000384176564073
 30
0.0
 10
-73.03126175361144
 20
2.000035059029015
 30
0.0
 10
-73.35032152500597
 20
1.999855963495611
 30
0.0
 10
-73.72931332033232
 20
1.99993224117684
 30
0.0
 10
-74.13175911206891
 20
1.999999998862178
 30
0.0
  0
ARC
  5
2B991
330
2B980
100
AcDbEntity
  8
0
100
AcDbCircle
 10
-74.0
 20
4.000000000000002
 30
0.0
 40
2.000000000000001
100
AcDbArc
 50
270.7302922556213
 51
0.0
  0
LINE
  5
2B992
330
2B980
100
AcDbEntity
  8
0
100
AcDbLine
 10
68.0
 20
2.000000000000006
 30
0.0
 11
-68.0
 21
2.000000000000006
 31
0.0
  0
LINE
  5
2B993
330
2B980
100
AcDbEntity
  8
0
100
AcDbLine
 10
-72.0
 20
2.000000000000073
 30
0.0
 11
-67.99999999999998
 21
2.000000000000069
 31
0.0
  0
LINE
  5
2B994
330
2B980
100
AcDbEntity
  8
0
100
AcDbLine
 10
67.99999999999994
 20
1.99999999999993
 30
0.0
 11
71.99999999999994
 21
1.999999999999926
 31
0.0
  0
LINE
  5
2B995
330
2B980
100
AcDbEntity
  8
0
100
AcDbLine
 10
-67.99999999999998
 20
86.00000000000001
 30
0.0
 11
-72.0
 21
86.00000000000001
 31
0.0
  0
LINE
  5
2B996
330
2B980
100
AcDbEntity
  8
0
100
AcDbLine
 10
-72.00000000000001
 20
2.000000000000073
 30
0.0
 11
-72.0
 21
86.00000000000001
 31
0.0
  0
LINE
  5
2B997
330
2B980
100
AcDbEntity
  8
0
100
AcDbLine
 10
71.99999999999994
 20
1.999999999999927
 30
0.0
 11
72.0
 21
86.00000000000001
 31
0.0
  0
LINE
  5
2B998
330
2B980
100
AcDbEntity
  8
0
100
AcDbLine
 10
67.99999999999998
 20
86.00000000000001
 30
0.0
 11
72.0
 21
86.00000000000001
 31
0.0
  0
LINE
  5
2B999
330
2B980
100
AcDbEntity
  8
0
100
AcDbLine
 10
111.5
 20
0.0
 30
0.0
 11
101.6799503970238
 21
0.0
 31
0.0
  0
LINE
  5
2B99A
330
2B980
100
AcDbEntity
  8
0
100
AcDbLine
 10
101.6799503970238
 20
0.0
 30
0.0
 11
74.13175911166539
 21
0.0
 31
0.0
  0
LINE
  5
2B99B
330
2B980
100
AcDbEntity
  8
0
100
AcDbLine
 10
101.6799503970238
 20
2.000000000000019
 30
0.0
 11
101.6799503970238
 21
0.0
 31
0.0
  0
LINE
  5
2B99C
330
2B980
100
AcDbEntity
  8
0
100
AcDbLine
 10
74.13175911166539
 20
2.000000000000003
 30
0.0
 11
101.6799503970238
 21
2.000000000000019
 31
0.0
  0
LINE
  5
2B99D
330
2B980
100
AcDbEntity
  8
0
100
AcDbLine
 10
111.5
 20
2.000000000000028
 30
0.0
 11
111.5
 21
0.0
 31
0.0
  0
LINE
  5
2B99E
330
2B980
100
AcDbEntity
  8
0
100
AcDbLine
 10
101.6799503970238
 20
2.000000000000019
 30
0.0
 11
111.5
 21
2.000000000000028
 31
0.0
  0
LINE
  5
2B99F
330
2B980
100
AcDbEntity
  8
0
100
AcDbLine
 10
-111.5
 20
2.000000000000028
 30
0.0
 11
-101.6799503970238
 21
2.000000000000019
 31
0.0
  0
LINE
  5
2B9A0
330
2B980
100
AcDbEntity
  8
0
100
AcDbLine
 10
-101.6799503970238
 20
2.000000000000019
 30
0.0
 11
-74.13175911166539
 21
2.000000000000003
 31
0.0
  0
LINE
  5
2B9A1
330
2B980
100
AcDbEntity
  8
0
100
AcDbLine
 10
-74.13175911166539
 20
0.0
 30
0.0
 11
-101.6799503970238
 21
0.0
 31
0.0
  0
LINE
  5
2B9A2
330
2B980
100
AcDbEntity
  8
0
100
AcDbLine
 10
-101.6799503970238
 20
2.000000000000019
 30
0.0
 11
-101.6799503970238
 21
0.0
 31
0.0
  0
LINE
  5
2B9A3
330
2B980
100
AcDbEntity
  8
0
100
AcDbLine
 10
-101.6799503970238
 20
0.0
 30
0.0
 11
-111.5
 21
0.0
 31
0.0
  0
LINE
  5
2B9A4
330
2B980
100
AcDbEntity
  8
0
100
AcDbLine
 10
-111.5
 20
0.0
 30
0.0
 11
-111.5
 21
2.000000000000028
 31
0.0
  0
CIRCLE
  5
2B9A5
330
2B980
100
AcDbEntity
  8
0
100
AcDbCircle
 10
0.0
 20
47.99999999999998
 30
0.0
 40
2.5
  0
CIRCLE
  5
2B9A6
330
2B980
100
AcDbEntity
  8
0
100
AcDbCircle
 10
0.0
 20
67.99999999999998
 30
0.0
 40
2.5
  0
LINE
  5
2B9A7
330
2B980
100
AcDbEntity
  8
0
100
AcDbLine
 10
68.0
 20
86.00000000000001
 30
0.0
 11
-67.99999999999998
 21
86.00000000000001
 31
0.0
  0
ENDBLK
  5
2B982
330
2B980
100
AcDbEntity
  8
0
100
AcDbBlockEnd
  0
BLOCK
  5
2B9A9
330
2B9A8
100
AcDbEntity
  8
0
100
AcDbBlockBegin
  2
SAEL500_140_2-ISO
 70
     0
 10
0.0
 20
0.0
 30
0.0
  3
SAEL500_140_2-ISO
  1

  0
SPLINE
  5
2B9AB
330
2B9A8
100
AcDbEntity
  8
0
100
AcDbSpline
210
0.0
220
0.0
230
1.0
 70
     8
 71
     3
 72
    14
 73
    10
 74
     0
 42
0.000000001
 43
0.0000000001
 40
0.0
 40
0.0
 40
0.0
 40
0.0
 40
0.2870001856706885
 40
0.2870001856706885
 40
0.2870001856706885
 40
0.8282911261529793
 40
0.8282911261529793
 40
0.8282911261529793
 40
1.0
 40
1.0
 40
1.0
 40
1.0
 10
81.19751752502878
 20
-77.7745108165264
 30
0.0
 10
80.94304287159628
 20
-77.67963495931896
 30
0.0
 10
80.72675001153214
 20
-77.65788569972705
 30
0.0
 10
80.52591444793499
 20
-77.69134802556154
 30
0.0
 10
80.14713256370814
 20
-77.75445897365848
 30
0.0
 10
79.86167801599629
 20
-78.02543989171657
 30
0.0
 10
79.7460759735703
 20
-78.46485270793015
 30
0.0
 10
79.70940457370962
 20
-78.6042436974759
 30
0.0
 10
79.69097325682558
 20
-78.76124865131339
 30
0.0
 10
79.69013620131391
 20
-78.9311852259741
 30
0.0
  0
LINE
  5
2B9AC
330
2B9A8
100
AcDbEntity
  8
0
100
AcDbLine
 10
79.69013620131398
 20
-78.93118522597401
 30
0.0
 11
78.2759226389408
 21
-79.74768180690178
 31
0.0
  0
LINE
  5
2B9AD
330
2B9A8
100
AcDbEntity
  8
0
100
AcDbLine
 10
81.10434976368706
 20
-77.72072038443598
 30
0.0
 11
81.19751752502878
 21
-77.77451081652642
 31
0.0
  0
ELLIPSE
  5
2B9AE
330
2B9A8
100
AcDbEntity
  8
0
100
AcDbEllipse
 10
79.69013620131396
 20
-78.5372169653637
 30
0.0
 11
2.0
 21
-0.0000000000001197
 31
0.0
210
0.0
220
0.0
230
1.0
 40
0.5773502691896259
 41
0.7853981633976899
 42
2.356194490192594
  0
LINE
  5
2B9AF
330
2B9A8
100
AcDbEntity
  8
0
100
AcDbLine
 10
78.27592263894087
 20
-79.74768180690178
 30
0.0
 11
78.27592263894087
 21
-77.72072038443598
 31
0.0
  0
ELLIPSE
  5
2B9B0
330
2B9A8
100
AcDbEntity
  8
0
100
AcDbEllipse
 10
-24.96166741429506
 20
-18.11646997671197
 30
0.0
 11
4.000000000000002
 21
-0.0000000000000004
 31
0.0
210
0.0
220
0.0
230
1.0
 40
0.5773502691896258
 41
5.497787143782133
 42
6.283185307179585
  0
LINE
  5
2B9B1
330
2B9A8
100
AcDbEntity
  8
0
100
AcDbLine
 10
-22.13324028954887
 20
-19.74946313856743
 30
0.0
 11
-22.13324028954887
 21
-19.93779320124794
 31
0.0
  0
LINE
  5
2B9B2
330
2B9A8
100
AcDbEntity
  8
0
100
AcDbLine
 10
-22.13324028954887
 20
-19.93779320124794
 30
0.0
 11
-22.13324028954887
 21
-21.77642456103322
 31
0.0
  0
LINE
  5
2B9B3
330
2B9A8
100
AcDbEntity
  8
0
100
AcDbLine
 10
-20.8078902628662
 20
-21.01123336635752
 30
0.0
 11
-22.13324028954887
 21
-21.77642456103323
 31
0.0
  0
LINE
  5
2B9B4
330
2B9A8
100
AcDbEntity
  8
0
100
AcDbLine
 10
-20.71902672717582
 20
-20.95992798010553
 30
0.0
 11
-20.8078902628662
 21
-21.01123336635752
 31
0.0
  0
SPLINE
  5
2B9B5
330
2B9A8
100
AcDbEntity
  8
0
100
AcDbSpline
210
0.0
220
0.0
230
1.0
 70
     8
 71
     3
 72
    11
 73
     7
 74
     0
 42
0.000000001
 43
0.0000000001
 40
0.5566220599536946
 40
0.5566220599536946
 40
0.5566220599536946
 40
0.5566220599536946
 40
0.7616502545678037
 40
0.7616502545678037
 40
0.7616502545678037
 40
1.0
 40
1.0
 40
1.0
 40
1.0
 10
-20.91988145707232
 20
-18.66860685110094
 30
0.0
 10
-20.8458307793385
 20
-18.99668634661033
 30
0.0
 10
-20.79740782034381
 20
-19.34020095525468
 30
0.0
 10
-20.76700477951316
 20
-19.69729200817132
 30
0.0
 10
-20.73166058182373
 20
-20.11241814103801
 30
0.0
 10
-20.71755076402634
 20
-20.52145788668824
 30
0.0
 10
-20.71902672717136
 20
-20.95992798007911
 30
0.0
  0
SPLINE
  5
2B9B6
330
2B9A8
100
AcDbEntity
  8
0
100
AcDbSpline
210
0.0
220
0.0
230
1.0
 70
     8
 71
     3
 72
    16
 73
    12
 74
     0
 42
0.000000001
 43
0.0000000001
 40
0.0002601532749717
 40
0.0002601532749717
 40
0.0002601532749717
 40
0.0002601532749717
 40
0.0136498417318716
 40
0.0136498417318716
 40
0.0248479839119195
 40
0.0248479839119195
 40
0.0422504786939729
 40
0.0422504786939729
 40
0.059076692874705
 40
0.059076692874705
 40
0.0689002673107238
 40
0.0689002673107238
 40
0.0689002673107238
 40
0.0689002673107238
 10
-20.96166469917516
 20
-18.11646997102845
 30
0.0
 10
-20.96157124942433
 20
-18.16111271088835
 30
0.0
 10
-20.9613117587955
 20
-18.20601378513943
 30
0.0
 10
-20.95992486218644
 20
-18.28643272863823
 30
0.0
 10
-20.95893152281114
 20
-18.32258745338743
 30
0.0
 10
-20.95516413351646
 20
-18.41032351706143
 30
0.0
 10
-20.95160910437426
 20
-18.46009982090251
 30
0.0
 10
-20.94268945562681
 20
-18.54511370077277
 30
0.0
 10
-20.9374074447922
 20
-18.58174029270795
 30
0.0
 10
-20.92782659659921
 20
-18.63521190726576
 30
0.0
 10
-20.92400933852486
 20
-18.65409304312571
 30
0.0
 10
-20.91979368955421
 20
-18.67292652364969
 30
0.0
  0
LINE
  5
2B9B7
330
2B9A8
100
AcDbEntity
  8
0
100
AcDbLine
 10
-20.71902672717582
 20
-20.95992798010553
 30
0.0
 11
-20.71902672717582
 21
-25.84257753405331
 31
0.0
  0
ELLIPSE
  5
2B9B8
330
2B9A8
100
AcDbEntity
  8
0
100
AcDbEllipse
 10
-19.30481316480271
 20
-26.65907411498104
 30
0.0
 11
1.000000000000105
 21
-1.732050807568816
 31
0.0
210
0.0
220
0.0
230
1.0
 40
0.5773502691896264
 41
3.926990816987
 42
5.497787143781896
  0
LINE
  5
2B9B9
330
2B9A8
100
AcDbEntity
  8
0
100
AcDbLine
 10
-19.30481316480268
 20
-28.29206727683646
 30
0.0
 11
47.16322426673278
 21
-66.66740658043957
 31
0.0
  0
LINE
  5
2B9BA
330
2B9A8
100
AcDbEntity
  8
0
100
AcDbLine
 10
79.69013620131398
 20
-78.93118522597401
 30
0.0
 11
79.69013620131398
 21
-83.81383477992176
 31
0.0
  0
ELLIPSE
  5
2B9BB
330
2B9A8
100
AcDbEntity
  8
0
100
AcDbEllipse
 10
76.86170907656779
 20
-82.18084161806633
 30
0.0
 11
2.000000000000003
 21
-3.464101615137751
 31
0.0
210
0.0
220
0.0
230
1.0
 40
0.5773502691896264
 41
0.0
 42
0.7853981633974457
  0
ELLIPSE
  5
2B9BC
330
2B9A8
100
AcDbEntity
  8
0
100
AcDbEllipse
 10
-78.70178278447267
 20
-60.95193051394551
 30
0.0
 11
2.000000000000208
 21
-3.464101615137637
 31
0.0
210
0.0
220
0.0
230
1.0
 40
0.577350269189626
 41
3.926990816986997
 42
5.497787143781893
  0
LINE
  5
2B9BD
330
2B9A8
100
AcDbEntity
  8
0
100
AcDbLine
 10
-78.70178278447267
 20
-62.58492367580096
 30
0.0
 11
-19.30481316480268
 21
-28.29206727683646
 31
0.0
  0
LINE
  5
2B9BE
330
2B9A8
100
AcDbEntity
  8
0
100
AcDbLine
 10
-78.70178278447267
 20
-64.21791683765642
 30
0.0
 11
-78.70178278447267
 21
-62.58492367580096
 31
0.0
  0
ELLIPSE
  5
2B9BF
330
2B9A8
100
AcDbEntity
  8
0
100
AcDbEllipse
 10
-78.70178278447267
 20
-60.95193051394551
 30
0.0
 11
1.000000000000104
 21
-1.732050807568818
 31
0.0
210
0.0
220
0.0
230
1.0
 40
0.577350269189626
 41
3.926990816987004
 42
5.497787143781896
  0
LINE
  5
2B9C0
330
2B9A8
100
AcDbEntity
  8
0
100
AcDbLine
 10
-81.53020990921886
 20
-59.31893735209005
 30
0.0
 11
-80.11599634684575
 21
-60.13543393301777
 31
0.0
  0
LINE
  5
2B9C1
330
2B9A8
100
AcDbEntity
  8
0
100
AcDbLine
 10
-80.11599634684575
 20
-60.13543393301777
 30
0.0
 11
-20.71902672717581
 21
-25.84257753405331
 31
0.0
  0
LINE
  5
2B9C2
330
2B9A8
100
AcDbEntity
  8
0
100
AcDbLine
 10
79.69013620131398
 20
-83.81383477992176
 30
0.0
 11
20.29316658164397
 21
-118.1066911788863
 31
0.0
  0
ELLIPSE
  5
2B9C3
330
2B9A8
100
AcDbEntity
  8
0
100
AcDbEllipse
 10
17.46473945689777
 20
-116.4736980170308
 30
0.0
 11
2.000000000000002
 21
-3.464101615137757
 31
0.0
210
0.0
220
0.0
230
1.0
 40
0.5773502691896259
 41
5.497787143782137
 42
7.068583470577033
  0
ELLIPSE
  5
2B9C4
330
2B9A8
100
AcDbEntity
  8
0
100
AcDbEllipse
 10
95.246485387418
 20
37.84415577830935
 30
0.0
 11
-3.249999999999999
 21
5.629165124598848
 31
0.0
210
0.0
220
0.0
230
0.9999999999999996
 40
0.5773502691896258
 41
0.219325486300594
 42
2.9222671672892
  0
ELLIPSE
  5
2B9C5
330
2B9A8
100
AcDbEntity
  8
0
100
AcDbEllipse
 10
103.02465998047
 20
37.43590748784548
 30
0.0
 11
1.250000000000129
 21
-2.165063509461021
 31
0.0
210
0.0
220
0.0
230
1.0
 40
0.5773502691896259
 41
3.742856870268596
 42
5.681921090500122
  0
LINE
  5
2B9C6
330
2B9A8
100
AcDbEntity
  8
0
100
AcDbLine
 10
82.51856332606015
 20
61.52255662521341
 30
0.0
 11
109.0350676205557
 21
46.21324573281854
 31
0.0
  0
LINE
  5
2B9C7
330
2B9A8
100
AcDbEntity
  8
0
100
AcDbLine
 10
109.0350676205557
 20
-81.51947938751494
 30
0.0
 11
109.0350676205557
 21
46.21324573281853
 31
0.0
  0
ELLIPSE
  5
2B9C8
330
2B9A8
100
AcDbEntity
  8
0
100
AcDbEllipse
 10
79.69013620131396
 20
59.88956346335794
 30
0.0
 11
4.000000000000002
 21
-0.0000000000002394
 31
0.0
210
0.0
220
0.0
230
1.0
 40
0.577350269189626
 41
0.7853981633976855
 42
2.356194490192587
  0
LINE
  5
2B9C9
330
2B9A8
100
AcDbEntity
  8
0
100
AcDbLine
 10
18.87895301927087
 20
-117.2901945979586
 30
0.0
 11
17.46473945689778
 21
-118.1066911788863
 31
0.0
  0
ELLIPSE
  5
2B9CA
330
2B9A8
100
AcDbEntity
  8
0
100
AcDbEllipse
 10
52.46652512563186
 20
35.19054189029423
 30
0.0
 11
1.249999999999871
 21
2.16506350946117
 31
0.0
210
0.0
220
0.0
230
1.0
 40
0.5773502691896259
 41
3.742856870268584
 42
5.68192109050011
  0
ELLIPSE
  5
2B9CB
330
2B9A8
100
AcDbEntity
  8
0
100
AcDbEllipse
 10
53.88073868800496
 20
34.3740453093665
 30
0.0
 11
-1.25
 21
-2.165063509461095
 31
0.0
210
0.0
220
0.0
230
1.0
 40
0.577350269189626
 41
0.0
 42
6.283185307179586
  0
LINE
  5
2B9CC
330
2B9A8
100
AcDbEntity
  8
0
100
AcDbLine
 10
81.19751752502876
 20
-77.77451081652642
 30
0.0
 11
100.6770303923298
 21
-85.05488933260171
 31
0.0
  0
LINE
  5
2B9CD
330
2B9A8
100
AcDbEntity
  8
0
100
AcDbLine
 10
107.6208540581826
 20
-82.33597596844267
 30
0.0
 11
109.0350676205557
 21
-81.51947938751494
 31
0.0
  0
LINE
  5
2B9CE
330
2B9A8
100
AcDbEntity
  8
0
100
AcDbLine
 10
100.6770303923298
 20
-85.05488933260171
 30
0.0
 11
107.6208540581826
 21
-82.33597596844267
 31
0.0
  0
LINE
  5
2B9CF
330
2B9A8
100
AcDbEntity
  8
0
100
AcDbLine
 10
40.21940060087999
 20
-94.09354698413213
 30
0.0
 11
47.16322426673278
 21
-83.35659669460234
 31
0.0
  0
LINE
  5
2B9D0
330
2B9A8
100
AcDbEntity
  8
0
100
AcDbLine
 10
41.63361416325305
 20
-94.91004356505985
 30
0.0
 11
40.21940060087999
 21
-94.09354698413213
 31
0.0
  0
LINE
  5
2B9D1
330
2B9A8
100
AcDbEntity
  8
0
100
AcDbLine
 10
48.57743782910585
 20
-84.17309327553006
 30
0.0
 11
41.63361416325305
 21
-94.91004356505985
 31
0.0
  0
LINE
  5
2B9D2
330
2B9A8
100
AcDbEntity
  8
0
100
AcDbLine
 10
48.57743782910585
 20
-84.17309327553006
 30
0.0
 11
47.16322426673278
 21
-83.35659669460234
 31
0.0
  0
LINE
  5
2B9D3
330
2B9A8
100
AcDbEntity
  8
0
100
AcDbLine
 10
21.80054790535875
 20
-108.4778444622885
 30
0.0
 11
40.21940060087999
 21
-94.09354698413213
 31
0.0
  0
LINE
  5
2B9D4
330
2B9A8
100
AcDbEntity
  8
0
100
AcDbLine
 10
23.21476146773182
 20
-109.2943410432162
 30
0.0
 11
21.80054790535875
 21
-108.4778444622885
 31
0.0
  0
LINE
  5
2B9D5
330
2B9A8
100
AcDbEntity
  8
0
100
AcDbLine
 10
41.63361416325305
 20
-94.91004356505985
 30
0.0
 11
23.21476146773182
 21
-109.2943410432162
 31
0.0
  0
ELLIPSE
  5
2B9D6
330
2B9A8
100
AcDbEntity
  8
0
100
AcDbEllipse
 10
22.41448692520358
 20
-112.1438474199429
 30
0.0
 11
2.500000000000257
 21
4.330127018922043
 31
0.0
210
0.0
220
0.0
230
0.9999999999999998
 40
0.5773502691896259
 41
0.9599310885970764
 42
2.356194490192585
  0
LINE
  5
2B9D7
330
2B9A8
100
AcDbEntity
  8
0
100
AcDbLine
 10
20.29316658164394
 20
-115.00158545319
 30
0.0
 11
18.87895301927087
 21
-114.1850888722622
 31
0.0
  0
ELLIPSE
  5
2B9D8
330
2B9A8
100
AcDbEntity
  8
0
100
AcDbEllipse
 10
23.82870048757669
 20
-112.9603440008706
 30
0.0
 11
-2.499999999999741
 21
-4.330127018922341
 31
0.0
210
0.0
220
0.0
230
0.9999999999999998
 40
0.577350269189626
 41
4.101523742186527
 42
5.497787143781944
  0
LINE
  5
2B9D9
330
2B9A8
100
AcDbEntity
  8
0
100
AcDbLine
 10
47.16322426673278
 20
-83.35659669460234
 30
0.0
 11
47.16322426673279
 21
44.37612842573113
 31
0.0
  0
LINE
  5
2B9DA
330
2B9A8
100
AcDbEntity
  8
0
100
AcDbLine
 10
48.57743782910588
 20
43.55963184480342
 30
0.0
 11
48.57743782910585
 21
-84.17309327553006
 31
0.0
  0
LINE
  5
2B9DB
330
2B9A8
100
AcDbEntity
  8
0
100
AcDbLine
 10
47.16322426673279
 20
44.37612842573114
 30
0.0
 11
48.57743782910588
 21
43.55963184480342
 31
0.0
  0
LINE
  5
2B9DC
330
2B9A8
100
AcDbEntity
  8
0
100
AcDbLine
 10
109.0350676205557
 20
46.21324573281854
 30
0.0
 11
107.6208540581826
 21
45.3967491518908
 31
0.0
  0
LINE
  5
2B9DD
330
2B9A8
100
AcDbEntity
  8
0
100
AcDbLine
 10
107.6208540581826
 20
-82.33597596844267
 30
0.0
 11
107.6208540581826
 21
45.3967491518908
 31
0.0
  0
LINE
  5
2B9DE
330
2B9A8
100
AcDbEntity
  8
0
100
AcDbLine
 10
20.29316658164394
 20
-115.00158545319
 30
0.0
 11
20.29316658164397
 21
-118.1066911788863
 31
0.0
  0
LINE
  5
2B9DF
330
2B9A8
100
AcDbEntity
  8
0
100
AcDbLine
 10
78.27592263894087
 20
-77.72072038443598
 30
0.0
 11
78.27592263894087
 21
60.70606004428566
 31
0.0
  0
LINE
  5
2B9E0
330
2B9A8
100
AcDbEntity
  8
0
100
AcDbLine
 10
78.27592263894087
 20
60.70606004428566
 30
0.0
 11
48.57743782910588
 21
43.55963184480342
 31
0.0
  0
LINE
  5
2B9E1
330
2B9A8
100
AcDbEntity
  8
0
100
AcDbLine
 10
47.16322426673279
 20
44.37612842573114
 30
0.0
 11
76.86170907656777
 21
61.52255662521341
 31
0.0
  0
LINE
  5
2B9E2
330
2B9A8
100
AcDbEntity
  8
0
100
AcDbLine
 10
18.87895301927087
 20
-117.2901945979585
 30
0.0
 11
18.87895301927087
 21
-114.1850888722622
 31
0.0
  0
LINE
  5
2B9E3
330
2B9A8
100
AcDbEntity
  8
0
100
AcDbLine
 10
17.46473945689778
 20
-118.1066911788863
 30
0.0
 11
17.46473945689778
 21
-119.7396843407418
 31
0.0
  0
LINE
  5
2B9E4
330
2B9A8
100
AcDbEntity
  8
0
100
AcDbLine
 10
18.87895301927087
 20
-117.2901945979585
 30
0.0
 11
20.29316658164397
 21
-118.1066911788863
 31
0.0
  0
ELLIPSE
  5
2B9E5
330
2B9A8
100
AcDbEntity
  8
0
100
AcDbEllipse
 10
17.46473945689777
 20
-116.4736980170308
 30
0.0
 11
1.000000000000001
 21
-1.732050807568878
 31
0.0
210
0.0
220
0.0
230
1.0
 40
0.5773502691896259
 41
5.49778714378214
 42
7.068583470577038
  0
LINE
  5
2B9E6
330
2B9A8
100
AcDbEntity
  8
0
100
AcDbLine
 10
81.10434976368706
 20
-77.72072038443598
 30
0.0
 11
81.10434976368706
 21
60.70606004428568
 31
0.0
  0
ELLIPSE
  5
2B9E7
330
2B9A8
100
AcDbEntity
  8
0
100
AcDbEllipse
 10
79.69013620131396
 20
59.88956346335794
 30
0.0
 11
-2.000000000000001
 21
-0.0000000000001194
 31
0.0
210
0.0
220
0.0
230
1.0
 40
0.577350269189626
 41
3.926990816986997
 42
5.497787143781896
  0
LINE
  5
2B9E8
330
2B9A8
100
AcDbEntity
  8
0
100
AcDbLine
 10
78.27592263894087
 20
60.70606004428566
 30
0.0
 11
76.86170907656777
 21
61.52255662521341
 31
0.0
  0
LINE
  5
2B9E9
330
2B9A8
100
AcDbEntity
  8
0
100
AcDbLine
 10
81.10434976368706
 20
60.70606004428566
 30
0.0
 11
82.51856332606015
 21
61.52255662521341
 31
0.0
  0
LINE
  5
2B9EA
330
2B9A8
100
AcDbEntity
  8
0
100
AcDbLine
 10
107.6208540581826
 20
45.3967491518908
 30
0.0
 11
81.10434976368706
 21
60.70606004428566
 31
0.0
  0
ELLIPSE
  5
2B9EB
330
2B9A8
100
AcDbEntity
  8
0
100
AcDbEllipse
 10
93.83227182504491
 20
37.02765919738163
 30
0.0
 11
-3.25
 21
5.629165124598853
 31
0.0
210
0.0
220
0.0
230
1.0
 40
0.5773502691896258
 41
0.0
 42
6.283185307179586
  0
ELLIPSE
  5
2B9EC
330
2B9A8
100
AcDbEntity
  8
0
100
AcDbEllipse
 10
101.6104464180969
 20
36.61941090691776
 30
0.0
 11
-1.249999999999999
 21
2.165063509461096
 31
0.0
210
0.0
220
0.0
230
1.0
 40
0.5773502691896259
 41
0.0
 42
6.283185307179586
  0
LINE
  5
2B9ED
330
2B9A8
100
AcDbEntity
  8
0
100
AcDbLine
 10
19.46473945689777
 20
-119.9377996321686
 30
0.0
 11
78.86170907656783
 21
-85.64494323320408
 31
0.0
  0
ELLIPSE
  5
2B9EE
330
2B9A8
100
AcDbEntity
  8
0
100
AcDbEllipse
 10
95.246485387418
 20
-68.30039974229501
 30
0.0
 11
-3.249999999999998
 21
5.629165124598848
 31
0.0
210
0.0
220
0.0
230
1.0
 40
0.5773502691896258
 41
0.2193254863005926
 42
2.922267167289199
  0
ELLIPSE
  5
2B9EF
330
2B9A8
100
AcDbEntity
  8
0
100
AcDbEllipse
 10
93.83227182504491
 20
-69.11689632322276
 30
0.0
 11
-3.25
 21
5.629165124598853
 31
0.0
210
0.0
220
0.0
230
1.0
 40
0.5773502691896258
 41
0.0
 42
6.283185307179586
  0
ELLIPSE
  5
2B9F0
330
2B9A8
100
AcDbEntity
  8
0
100
AcDbEllipse
 10
95.246485387418
 20
-11.1456390773542
 30
0.0
 11
-3.25
 21
5.629165124598853
 31
0.0
210
0.0
220
0.0
230
1.0
 40
0.5773502691896259
 41
0.2193254863005919
 42
2.9222671672892
  0
ELLIPSE
  5
2B9F1
330
2B9A8
100
AcDbEntity
  8
0
100
AcDbEllipse
 10
93.83227182504491
 20
-11.96213565828193
 30
0.0
 11
-3.25
 21
5.629165124598853
 31
0.0
210
0.0
220
0.0
230
1.0
 40
0.5773502691896258
 41
0.0
 42
6.283185307179586
  0
ELLIPSE
  5
2B9F2
330
2B9A8
100
AcDbEntity
  8
0
100
AcDbEllipse
 10
87.46831079436601
 20
-59.72718564255391
 30
0.0
 11
1.250000000000128
 21
-2.165063509461021
 31
0.0
210
0.0
220
0.0
230
1.0
 40
0.5773502691896259
 41
3.742856870268573
 42
5.681921090500111
  0
ELLIPSE
  5
2B9F3
330
2B9A8
100
AcDbEntity
  8
0
100
AcDbEllipse
 10
87.46831079436601
 20
-43.39725402399938
 30
0.0
 11
1.250000000000128
 21
-2.165063509461021
 31
0.0
210
0.0
220
0.0
230
1.0
 40
0.5773502691896259
 41
3.742856870268573
 42
5.681921090500111
  0
ELLIPSE
  5
2B9F4
330
2B9A8
100
AcDbEntity
  8
0
100
AcDbEllipse
 10
87.46831079436601
 20
-27.06732240544488
 30
0.0
 11
1.250000000000128
 21
-2.165063509461021
 31
0.0
210
0.0
220
0.0
230
1.0
 40
0.5773502691896259
 41
3.742856870268576
 42
5.681921090500111
  0
ELLIPSE
  5
2B9F5
330
2B9A8
100
AcDbEntity
  8
0
100
AcDbEllipse
 10
87.46831079436601
 20
-10.73739078689036
 30
0.0
 11
1.250000000000128
 21
-2.165063509461021
 31
0.0
210
0.0
220
0.0
230
1.0
 40
0.5773502691896259
 41
3.742856870268575
 42
5.681921090500111
  0
ELLIPSE
  5
2B9F6
330
2B9A8
100
AcDbEntity
  8
0
100
AcDbEllipse
 10
87.46831079436601
 20
5.592540831664161
 30
0.0
 11
1.250000000000128
 21
-2.165063509461021
 31
0.0
210
0.0
220
0.0
230
1.0
 40
0.5773502691896259
 41
3.742856870268575
 42
5.681921090500111
  0
ELLIPSE
  5
2B9F7
330
2B9A8
100
AcDbEntity
  8
0
100
AcDbEllipse
 10
87.46831079436601
 20
21.92247245021867
 30
0.0
 11
1.250000000000128
 21
-2.165063509461021
 31
0.0
210
0.0
220
0.0
230
1.0
 40
0.5773502691896259
 41
3.742856870268576
 42
5.681921090500111
  0
ELLIPSE
  5
2B9F8
330
2B9A8
100
AcDbEntity
  8
0
100
AcDbEllipse
 10
87.46831079436601
 20
38.2524040687732
 30
0.0
 11
1.250000000000128
 21
-2.165063509461021
 31
0.0
210
0.0
220
0.0
230
1.0
 40
0.5773502691896259
 41
3.742856870268575
 42
5.681921090500111
  0
ELLIPSE
  5
2B9F9
330
2B9A8
100
AcDbEntity
  8
0
100
AcDbEllipse
 10
86.0540972319929
 20
-60.54368222348163
 30
0.0
 11
-1.249999999999999
 21
2.165063509461096
 31
0.0
210
0.0
220
0.0
230
1.0
 40
0.5773502691896259
 41
0.0
 42
6.283185307179586
  0
ELLIPSE
  5
2B9FA
330
2B9A8
100
AcDbEntity
  8
0
100
AcDbEllipse
 10
86.0540972319929
 20
-44.21375060492711
 30
0.0
 11
-1.249999999999999
 21
2.165063509461096
 31
0.0
210
0.0
220
0.0
230
1.0
 40
0.5773502691896259
 41
0.0
 42
6.283185307179586
  0
ELLIPSE
  5
2B9FB
330
2B9A8
100
AcDbEntity
  8
0
100
AcDbEllipse
 10
86.0540972319929
 20
-27.8838189863726
 30
0.0
 11
-1.249999999999999
 21
2.165063509461096
 31
0.0
210
0.0
220
0.0
230
1.0
 40
0.5773502691896259
 41
0.0
 42
6.283185307179586
  0
ELLIPSE
  5
2B9FC
330
2B9A8
100
AcDbEntity
  8
0
100
AcDbEllipse
 10
86.0540972319929
 20
-11.55388736781808
 30
0.0
 11
-1.249999999999999
 21
2.165063509461096
 31
0.0
210
0.0
220
0.0
230
1.0
 40
0.5773502691896259
 41
0.0
 42
6.283185307179586
  0
ELLIPSE
  5
2B9FD
330
2B9A8
100
AcDbEntity
  8
0
100
AcDbEllipse
 10
86.0540972319929
 20
4.776044250736442
 30
0.0
 11
-1.249999999999999
 21
2.165063509461096
 31
0.0
210
0.0
220
0.0
230
1.0
 40
0.5773502691896259
 41
0.0
 42
6.283185307179586
  0
ELLIPSE
  5
2B9FE
330
2B9A8
100
AcDbEntity
  8
0
100
AcDbEllipse
 10
86.0540972319929
 20
21.10597586929095
 30
0.0
 11
-1.249999999999999
 21
2.165063509461096
 31
0.0
210
0.0
220
0.0
230
1.0
 40
0.5773502691896259
 41
0.0
 42
6.283185307179586
  0
ELLIPSE
  5
2B9FF
330
2B9A8
100
AcDbEntity
  8
0
100
AcDbEllipse
 10
86.0540972319929
 20
37.43590748784548
 30
0.0
 11
-1.249999999999999
 21
2.165063509461096
 31
0.0
210
0.0
220
0.0
230
1.0
 40
0.5773502691896259
 41
0.0
 42
6.283185307179586
  0
ELLIPSE
  5
2BA00
330
2B9A8
100
AcDbEntity
  8
0
100
AcDbEllipse
 10
87.46831079436601
 20
54.58233568732772
 30
0.0
 11
1.250000000000128
 21
-2.165063509461021
 31
0.0
210
0.0
220
0.0
230
1.0
 40
0.5773502691896259
 41
3.742856870268601
 42
5.681921090500121
  0
ELLIPSE
  5
2BA01
330
2B9A8
100
AcDbEntity
  8
0
100
AcDbEllipse
 10
-28.4972013202278
 20
119.9020621615458
 30
0.0
 11
1.249999999999999
 21
-2.165063509461096
 31
0.0
210
0.0
220
0.0
230
1.0
 40
0.5773502691896259
 41
0.0
 42
6.283185307179586
  0
ELLIPSE
  5
2BA02
330
2B9A8
100
AcDbEntity
  8
0
100
AcDbEllipse
 10
-27.08298775785471
 20
120.7185587424735
 30
0.0
 11
1.250000000000129
 21
-2.165063509461021
 31
0.0
210
0.0
220
0.0
230
1.0
 40
0.5773502691896259
 41
3.742856870268589
 42
5.681921090500123
  0
ELLIPSE
  5
2BA03
330
2B9A8
100
AcDbEntity
  8
0
100
AcDbEllipse
 10
86.0540972319929
 20
53.7658391064
 30
0.0
 11
-1.249999999999999
 21
2.165063509461096
 31
0.0
210
0.0
220
0.0
230
1.0
 40
0.5773502691896259
 41
0.0
 42
6.283185307179586
  0
ELLIPSE
  5
2BA04
330
2B9A8
100
AcDbEntity
  8
0
100
AcDbEllipse
 10
103.02465998047
 20
-76.87361384203615
 30
0.0
 11
1.250000000000128
 21
-2.165063509461021
 31
0.0
210
0.0
220
0.0
230
1.0
 40
0.5773502691896259
 41
3.742856870268573
 42
5.681921090500111
  0
ELLIPSE
  5
2BA05
330
2B9A8
100
AcDbEntity
  8
0
100
AcDbEllipse
 10
103.02465998047
 20
-60.54368222348163
 30
0.0
 11
1.250000000000128
 21
-2.165063509461021
 31
0.0
210
0.0
220
0.0
230
1.0
 40
0.5773502691896259
 41
3.742856870268573
 42
5.681921090500111
  0
ELLIPSE
  5
2BA06
330
2B9A8
100
AcDbEntity
  8
0
100
AcDbEllipse
 10
103.02465998047
 20
-44.21375060492711
 30
0.0
 11
1.250000000000128
 21
-2.165063509461021
 31
0.0
210
0.0
220
0.0
230
1.0
 40
0.5773502691896259
 41
3.742856870268573
 42
5.681921090500111
  0
ELLIPSE
  5
2BA07
330
2B9A8
100
AcDbEntity
  8
0
100
AcDbEllipse
 10
103.02465998047
 20
-27.8838189863726
 30
0.0
 11
1.250000000000128
 21
-2.165063509461021
 31
0.0
210
0.0
220
0.0
230
1.0
 40
0.5773502691896259
 41
3.742856870268576
 42
5.681921090500111
  0
ELLIPSE
  5
2BA08
330
2B9A8
100
AcDbEntity
  8
0
100
AcDbEllipse
 10
103.02465998047
 20
-11.55388736781808
 30
0.0
 11
1.250000000000128
 21
-2.165063509461021
 31
0.0
210
0.0
220
0.0
230
1.0
 40
0.5773502691896259
 41
3.742856870268575
 42
5.681921090500111
  0
ELLIPSE
  5
2BA09
330
2B9A8
100
AcDbEntity
  8
0
100
AcDbEllipse
 10
103.02465998047
 20
4.776044250736442
 30
0.0
 11
1.250000000000128
 21
-2.165063509461021
 31
0.0
210
0.0
220
0.0
230
1.0
 40
0.5773502691896259
 41
3.742856870268575
 42
5.681921090500111
  0
ELLIPSE
  5
2BA0A
330
2B9A8
100
AcDbEntity
  8
0
100
AcDbEllipse
 10
103.02465998047
 20
21.10597586929095
 30
0.0
 11
1.250000000000128
 21
-2.165063509461021
 31
0.0
210
0.0
220
0.0
230
1.0
 40
0.5773502691896259
 41
3.742856870268576
 42
5.681921090500111
  0
ELLIPSE
  5
2BA0B
330
2B9A8
100
AcDbEntity
  8
0
100
AcDbEllipse
 10
101.6104464180969
 20
-77.69011042296387
 30
0.0
 11
-1.249999999999999
 21
2.165063509461096
 31
0.0
210
0.0
220
0.0
230
1.0
 40
0.5773502691896259
 41
0.0
 42
6.283185307179586
  0
ELLIPSE
  5
2BA0C
330
2B9A8
100
AcDbEntity
  8
0
100
AcDbEllipse
 10
101.6104464180969
 20
-61.36017880440935
 30
0.0
 11
-1.249999999999999
 21
2.165063509461096
 31
0.0
210
0.0
220
0.0
230
1.0
 40
0.5773502691896259
 41
0.0
 42
6.283185307179586
  0
ELLIPSE
  5
2BA0D
330
2B9A8
100
AcDbEntity
  8
0
100
AcDbEllipse
 10
101.6104464180969
 20
-45.03024718585483
 30
0.0
 11
-1.249999999999999
 21
2.165063509461096
 31
0.0
210
0.0
220
0.0
230
1.0
 40
0.5773502691896259
 41
0.0
 42
6.283185307179586
  0
ELLIPSE
  5
2BA0E
330
2B9A8
100
AcDbEntity
  8
0
100
AcDbEllipse
 10
101.6104464180969
 20
-28.70031556730032
 30
0.0
 11
-1.249999999999999
 21
2.165063509461096
 31
0.0
210
0.0
220
0.0
230
1.0
 40
0.5773502691896259
 41
0.0
 42
6.283185307179586
  0
ELLIPSE
  5
2BA0F
330
2B9A8
100
AcDbEntity
  8
0
100
AcDbEllipse
 10
101.6104464180969
 20
-12.3703839487458
 30
0.0
 11
-1.249999999999999
 21
2.165063509461096
 31
0.0
210
0.0
220
0.0
230
1.0
 40
0.5773502691896259
 41
0.0
 42
6.283185307179586
  0
ELLIPSE
  5
2BA10
330
2B9A8
100
AcDbEntity
  8
0
100
AcDbEllipse
 10
101.6104464180969
 20
3.959547669808722
 30
0.0
 11
-1.249999999999999
 21
2.165063509461096
 31
0.0
210
0.0
220
0.0
230
1.0
 40
0.5773502691896259
 41
0.0
 42
6.283185307179586
  0
ELLIPSE
  5
2BA11
330
2B9A8
100
AcDbEntity
  8
0
100
AcDbEllipse
 10
101.6104464180969
 20
20.28947928836323
 30
0.0
 11
-1.249999999999999
 21
2.165063509461096
 31
0.0
210
0.0
220
0.0
230
1.0
 40
0.5773502691896259
 41
0.0
 42
6.283185307179586
  0
ELLIPSE
  5
2BA12
330
2B9A8
100
AcDbEntity
  8
0
100
AcDbEllipse
 10
-36.27537591327981
 20
112.1453446427324
 30
0.0
 11
-3.25
 21
5.62916512459885
 31
0.0
210
0.0
220
0.0
230
0.9999999999999998
 40
0.577350269189626
 41
4.712388980384693
 42
7.853981633974484
  0
ELLIPSE
  5
2BA13
330
2B9A8
100
AcDbEntity
  8
0
100
AcDbEllipse
 10
-34.86116235090671
 20
112.9618412236601
 30
0.0
 11
-3.249999999999999
 21
5.629165124598848
 31
0.0
210
0.0
220
0.0
230
0.9999999999999996
 40
0.5773502691896258
 41
0.2193254863005935
 42
1.570796326794897
  0
ELLIPSE
  5
2BA14
330
2B9A8
100
AcDbEntity
  8
0
100
AcDbEllipse
 10
-44.05355050633183
 20
120.7185587424735
 30
0.0
 11
1.249999999999999
 21
-2.165063509461096
 31
0.0
210
0.0
220
0.0
230
1.0
 40
0.5773502691896259
 41
0.0
 42
6.283185307179586
  0
ELLIPSE
  5
2BA15
330
2B9A8
100
AcDbEntity
  8
0
100
AcDbEllipse
 10
-42.63933694395874
 20
121.5350553234012
 30
0.0
 11
1.250000000000129
 21
-2.165063509461021
 31
0.0
210
0.0
220
0.0
230
1.0
 40
0.5773502691896259
 41
3.742856870268589
 42
5.681921090500121
  0
LINE
  5
2BA16
330
2B9A8
100
AcDbEntity
  8
0
100
AcDbLine
 10
-23.54745385192196
 20
119.4938138710819
 30
0.0
 11
-23.54745385192196
 21
121.1268070329373
 31
0.0
  0
ELLIPSE
  5
2BA17
330
2B9A8
100
AcDbEntity
  8
0
100
AcDbEllipse
 10
-24.96166741429506
 20
120.3103104520096
 30
0.0
 11
2.000000000000001
 21
0.0
 31
0.0
210
0.0
220
0.0
230
1.0
 40
0.5773502691896257
 41
5.497787143782128
 42
7.068583470577028
  0
LINE
  5
2BA18
330
2B9A8
100
AcDbEntity
  8
0
100
AcDbLine
 10
-23.54745385192197
 20
119.4938138710819
 30
0.0
 11
-22.13324028954887
 21
118.6773172901542
 31
0.0
  0
ELLIPSE
  5
2BA19
330
2B9A8
100
AcDbEntity
  8
0
100
AcDbEllipse
 10
-24.96166741429506
 20
120.3103104520096
 30
0.0
 11
4.000000000000002
 21
0.0000000000000001
 31
0.0
210
0.0
220
0.0
230
1.0
 40
0.577350269189626
 41
5.497787143782137
 42
7.068583470577035
  0
LINE
  5
2BA1A
330
2B9A8
100
AcDbEntity
  8
0
100
AcDbLine
 10
-22.13324028954887
 20
118.6773172901542
 30
0.0
 11
-22.13324028954887
 21
-19.74946313856744
 31
0.0
  0
LINE
  5
2BA1B
330
2B9A8
100
AcDbEntity
  8
0
100
AcDbLine
 10
-23.54745385192196
 20
121.1268070329373
 30
0.0
 11
-22.13324028954887
 21
121.9433036138651
 31
0.0
  0
LINE
  5
2BA1C
330
2B9A8
100
AcDbEntity
  8
0
100
AcDbLine
 10
-20.96166741429506
 20
-18.11646997671198
 30
0.0
 11
-20.96166741429506
 21
120.3103104520096
 31
0.0
  0
LINE
  5
2BA1D
330
2B9A8
100
AcDbEntity
  8
0
100
AcDbLine
 10
-50.06395814641749
 20
136.4361179253322
 30
0.0
 11
-23.54745385192196
 21
121.1268070329373
 31
0.0
  0
LINE
  5
2BA1E
330
2B9A8
100
AcDbEntity
  8
0
100
AcDbLine
 10
-50.06395814641753
 20
104.1845029786871
 30
0.0
 11
-50.06395814641749
 21
136.4361179253322
 31
0.0
  0
LINE
  5
2BA1F
330
2B9A8
100
AcDbEntity
  8
0
100
AcDbLine
 10
-48.6497445840444
 20
137.2526145062599
 30
0.0
 11
-50.06395814641749
 21
136.4361179253322
 31
0.0
  0
LINE
  5
2BA20
330
2B9A8
100
AcDbEntity
  8
0
100
AcDbLine
 10
-23.54745385192197
 20
119.4938138710819
 30
0.0
 11
-53.24593866175697
 21
102.3473856715997
 31
0.0
  0
LINE
  5
2BA21
330
2B9A8
100
AcDbEntity
  8
0
100
AcDbLine
 10
-81.53020990921888
 20
-56.21383162639372
 30
0.0
 11
-81.53020990921886
 21
-59.31893735209005
 31
0.0
  0
LINE
  5
2BA22
330
2B9A8
100
AcDbEntity
  8
0
100
AcDbLine
 10
-51.83172509938388
 20
101.5308890906719
 30
0.0
 11
-22.13324028954887
 21
118.6773172901542
 31
0.0
  0
LINE
  5
2BA23
330
2B9A8
100
AcDbEntity
  8
0
100
AcDbLine
 10
-22.13324028954887
 20
121.9433036138651
 30
0.0
 11
-48.6497445840444
 21
137.2526145062599
 31
0.0
  0
LINE
  5
2BA24
330
2B9A8
100
AcDbEntity
  8
0
100
AcDbLine
 10
-80.11599634684575
 20
-60.13543393301777
 30
0.0
 11
-80.11599634684584
 21
-57.03032820732143
 31
0.0
  0
LINE
  5
2BA25
330
2B9A8
100
AcDbEntity
  8
0
100
AcDbLine
 10
-47.10473452120062
 20
4.127666448955995
 30
0.0
 11
-46.45000893081176
 21
3.115291069687922
 31
0.0
  0
LINE
  5
2BA26
330
2B9A8
100
AcDbEntity
  8
0
100
AcDbLine
 10
-51.83172509938391
 20
-26.2018360296615
 30
0.0
 11
-58.77554876523668
 21
-36.93878631919132
 31
0.0
  0
LINE
  5
2BA27
330
2B9A8
100
AcDbEntity
  8
0
100
AcDbLine
 10
-53.24593866175697
 20
-25.38533944873379
 30
0.0
 11
-51.83172509938391
 21
-26.2018360296615
 31
0.0
  0
LINE
  5
2BA28
330
2B9A8
100
AcDbEntity
  8
0
100
AcDbLine
 10
-60.18976232760977
 20
-36.12228973826361
 30
0.0
 11
-53.24593866175697
 21
-25.38533944873379
 31
0.0
  0
LINE
  5
2BA29
330
2B9A8
100
AcDbEntity
  8
0
100
AcDbLine
 10
-60.18976232760977
 20
-36.12228973826361
 30
0.0
 11
-58.77554876523668
 21
-36.93878631919132
 31
0.0
  0
LINE
  5
2BA2A
330
2B9A8
100
AcDbEntity
  8
0
100
AcDbLine
 10
-58.77554876523668
 20
-36.93878631919132
 30
0.0
 11
-77.19440146075794
 21
-51.32308379734766
 31
0.0
  0
LINE
  5
2BA2B
330
2B9A8
100
AcDbEntity
  8
0
100
AcDbLine
 10
-78.60861502313101
 20
-50.50658721641994
 30
0.0
 11
-60.18976232760977
 21
-36.12228973826361
 31
0.0
  0
LINE
  5
2BA2C
330
2B9A8
100
AcDbEntity
  8
0
100
AcDbLine
 10
-78.60861502313101
 20
-50.50658721641994
 30
0.0
 11
-77.19440146075794
 21
-51.32308379734766
 31
0.0
  0
ELLIPSE
  5
2BA2D
330
2B9A8
100
AcDbEntity
  8
0
100
AcDbEllipse
 10
-76.58046244091305
 20
-54.98908675500214
 30
0.0
 11
-2.499999999999739
 21
-4.330127018922343
 31
0.0
210
0.0
220
0.0
230
1.0
 40
0.5773502691896259
 41
4.101523742186525
 42
5.49778714378194
  0
ELLIPSE
  5
2BA2E
330
2B9A8
100
AcDbEntity
  8
0
100
AcDbEllipse
 10
-77.99467600328616
 20
-54.1725901740744
 30
0.0
 11
2.500000000000257
 21
4.330127018922043
 31
0.0
210
0.0
220
0.0
230
0.9999999999999998
 40
0.5773502691896259
 41
0.9599310885970737
 42
2.356194490192583
  0
LINE
  5
2BA2F
330
2B9A8
100
AcDbEntity
  8
0
100
AcDbLine
 10
-80.11599634684584
 20
-57.03032820732143
 30
0.0
 11
-81.53020990921888
 21
-56.21383162639372
 31
0.0
  0
LINE
  5
2BA30
330
2B9A8
100
AcDbEntity
  8
0
100
AcDbLine
 10
-51.83172509938388
 20
101.5308890906719
 30
0.0
 11
-51.83172509938391
 21
-26.20183602966151
 31
0.0
  0
LINE
  5
2BA31
330
2B9A8
100
AcDbEntity
  8
0
100
AcDbLine
 10
-53.24593866175697
 20
102.3473856715997
 30
0.0
 11
-51.83172509938388
 21
101.5308890906719
 31
0.0
  0
LINE
  5
2BA32
330
2B9A8
100
AcDbEntity
  8
0
100
AcDbLine
 10
-53.24593866175697
 20
-25.38533944873379
 30
0.0
 11
-53.24593866175697
 21
102.3473856715997
 31
0.0
  0
LINE
  5
2BA33
330
2B9A8
100
AcDbEntity
  8
0
100
AcDbLine
 10
-78.70178278447267
 20
-62.58492367580096
 30
0.0
 11
17.46473945689778
 21
-118.1066911788863
 31
0.0
  0
ELLIPSE
  5
2BA34
330
2B9A8
100
AcDbEntity
  8
0
100
AcDbEllipse
 10
-17.89059960242957
 20
-82.99733819899408
 30
0.0
 11
-2.499999999999999
 21
0.0000000000001492
 31
0.0
210
0.0
220
0.0
230
1.0
 40
0.5773502691896259
 41
0.0
 42
6.283185307179586
  0
ELLIPSE
  5
2BA35
330
2B9A8
100
AcDbEntity
  8
0
100
AcDbEllipse
 10
-3.748463978698617
 20
-74.83237238971682
 30
0.0
 11
-2.499999999999999
 21
0.0000000000001492
 31
0.0
210
0.0
220
0.0
230
1.0
 40
0.5773502691896259
 41
0.0
 42
6.283185307179586
  0
ELLIPSE
  5
2BA36
330
2B9A8
100
AcDbEntity
  8
0
100
AcDbEllipse
 10
-3.748463978698617
 20
-76.46536555157227
 30
0.0
 11
-2.5
 21
-0.0000000000001492
 31
0.0
210
0.0
220
0.0
230
1.0
 40
0.5773502691896258
 41
3.742856870268582
 42
5.681921090500122
  0
ELLIPSE
  5
2BA37
330
2B9A8
100
AcDbEntity
  8
0
100
AcDbEllipse
 10
-17.89059960242957
 20
-84.63033136084954
 30
0.0
 11
-2.5
 21
-0.0000000000001492
 31
0.0
210
0.0
220
0.0
230
1.0
 40
0.5773502691896258
 41
3.742856870268575
 42
5.68192109050012
  0
LINE
  5
2BA38
330
2B9A8
100
AcDbEntity
  8
0
100
AcDbLine
 10
17.46473945689778
 20
-119.7396843407418
 30
0.0
 11
-78.70178278447267
 21
-64.21791683765642
 31
0.0
  0
ELLIPSE
  5
2BA39
330
2B9A8
100
AcDbEntity
  8
0
100
AcDbEllipse
 10
52.46652512563186
 20
-79.11897943958741
 30
0.0
 11
1.249999999999871
 21
2.16506350946117
 31
0.0
210
0.0
220
0.0
230
1.0
 40
0.5773502691896259
 41
3.742856870268585
 42
5.681921090500118
  0
ELLIPSE
  5
2BA3A
330
2B9A8
100
AcDbEntity
  8
0
100
AcDbEllipse
 10
53.88073868800496
 20
-79.93547602051513
 30
0.0
 11
-1.25
 21
-2.165063509461095
 31
0.0
210
0.0
220
0.0
230
1.0
 40
0.577350269189626
 41
0.0
 42
6.283185307179586
  0
ELLIPSE
  5
2BA3B
330
2B9A8
100
AcDbEntity
  8
0
100
AcDbEllipse
 10
52.46652512563186
 20
-62.78904782103289
 30
0.0
 11
1.249999999999871
 21
2.16506350946117
 31
0.0
210
0.0
220
0.0
230
1.0
 40
0.5773502691896259
 41
3.742856870268584
 42
5.681921090500118
  0
ELLIPSE
  5
2BA3C
330
2B9A8
100
AcDbEntity
  8
0
100
AcDbEllipse
 10
53.88073868800496
 20
-63.60554440196061
 30
0.0
 11
-1.25
 21
-2.165063509461095
 31
0.0
210
0.0
220
0.0
230
1.0
 40
0.577350269189626
 41
0.0
 42
6.283185307179586
  0
ELLIPSE
  5
2BA3D
330
2B9A8
100
AcDbEntity
  8
0
100
AcDbEllipse
 10
52.46652512563186
 20
-46.45911620247836
 30
0.0
 11
1.249999999999871
 21
2.16506350946117
 31
0.0
210
0.0
220
0.0
230
1.0
 40
0.5773502691896259
 41
3.742856870268584
 42
5.681921090500118
  0
ELLIPSE
  5
2BA3E
330
2B9A8
100
AcDbEntity
  8
0
100
AcDbEllipse
 10
53.88073868800496
 20
-47.27561278340609
 30
0.0
 11
-1.25
 21
-2.165063509461095
 31
0.0
210
0.0
220
0.0
230
1.0
 40
0.577350269189626
 41
0.0
 42
6.283185307179586
  0
ELLIPSE
  5
2BA3F
330
2B9A8
100
AcDbEntity
  8
0
100
AcDbEllipse
 10
52.46652512563186
 20
-30.12918458392385
 30
0.0
 11
1.249999999999871
 21
2.16506350946117
 31
0.0
210
0.0
220
0.0
230
1.0
 40
0.5773502691896259
 41
3.742856870268584
 42
5.681921090500121
  0
ELLIPSE
  5
2BA40
330
2B9A8
100
AcDbEntity
  8
0
100
AcDbEllipse
 10
53.88073868800496
 20
-30.94568116485158
 30
0.0
 11
-1.25
 21
-2.165063509461095
 31
0.0
210
0.0
220
0.0
230
1.0
 40
0.577350269189626
 41
0.0
 42
6.283185307179586
  0
ELLIPSE
  5
2BA41
330
2B9A8
100
AcDbEntity
  8
0
100
AcDbEllipse
 10
52.46652512563186
 20
-13.79925296536933
 30
0.0
 11
1.249999999999871
 21
2.16506350946117
 31
0.0
210
0.0
220
0.0
230
1.0
 40
0.5773502691896259
 41
3.742856870268584
 42
5.681921090500122
  0
ELLIPSE
  5
2BA42
330
2B9A8
100
AcDbEntity
  8
0
100
AcDbEllipse
 10
53.88073868800496
 20
-14.61574954629706
 30
0.0
 11
-1.25
 21
-2.165063509461095
 31
0.0
210
0.0
220
0.0
230
1.0
 40
0.577350269189626
 41
0.0
 42
6.283185307179586
  0
ELLIPSE
  5
2BA43
330
2B9A8
100
AcDbEntity
  8
0
100
AcDbEllipse
 10
52.46652512563186
 20
2.530678653185187
 30
0.0
 11
1.249999999999871
 21
2.16506350946117
 31
0.0
210
0.0
220
0.0
230
1.0
 40
0.5773502691896259
 41
3.742856870268584
 42
5.681921090500121
  0
ELLIPSE
  5
2BA44
330
2B9A8
100
AcDbEntity
  8
0
100
AcDbEllipse
 10
53.88073868800496
 20
1.714182072257459
 30
0.0
 11
-1.25
 21
-2.165063509461095
 31
0.0
210
0.0
220
0.0
230
1.0
 40
0.577350269189626
 41
0.0
 42
6.283185307179586
  0
ELLIPSE
  5
2BA45
330
2B9A8
100
AcDbEntity
  8
0
100
AcDbEllipse
 10
52.46652512563186
 20
18.86061027173969
 30
0.0
 11
1.249999999999871
 21
2.16506350946117
 31
0.0
210
0.0
220
0.0
230
1.0
 40
0.5773502691896259
 41
3.742856870268584
 42
5.681921090500121
  0
ELLIPSE
  5
2BA46
330
2B9A8
100
AcDbEntity
  8
0
100
AcDbEllipse
 10
53.88073868800496
 20
18.04411369081197
 30
0.0
 11
-1.25
 21
-2.165063509461095
 31
0.0
210
0.0
220
0.0
230
1.0
 40
0.577350269189626
 41
0.0
 42
6.283185307179586
  0
ELLIPSE
  5
2BA47
330
2B9A8
100
AcDbEntity
  8
0
100
AcDbEllipse
 10
-47.94263780285785
 20
-12.9827563844416
 30
0.0
 11
1.24999999999987
 21
2.165063509461171
 31
0.0
210
0.0
220
0.0
230
1.0
 40
0.5773502691896258
 41
3.742856870268584
 42
5.681921090500116
  0
ELLIPSE
  5
2BA48
330
2B9A8
100
AcDbEntity
  8
0
100
AcDbEllipse
 10
-46.52842424048475
 20
-13.79925296536933
 30
0.0
 11
1.249999999999999
 21
2.165063509461096
 31
0.0
210
0.0
220
0.0
230
1.0
 40
0.5773502691896258
 41
0.0
 42
6.283185307179586
  0
ELLIPSE
  5
2BA49
330
2B9A8
100
AcDbEntity
  8
0
100
AcDbEllipse
 10
-47.94263780285785
 20
3.347175234112924
 30
0.0
 11
1.24999999999987
 21
2.165063509461171
 31
0.0
210
0.0
220
0.0
230
1.0
 40
0.5773502691896258
 41
3.742856870268584
 42
5.681921090500116
  0
ELLIPSE
  5
2BA4A
330
2B9A8
100
AcDbEntity
  8
0
100
AcDbEllipse
 10
-46.52842424048475
 20
2.530678653185196
 30
0.0
 11
1.249999999999999
 21
2.165063509461096
 31
0.0
210
0.0
220
0.0
230
1.0
 40
0.5773502691896258
 41
0.0
 42
6.283185307179586
  0
ELLIPSE
  5
2BA4B
330
2B9A8
100
AcDbEntity
  8
0
100
AcDbEllipse
 10
-47.94263780285785
 20
19.67710685266744
 30
0.0
 11
1.24999999999987
 21
2.165063509461171
 31
0.0
210
0.0
220
0.0
230
1.0
 40
0.5773502691896258
 41
3.742856870268584
 42
5.681921090500117
  0
ELLIPSE
  5
2BA4C
330
2B9A8
100
AcDbEntity
  8
0
100
AcDbEllipse
 10
-46.52842424048475
 20
18.86061027173971
 30
0.0
 11
1.249999999999999
 21
2.165063509461096
 31
0.0
210
0.0
220
0.0
230
1.0
 40
0.5773502691896258
 41
0.0
 42
6.283185307179586
  0
ELLIPSE
  5
2BA4D
330
2B9A8
100
AcDbEntity
  8
0
100
AcDbEllipse
 10
-47.94263780285785
 20
36.00703847122195
 30
0.0
 11
1.24999999999987
 21
2.165063509461171
 31
0.0
210
0.0
220
0.0
230
1.0
 40
0.5773502691896258
 41
3.742856870268584
 42
5.68192109050012
  0
ELLIPSE
  5
2BA4E
330
2B9A8
100
AcDbEntity
  8
0
100
AcDbEllipse
 10
-46.52842424048475
 20
35.19054189029423
 30
0.0
 11
1.249999999999999
 21
2.165063509461096
 31
0.0
210
0.0
220
0.0
230
1.0
 40
0.5773502691896258
 41
0.0
 42
6.283185307179586
  0
ELLIPSE
  5
2BA4F
330
2B9A8
100
AcDbEntity
  8
0
100
AcDbEllipse
 10
-47.94263780285785
 20
52.33697008977647
 30
0.0
 11
1.24999999999987
 21
2.165063509461171
 31
0.0
210
0.0
220
0.0
230
1.0
 40
0.5773502691896258
 41
3.742856870268584
 42
5.681921090500117
  0
ELLIPSE
  5
2BA50
330
2B9A8
100
AcDbEntity
  8
0
100
AcDbEllipse
 10
-46.52842424048475
 20
51.52047350884875
 30
0.0
 11
1.249999999999999
 21
2.165063509461096
 31
0.0
210
0.0
220
0.0
230
1.0
 40
0.5773502691896258
 41
0.0
 42
6.283185307179586
  0
ELLIPSE
  5
2BA51
330
2B9A8
100
AcDbEntity
  8
0
100
AcDbEllipse
 10
-47.94263780285785
 20
68.66690170833098
 30
0.0
 11
1.24999999999987
 21
2.165063509461171
 31
0.0
210
0.0
220
0.0
230
1.0
 40
0.5773502691896258
 41
3.742856870268584
 42
5.681921090500117
  0
ELLIPSE
  5
2BA52
330
2B9A8
100
AcDbEntity
  8
0
100
AcDbEllipse
 10
-46.52842424048475
 20
67.85040512740327
 30
0.0
 11
1.249999999999999
 21
2.165063509461096
 31
0.0
210
0.0
220
0.0
230
1.0
 40
0.5773502691896258
 41
0.0
 42
6.283185307179586
  0
ELLIPSE
  5
2BA53
330
2B9A8
100
AcDbEntity
  8
0
100
AcDbEllipse
 10
-47.94263780285785
 20
84.99683332688551
 30
0.0
 11
1.24999999999987
 21
2.165063509461171
 31
0.0
210
0.0
220
0.0
230
1.0
 40
0.5773502691896258
 41
3.742856870268584
 42
5.681921090500122
  0
ELLIPSE
  5
2BA54
330
2B9A8
100
AcDbEntity
  8
0
100
AcDbEllipse
 10
-46.52842424048475
 20
84.18033674595779
 30
0.0
 11
1.249999999999999
 21
2.165063509461096
 31
0.0
210
0.0
220
0.0
230
1.0
 40
0.5773502691896258
 41
0.0
 42
6.283185307179586
  0
ELLIPSE
  5
2BA55
330
2B9A8
100
AcDbEntity
  8
0
100
AcDbEllipse
 10
-47.94263780285785
 20
101.32676494544
 30
0.0
 11
1.24999999999987
 21
2.165063509461171
 31
0.0
210
0.0
220
0.0
230
1.0
 40
0.5773502691896258
 41
3.742856870268584
 42
5.681921090500105
  0
ELLIPSE
  5
2BA56
330
2B9A8
100
AcDbEntity
  8
0
100
AcDbEllipse
 10
-46.52842424048475
 20
100.5102683645123
 30
0.0
 11
1.249999999999999
 21
2.165063509461096
 31
0.0
210
0.0
220
0.0
230
1.0
 40
0.5773502691896258
 41
0.0
 42
6.283185307179586
  0
ENDBLK
  5
2B9AA
330
2B9A8
100
AcDbEntity
  8
0
100
AcDbBlockEnd
  0
ENDSEC
  0
SECTION
  2
ENTITIES
  0
INSERT
  5
2BA57
330
1F
100
AcDbEntity
  8
0
100
AcDbBlockReference
  2
SAEL500_140_2-Front
 10
0.0
 20
0.0
 30
0.0
  0
INSERT
  5
2BA58
330
1F
100
AcDbEntity
  8
0
100
AcDbBlockReference
  2
SAEL500_140_2-Left
 10
166.1
 20
0.0
 30
0.0
  0
INSERT
  5
2BA59
330
1F
100
AcDbEntity
  8
0
100
AcDbBlockReference
  2
SAEL500_140_2-Right
 10
-166.1
 20
0.0
 30
0.0
  0
INSERT
  5
2BA5A
330
1F
100
AcDbEntity
  8
0
100
AcDbBlockReference
  2
SAEL500_140_2-Top
 10
0.0
 20
-56.60000000000001
 30
0.0
  0
INSERT
  5
2BA5B
330
1F
100
AcDbEntity
  8
0
100
AcDbBlockReference
  2
SAEL500_140_2-Bottom
 10
0.0
 20
234.6
 30
0.0
  0
INSERT
  5
2BA5C
330
1F
100
AcDbEntity
  8
0
100
AcDbBlockReference
  2
SAEL500_140_2-ISO
 10
247.6302099092191
 20
-193.8526145062599
 30
0.0
  0
MTEXT
  5
2BA5D
330
1F
100
AcDbEntity
  8
0
100
AcDbMText
 10
0.0
 20
-197.2000000000001
 30
0.0
 40
17.48421052631579
 41
0.0
 71
     5
 72
     5
  1
SAEL500/140/2
 73
     1
 44
1.0
1001
ACAD
1000
MTEXTBEGIN
1070
    73
1070
     1
1070
    44
1040
1.0
1070
    74
1070
     0
1000
MTEXTEND
  0
ENDSEC
  0
SECTION
  2
OBJECTS
  0
DICTIONARY
  5
C
330
0
100
AcDbDictionary
281
     1
  3
ACAD_CIP_PREVIOUS_PRODUCT_INFO
350
216
  3
ACAD_COLOR
350
6B
  3
ACAD_DETAILVIEWSTYLE
350
21B
  3
ACAD_GROUP
350
D
  3
ACAD_LAYOUT
350
1A
  3
ACAD_MATERIAL
350
6A
  3
ACAD_MLEADERSTYLE
350
12D
  3
ACAD_MLINESTYLE
350
17
  3
ACAD_PLOTSETTINGS
350
19
  3
ACAD_PLOTSTYLENAME
350
E
  3
ACAD_SCALELIST
350
10C
  3
ACAD_SECTIONVIEWSTYLE
350
219
  3
ACAD_TABLESTYLE
350
7E
  3
ACAD_VISUALSTYLE
350
EF
  3
ACDB_RECOMPOSE_DATA
350
2BB5E
  3
AcDbVariableDictionary
350
5E
  3
DWGPROPS
350
2BB5F
  0
DICTIONARY
  5
2BAAE
330
8
100
AcDbDictionary
280
     1
281
     1
  0
DICTIONARY
  5
1FF
330
2
100
AcDbDictionary
280
     1
281
     1
  3
ACAD_LAYERSTATES
360
200
  0
DICTIONARY
  5
13C
330
10
100
AcDbDictionary
280
     1
281
     1
  0
DICTIONARY
  5
1CE
330
1F
100
AcDbDictionary
280
     1
281
     1
  3
ACAD_LAYOUTSELFREF
360
2BAB6
  0
DICTIONARY
  5
2BA61
330
D2
100
AcDbDictionary
280
     1
281
     1
  3
ACAD_LAYOUTSELFREF
360
2BABF
  0
DICTIONARY
  5
2BA63
330
D6
100
AcDbDictionary
280
     1
281
     1
  3
ACAD_LAYOUTSELFREF
360
2BAC2
  0
XRECORD
  5
216
102
{ACAD_REACTORS
330
C
102
}
330
C
100
AcDbXrecord
280
     1
300
ACD
300
2021
300
87393ACD_2021_0F
  0
DICTIONARY
  5
6B
102
{ACAD_REACTORS
330
C
102
}
330
C
100
AcDbDictionary
281
     1
  0
DICTIONARY
  5
21B
102
{ACAD_REACTORS
330
C
102
}
330
C
100
AcDbDictionary
281
     1
  3
Metric50
350
21C
  0
DICTIONARY
  5
D
102
{ACAD_REACTORS
330
C
102
}
330
C
100
AcDbDictionary
281
     1
  0
DICTIONARY
  5
1A
102
{ACAD_REACTORS
330
C
102
}
330
C
100
AcDbDictionary
281
     1
  3
Layout1
350
D3
  3
Layout2
350
D7
  3
Model
350
22
  0
DICTIONARY
  5
6A
102
{ACAD_REACTORS
330
C
102
}
330
C
100
AcDbDictionary
281
     1
  3
ByBlock
350
ED
  3
ByLayer
350
EC
  3
Global
350
EE
  0
DICTIONARY
  5
12D
102
{ACAD_REACTORS
330
C
102
}
330
C
100
AcDbDictionary
281
     1
  3
Standard
350
12E
  0
DICTIONARY
  5
17
102
{ACAD_REACTORS
330
C
102
}
330
C
100
AcDbDictionary
281
     1
  3
Standard
350
18
  0
DICTIONARY
  5
19
102
{ACAD_REACTORS
330
C
102
}
330
C
100
AcDbDictionary
281
     1
  0
ACDBDICTIONARYWDFLT
  5
E
102
{ACAD_REACTORS
330
C
102
}
330
C
100
AcDbDictionary
281
     1
  3
Normal
350
F
100
AcDbDictionaryWithDefault
340
F
  0
DICTIONARY
  5
10C
102
{ACAD_REACTORS
330
C
102
}
330
C
100
AcDbDictionary
281
     1
  3
A0
350
10D
  3
A1
350
1BE
  3
A2
350
1BF
  3
A3
350
1C0
  3
A4
350
1C1
  3
A5
350
1C2
  3
A6
350
1C3
  3
A7
350
1C4
  3
A8
350
1C5
  3
A9
350
1C6
  3
B0
350
1C7
  3
B1
350
1C8
  3
B2
350
1C9
  3
B3
350
1CA
  3
B4
350
1CB
  3
B5
350
1CC
  3
B6
350
1CD
  0
DICTIONARY
  5
219
102
{ACAD_REACTORS
330
C
102
}
330
C
100
AcDbDictionary
281
     1
  3
Metric50
350
21A
  0
DICTIONARY
  5
7E
102
{ACAD_REACTORS
330
C
102
}
330
C
100
AcDbDictionary
281
     1
  3
Standard
350
7F
  0
DICTIONARY
  5
EF
102
{ACAD_REACTORS
330
C
102
}
330
C
100
AcDbDictionary
281
     1
  3
2dWireframe
350
F5
  3
Basic
350
F4
  3
Brighten
350
FB
  3
ColorChange
350
FF
  3
Conceptual
350
F8
  3
Dim
350
FA
  3
EdgeColorOff
350
1E6
  3
Facepattern
350
FE
  3
Flat
350
F0
  3
FlatWithEdges
350
F1
  3
Gouraud
350
F2
  3
GouraudWithEdges
350
F3
  3
Hidden
350
F7
  3
JitterOff
350
1E4
  3
Linepattern
350
FD
  3
OverhangOff
350
1E5
  3
Realistic
350
F9
  3
Shaded
350
1F3
  3
Shaded with edges
350
1F2
  3
Shades of Gray
350
1EF
  3
Sketchy
350
1F0
  3
Thicken
350
FC
  3
Wireframe
350
F6
  3
X-Ray
350
1F1
  0
XRECORD
  5
2BB5E
102
{ACAD_REACTORS
330
C
102
}
330
C
100
AcDbXrecord
280
     1
 90
        1
330
7F
  0
DICTIONARY
  5
5E
102
{ACAD_REACTORS
330
C
102
}
330
C
100
AcDbDictionary
281
     1
  3
CANNOSCALE
350
146
  3
CENTEREXE
350
259
  3
CENTERLTYPEFILE
350
25A
  3
CMLEADERSTYLE
350
145
  3
CTABLESTYLE
350
84
  3
CVIEWDETAILSTYLE
350
227
  3
CVIEWSECTIONSTYLE
350
228
  3
DIMASSOC
350
5F
  3
HIDETEXT
350
63
  3
INDEXCTL
350
2BB0B
  3
LAYEREVAL
350
1AE
  3
LAYERNOTIFY
350
1AF
  3
LIGHTINGUNITS
350
2BB09
  3
MSLTSCALE
350
2BB08
  3
PSOLHEIGHT
350
2BB5B
  3
PSOLWIDTH
350
2BB5A
  3
SORTENTS
350
2BB0A
  3
XCLIPFRAME
350
2BB5C
  0
XRECORD
  5
2BB5F
102
{ACAD_REACTORS
330
C
102
}
330
C
100
AcDbXrecord
280
     1
  1
DWGPROPS COOKIE
  2

  3

  4

  6

  7

  8
truole
  9

300
=
301
=
302
=
303
=
304
=
305
=
306
=
307
=
308
=
309
=
 40
0.0103356481481482
 41
2460398.356956019
 42
2460398.392407408
  1

 90
        0
  0
DICTIONARY
  5
200
102
{ACAD_REACTORS
330
1FF
102
}
330
1FF
100
AcDbDictionary
281
     1
  0
XRECORD
  5
2BAB6
102
{ACAD_REACTORS
330
1CE
102
}
330
1CE
100
AcDbXrecord
280
     1
340
1F
  0
XRECORD
  5
2BABF
102
{ACAD_REACTORS
330
2BA61
102
}
330
2BA61
100
AcDbXrecord
280
     1
340
D2
  0
XRECORD
  5
2BAC2
102
{ACAD_REACTORS
330
2BA63
102
}
330
2BA63
100
AcDbXrecord
280
     1
340
D6
  0
ACDBDETAILVIEWSTYLE
  5
21C
102
{ACAD_XDICTIONARY
360
2BB9E
102
}
102
{ACAD_REACTORS
330
21B
102
}
330
21B
100
AcDbModelDocViewStyle
 70
     0
  3
Metric50
290
     0
100
AcDbDetailViewStyle
 70
     0
 71
     0
 90
        3
 71
     1
340
11
 40
5.0
340
0
 40
5.0
300

 40
0.0
280
     1
 71
     2
340
16
 90
       25
 71
     3
340
11
 40
5.0
 90
        0
 40
15.0
 90
        1
300
%<\AcVar ViewDetailId>% (%<\AcVar ViewScale \f "%sn">%)
 71
     4
340
16
 90
       25
340
16
 90
       25
280
     0
  0
LAYOUT
  5
D3
102
{ACAD_XDICTIONARY
360
2BB63
102
}
102
{ACAD_REACTORS
330
1A
102
}
330
1A
100
AcDbPlotSettings
  1

  2
C:\Documents and Settings\basas\Application Data\Autodesk\AutoCAD 2005\R16.1\enu\plotters\Default Windows System Printer.pc3
  4

  6

 40
0.0
 41
0.0
 42
0.0
 43
0.0
 44
0.0
 45
0.0
 46
0.0
 47
0.0
 48
0.0
 49
0.0
140
0.0
141
0.0
142
1.0
143
1.0
 70
   688
 72
     0
 73
     0
 74
     5
  7

 75
    16
147
1.0
148
0.0
149
0.0
100
AcDbLayout
  1
Layout1
 70
     1
 71
     1
 10
0.0
 20
0.0
 11
12.0
 21
9.0
 12
0.0
 22
0.0
 32
0.0
 14
0.0
 24
0.0
 34
0.0
 15
0.0
 25
0.0
 35
0.0
146
0.0
 13
0.0
 23
0.0
 33
0.0
 16
1.0
 26
0.0
 36
0.0
 17
0.0
 27
1.0
 37
0.0
 76
     0
330
D2
  0
LAYOUT
  5
D7
102
{ACAD_XDICTIONARY
360
2BB65
102
}
102
{ACAD_REACTORS
330
1A
102
}
330
1A
100
AcDbPlotSettings
  1

  2
C:\Documents and Settings\basas\Application Data\Autodesk\AutoCAD 2005\R16.1\enu\plotters\Default Windows System Printer.pc3
  4

  6

 40
0.0
 41
0.0
 42
0.0
 43
0.0
 44
0.0
 45
0.0
 46
0.0
 47
0.0
 48
0.0
 49
0.0
140
0.0
141
0.0
142
1.0
143
1.0
 70
   688
 72
     0
 73
     0
 74
     5
  7

 75
    16
147
1.0
148
0.0
149
0.0
100
AcDbLayout
  1
Layout2
 70
     1
 71
     2
 10
0.0
 20
0.0
 11
12.0
 21
9.0
 12
0.0
 22
0.0
 32
0.0
 14
0.0
 24
0.0
 34
0.0
 15
0.0
 25
0.0
 35
0.0
146
0.0
 13
0.0
 23
0.0
 33
0.0
 16
1.0
 26
0.0
 36
0.0
 17
0.0
 27
1.0
 37
0.0
 76
     0
330
D6
  0
LAYOUT
  5
22
102
{ACAD_XDICTIONARY
360
2BB60
102
}
102
{ACAD_REACTORS
330
1A
102
}
330
1A
100
AcDbPlotSettings
  1

  2
none_device
  4
ISO_A4_(210.00_x_297.00_MM)
  6

 40
7.5
 41
20.0
 42
7.5
 43
20.0
 44
210.0
 45
297.0
 46
11.54999923706054
 47
-13.65000009536743
 48
0.0
 49
0.0
140
0.0
141
0.0
142
1.0
143
8.704084754739808
 70
 11952
 72
     1
 73
     0
 74
     0
  7

 75
     0
147
0.1148885871608098
148
0.0
149
0.0
100
AcDbLayout
  1
Model
 70
     1
 71
     0
 10
0.0
 20
0.0
 11
12.0
 21
9.0
 12
0.0
 22
0.0
 32
0.0
 14
0.0
 24
0.0
 34
0.0
 15
0.0
 25
0.0
 35
0.0
146
0.0
 13
0.0
 23
0.0
 33
0.0
 16
1.0
 26
0.0
 36
0.0
 17
0.0
 27
1.0
 37
0.0
 76
     0
330
1F
331
EA
1001
ACAD_PSEXT
1000
None
1000
None
1000
Not applicable
1000
The layout will not be plotted unless a new plotter configuration name is selected.
1070
     0
  0
MATERIAL
  5
ED
102
{ACAD_XDICTIONARY
360
1F9
102
}
102
{ACAD_REACTORS
330
6A
102
}
330
6A
100
AcDbMaterial
  1
ByBlock
  0
MATERIAL
  5
EC
102
{ACAD_XDICTIONARY
360
1F7
102
}
102
{ACAD_REACTORS
330
6A
102
}
330
6A
100
AcDbMaterial
  1
ByLayer
  0
MATERIAL
  5
EE
102
{ACAD_XDICTIONARY
360
173
102
}
102
{ACAD_REACTORS
330
6A
102
}
330
6A
100
AcDbMaterial
  1
Global
 43
0.0007999999797903
 43
0.0
 43
0.0
 43
0.0
 43
0.0
 43
0.0007999999797903
 43
0.0
 43
0.0
 43
0.0
 43
0.0
 43
1.0
 43
0.0
 43
0.0
 43
0.0
 43
0.0
 43
1.0
 49
0.0007999999797903
 49
0.0
 49
0.0
 49
0.0
 49
0.0
 49
0.0007999999797903
 49
0.0
 49
0.0
 49
0.0
 49
0.0
 49
1.0
 49
0.0
 49
0.0
 49
0.0
 49
0.0
 49
1.0
142
0.0007999999797903
142
0.0
142
0.0
142
0.0
142
0.0
142
0.0007999999797903
142
0.0
142
0.0
142
0.0
142
0.0
142
1.0
142
0.0
142
0.0
142
0.0
142
0.0
142
1.0
144
0.0007999999797903
144
0.0
144
0.0
144
0.0
144
0.0
144
0.0007999999797903
144
0.0
144
0.0
144
0.0
144
0.0
144
1.0
144
0.0
144
0.0
144
0.0
144
0.0
144
1.0
1001
ACAD
1070
    -1
1070
     3
1070
     0
1000

1071
        0
1070
     0
  0
MLEADERSTYLE
  5
12E
102
{ACAD_XDICTIONARY
360
2BB8A
102
}
102
{ACAD_REACTORS
330
12D
102
}
330
12D
100
AcDbMLeaderStyle
170
     2
171
     1
172
     0
 90
        2
 40
0.0
 41
0.0
173
     1
 91
-1056964608
340
14
 92
       -2
290
     1
 42
2.0
291
     1
 43
8.0
  3
Standard
 44
4.0
300

342
11
174
     1
178
     1
175
     1
176
     0
 93
-1056964608
 45
4.0
292
     0
297
     0
 46
4.0
 94
-1056964608
 47
1.0
 49
1.0
140
1.0
293
     1
141
0.0
294
     1
177
     0
142
1.0
295
     0
296
     0
143
3.75
1001
ACAD_MLEADERVER
1070
     2
  0
MLINESTYLE
  5
18
102
{ACAD_REACTORS
330
17
102
}
330
17
100
AcDbMlineStyle
  2
STANDARD
 70
     0
  3

 62
   256
 51
90.0
 52
90.0
 71
     2
 49
0.5
 62
   256
  6
BYLAYER
 49
-0.5
 62
   256
  6
BYLAYER
  0
ACDBPLACEHOLDER
  5
F
102
{ACAD_REACTORS
330
E
102
}
330
E
  0
SCALE
  5
10D
102
{ACAD_REACTORS
330
10C
102
}
330
10C
100
AcDbScale
 70
     0
300
1:1
140
1.0
141
1.0
290
     1
  0
SCALE
  5
1BE
102
{ACAD_REACTORS
330
10C
102
}
330
10C
100
AcDbScale
 70
     0
300
1:2
140
1.0
141
2.0
290
     0
  0
SCALE
  5
1BF
102
{ACAD_REACTORS
330
10C
102
}
330
10C
100
AcDbScale
 70
     0
300
1:4
140
1.0
141
4.0
290
     0
  0
SCALE
  5
1C0
102
{ACAD_REACTORS
330
10C
102
}
330
10C
100
AcDbScale
 70
     0
300
1:5
140
1.0
141
5.0
290
     0
  0
SCALE
  5
1C1
102
{ACAD_REACTORS
330
10C
102
}
330
10C
100
AcDbScale
 70
     0
300
1:8
140
1.0
141
8.0
290
     0
  0
SCALE
  5
1C2
102
{ACAD_REACTORS
330
10C
102
}
330
10C
100
AcDbScale
 70
     0
300
1:10
140
1.0
141
10.0
290
     0
  0
SCALE
  5
1C3
102
{ACAD_REACTORS
330
10C
102
}
330
10C
100
AcDbScale
 70
     0
300
1:16
140
1.0
141
16.0
290
     0
  0
SCALE
  5
1C4
102
{ACAD_REACTORS
330
10C
102
}
330
10C
100
AcDbScale
 70
     0
300
1:20
140
1.0
141
20.0
290
     0
  0
SCALE
  5
1C5
102
{ACAD_REACTORS
330
10C
102
}
330
10C
100
AcDbScale
 70
     0
300
1:30
140
1.0
141
30.0
290
     0
  0
SCALE
  5
1C6
102
{ACAD_REACTORS
330
10C
102
}
330
10C
100
AcDbScale
 70
     0
300
1:40
140
1.0
141
40.0
290
     0
  0
SCALE
  5
1C7
102
{ACAD_REACTORS
330
10C
102
}
330
10C
100
AcDbScale
 70
     0
300
1:50
140
1.0
141
50.0
290
     0
  0
SCALE
  5
1C8
102
{ACAD_REACTORS
330
10C
102
}
330
10C
100
AcDbScale
 70
     0
300
1:100
140
1.0
141
100.0
290
     0
  0
SCALE
  5
1C9
102
{ACAD_REACTORS
330
10C
102
}
330
10C
100
AcDbScale
 70
     0
300
2:1
140
2.0
141
1.0
290
     0
  0
SCALE
  5
1CA
102
{ACAD_REACTORS
330
10C
102
}
330
10C
100
AcDbScale
 70
     0
300
4:1
140
4.0
141
1.0
290
     0
  0
SCALE
  5
1CB
102
{ACAD_REACTORS
330
10C
102
}
330
10C
100
AcDbScale
 70
     0
300
8:1
140
8.0
141
1.0
290
     0
  0
SCALE
  5
1CC
102
{ACAD_REACTORS
330
10C
102
}
330
10C
100
AcDbScale
 70
     0
300
10:1
140
10.0
141
1.0
290
     0
  0
SCALE
  5
1CD
102
{ACAD_REACTORS
330
10C
102
}
330
10C
100
AcDbScale
 70
     0
300
100:1
140
100.0
141
1.0
290
     0
  0
ACDBSECTIONVIEWSTYLE
  5
21A
102
{ACAD_XDICTIONARY
360
2BB9C
102
}
102
{ACAD_REACTORS
330
219
102
}
330
219
100
AcDbModelDocViewStyle
 70
     0
  3
Metric50
290
     0
100
AcDbSectionViewStyle
 70
     0
 71
     0
 90
      102
 71
     1
340
11
 40
5.0
340
0
340
0
 40
5.0
300
I, O, Q, S, X, Z
 40
10.0
 90
        0
 40
2.5
 90
        0
 71
     2
340
16
 90
       25
340
16
 90
       50
 40
5.0
 40
2.5
 40
5.0
 71
     3
340
11
 40
5.0
 90
        0
 40
15.0
 90
        1
300
%<\AcVar ViewSectionStartId>%-%<\AcVar ViewSectionEndId>% (%<\AcVar ViewScale \f "%sn">%)
 71
     4
300
ANSI31
 40
1.0
 90
        0
290
     0
290
     0
 90
        6
 40
0.0
 40
1.570796326794896
 40
0.2617993877991494
 40
1.308996938995747
 40
-0.2617993877991494
 40
1.832595714594046
  0
TABLESTYLE
  5
7F
102
{ACAD_XDICTIONARY
360
162
102
}
102
{ACAD_REACTORS
330
7E
102
}
330
7E
100
AcDbTableStyle
  3
Standard
 70
     0
 71
     0
 40
1.5
 41
1.5
280
     0
281
     0
  7
Standard
140
4.5
170
     2
 62
     0
 63
     7
283
     0
274
    -2
284
     1
 64
     0
275
    -2
285
     1
 65
     0
276
    -2
286
     1
 66
     0
277
    -2
287
     1
 67
     0
278
    -2
288
     1
 68
     0
279
    -2
289
     1
 69
     0
  7
Standard
140
6.0
170
     5
 62
     0
 63
     7
283
     0
274
    -2
284
     1
 64
     0
275
    -2
285
     1
 65
     0
276
    -2
286
     1
 66
     0
277
    -2
287
     1
 67
     0
278
    -2
288
     1
 68
     0
279
    -2
289
     1
 69
     0
  7
Standard
140
4.5
170
     5
 62
     0
 63
     7
283
     0
274
    -2
284
     1
 64
     0
275
    -2
285
     1
 65
     0
276
    -2
286
     1
 66
     0
277
    -2
287
     1
 67
     0
278
    -2
288
     1
 68
     0
279
    -2
289
     1
 69
     0
  0
VISUALSTYLE
  5
F5
102
{ACAD_XDICTIONARY
360
2BB74
102
}
102
{ACAD_REACTORS
330
EF
102
}
330
EF
100
AcDbVisualStyle
  2
2dWireframe
 70
     4
 71
     0
 72
     2
 73
     1
 90
        0
 40
-0.6
 41
-30.0
 62
     5
 63
     7
 74
     1
 91
        4
 64
     7
 65
   257
 75
     1
175
     1
 42
1.0
 92
        0
 66
   257
 43
1.0
 76
     1
 77
     6
 78
     2
 67
     7
 79
     5
170
     0
171
     0
290
     0
174
     0
 93
        1
 44
0.0
173
     0
291
     0
 45
0.0
1001
ACAD
1000
AcDbSavedByObjectVersion
1070
     0
  0
VISUALSTYLE
  5
F4
102
{ACAD_XDICTIONARY
360
2BB72
102
}
102
{ACAD_REACTORS
330
EF
102
}
330
EF
100
AcDbVisualStyle
  2
Basic
 70
     7
 71
     1
 72
     0
 73
     1
 90
        0
 40
-0.6
 41
-30.0
 62
     5
 63
     7
 74
     0
 91
        4
 64
     7
 65
   257
 75
     1
175
     1
 42
1.0
 92
        8
 66
     7
 43
1.0
 76
     1
 77
     6
 78
     2
 67
     7
 79
     5
170
     0
171
     0
290
     0
174
     0
 93
        1
 44
0.0
173
     0
291
     1
 45
0.0
1001
ACAD
1000
AcDbSavedByObjectVersion
1070
     0
  0
VISUALSTYLE
  5
FB
102
{ACAD_XDICTIONARY
360
2BB80
102
}
102
{ACAD_REACTORS
330
EF
102
}
330
EF
100
AcDbVisualStyle
  2
Brighten
 70
    12
 71
     2
 72
     2
 73
     1
 90
        0
 40
-0.6
 41
-30.0
 62
     5
 63
     7
 74
     1
 91
        4
 64
     7
 65
   257
 75
     1
175
     1
 42
1.0
 92
        8
 66
     7
 43
1.0
 76
     1
 77
     6
 78
     2
 67
     7
 79
     5
170
     0
171
     0
290
     0
174
     0
 93
        1
 44
50.0
173
     0
291
     1
 45
0.0
1001
ACAD
1000
AcDbSavedByObjectVersion
1070
     0
  0
VISUALSTYLE
  5
FF
102
{ACAD_XDICTIONARY
360
2BB88
102
}
102
{ACAD_REACTORS
330
EF
102
}
330
EF
100
AcDbVisualStyle
  2
ColorChange
 70
    16
 71
     2
 72
     2
 73
     3
 90
        0
 40
-0.6
 41
-30.0
 62
     5
 63
     8
 74
     1
 91
        4
 64
     7
 65
   257
 75
     1
175
     1
 42
1.0
 92
        8
 66
     8
 43
1.0
 76
     1
 77
     6
 78
     2
 67
     7
 79
     5
170
     0
171
     0
290
     0
174
     0
 93
        1
 44
0.0
173
     0
291
     1
 45
0.0
1001
ACAD
1000
AcDbSavedByObjectVersion
1070
     0
  0
VISUALSTYLE
  5
F8
102
{ACAD_XDICTIONARY
360
2BB7A
102
}
102
{ACAD_REACTORS
330
EF
102
}
330
EF
100
AcDbVisualStyle
  2
Conceptual
 70
     9
 71
     3
 72
     2
 73
     1
 90
        0
 40
-0.6
 41
-30.0
 62
     5
 63
     7
 74
     2
 91
        2
 64
     7
 65
   257
 75
     1
175
     1
 42
40.0
 92
        8
 66
     7
 43
1.0
 76
     1
 77
     6
 78
     2
 67
     7
 79
     3
170
     0
171
     0
290
     0
174
     0
 93
        1
 44
0.0
173
     0
291
     0
 45
0.0
1001
ACAD
1000
AcDbSavedByObjectVersion
1070
     0
  0
VISUALSTYLE
  5
FA
102
{ACAD_XDICTIONARY
360
2BB7E
102
}
102
{ACAD_REACTORS
330
EF
102
}
330
EF
100
AcDbVisualStyle
  2
Dim
 70
    11
 71
     2
 72
     2
 73
     1
 90
        0
 40
-0.6
 41
-30.0
 62
     5
 63
     7
 74
     1
 91
        4
 64
     7
 65
   257
 75
     1
175
     1
 42
1.0
 92
        8
 66
     7
 43
1.0
 76
     1
 77
     6
 78
     2
 67
     7
 79
     5
170
     0
171
     0
290
     0
174
     0
 93
        1
 44
-50.0
173
     0
291
     1
 45
0.0
1001
ACAD
1000
AcDbSavedByObjectVersion
1070
     0
  0
VISUALSTYLE
  5
1E6
102
{ACAD_XDICTIONARY
360
2BB90
102
}
102
{ACAD_REACTORS
330
EF
102
}
330
EF
100
AcDbVisualStyle
  2
EdgeColorOff
 70
    22
 71
     2
 72
     2
 73
     0
 90
        0
 40
-0.6
 41
-30.0
 62
     5
 63
     7
 74
     1
 91
        4
 64
     7
 65
   257
 75
     1
175
     1
 42
1.0
 92
        8
 66
     7
 43
1.0
 76
     1
 77
     6
 78
     2
 67
     7
 79
     5
170
     0
171
     0
290
     0
174
     0
 93
        1
 44
0.0
173
     0
291
     1
 45
0.0
1001
ACAD
1000
AcDbSavedByObjectVersion
1070
     0
  0
VISUALSTYLE
  5
FE
102
{ACAD_XDICTIONARY
360
2BB86
102
}
102
{ACAD_REACTORS
330
EF
102
}
330
EF
100
AcDbVisualStyle
  2
Facepattern
 70
    15
 71
     2
 72
     2
 73
     1
 90
        0
 40
-0.6
 41
-30.0
 62
     5
 63
     7
 74
     1
 91
        4
 64
     7
 65
   257
 75
     1
175
     1
 42
1.0
 92
        8
 66
     7
 43
1.0
 76
     1
 77
     6
 78
     2
 67
     7
 79
     5
170
     0
171
     0
290
     0
174
     0
 93
        1
 44
0.0
173
     0
291
     1
 45
0.0
1001
ACAD
1000
AcDbSavedByObjectVersion
1070
     0
  0
VISUALSTYLE
  5
F0
102
{ACAD_XDICTIONARY
360
2BB6A
102
}
102
{ACAD_REACTORS
330
EF
102
}
330
EF
100
AcDbVisualStyle
  2
Flat
 70
     0
 71
     2
 72
     1
 73
     1
 90
        2
 40
-0.6
 41
30.0
 62
     5
 63
     7
 74
     0
 91
        0
 64
     7
 65
   257
 75
     1
175
     1
 42
1.0
 92
        8
 66
     7
 43
1.0
 76
     1
 77
     6
 78
     2
 67
     7
 79
     5
170
     0
171
     0
290
     0
174
     0
 93
       13
 44
0.0
173
     0
291
     1
 45
0.0
1001
ACAD
1000
AcDbSavedByObjectVersion
1070
     0
  0
VISUALSTYLE
  5
F1
102
{ACAD_XDICTIONARY
360
2BB6C
102
}
102
{ACAD_REACTORS
330
EF
102
}
330
EF
100
AcDbVisualStyle
  2
FlatWithEdges
 70
     1
 71
     2
 72
     1
 73
     1
 90
        2
 40
-0.6
 41
30.0
 62
     5
 63
     7
 74
     1
 91
        0
 64
     7
 65
   257
 75
     1
175
     1
 42
1.0
 92
        0
 66
   257
 43
1.0
 76
     1
 77
     6
 78
     2
 67
     7
 79
     5
170
     0
171
     0
290
     0
174
     0
 93
       13
 44
0.0
173
     0
291
     1
 45
0.0
1001
ACAD
1000
AcDbSavedByObjectVersion
1070
     0
  0
VISUALSTYLE
  5
F2
102
{ACAD_XDICTIONARY
360
2BB6E
102
}
102
{ACAD_REACTORS
330
EF
102
}
330
EF
100
AcDbVisualStyle
  2
Gouraud
 70
     2
 71
     2
 72
     2
 73
     1
 90
        2
 40
-0.6
 41
30.0
 62
     5
 63
     7
 74
     0
 91
        0
 64
     7
 65
   257
 75
     1
175
     1
 42
1.0
 92
        0
 66
     7
 43
1.0
 76
     1
 77
     6
 78
     2
 67
     7
 79
     5
170
     0
171
     0
290
     0
174
     0
 93
       13
 44
0.0
173
     0
291
     1
 45
0.0
1001
ACAD
1000
AcDbSavedByObjectVersion
1070
     0
  0
VISUALSTYLE
  5
F3
102
{ACAD_XDICTIONARY
360
2BB70
102
}
102
{ACAD_REACTORS
330
EF
102
}
330
EF
100
AcDbVisualStyle
  2
GouraudWithEdges
 70
     3
 71
     2
 72
     2
 73
     1
 90
        2
 40
-0.6
 41
30.0
 62
     5
 63
     7
 74
     1
 91
        0
 64
     7
 65
   257
 75
     1
175
     1
 42
1.0
 92
        0
 66
   257
 43
1.0
 76
     1
 77
     6
 78
     2
 67
     7
 79
     5
170
     0
171
     0
290
     0
174
     0
 93
       13
 44
0.0
173
     0
291
     1
 45
0.0
1001
ACAD
1000
AcDbSavedByObjectVersion
1070
     0
  0
VISUALSTYLE
  5
F7
102
{ACAD_XDICTIONARY
360
2BB78
102
}
102
{ACAD_REACTORS
330
EF
102
}
330
EF
100
AcDbVisualStyle
  2
Hidden
 70
     6
 71
     1
 72
     2
 73
     2
 90
        0
 40
-0.6
 41
-30.0
 62
     5
 63
     7
 74
     2
 91
        2
 64
     7
 65
   257
 75
     2
175
     1
 42
40.0
 92
        0
 66
   257
 43
1.0
 76
     1
 77
     6
 78
     2
 67
     7
 79
     3
170
     0
171
     0
290
     0
174
     0
 93
        1
 44
0.0
173
     0
291
     0
 45
0.0
1001
ACAD
1000
AcDbSavedByObjectVersion
1070
     0
  0
VISUALSTYLE
  5
1E4
102
{ACAD_XDICTIONARY
360
2BB8C
102
}
102
{ACAD_REACTORS
330
EF
102
}
330
EF
100
AcDbVisualStyle
  2
JitterOff
 70
    20
 71
     2
 72
     2
 73
     0
 90
        0
 40
-0.6
 41
-30.0
 62
     5
 63
     7
 74
     1
 91
        4
 64
     7
 65
   257
 75
     1
175
     1
 42
1.0
 92
       10
 66
     7
 43
1.0
 76
     1
 77
     6
 78
     2
 67
     7
 79
     5
170
     0
171
     0
290
     0
174
     0
 93
        1
 44
0.0
173
     0
291
     1
 45
0.0
1001
ACAD
1000
AcDbSavedByObjectVersion
1070
     0
  0
VISUALSTYLE
  5
FD
102
{ACAD_XDICTIONARY
360
2BB84
102
}
102
{ACAD_REACTORS
330
EF
102
}
330
EF
100
AcDbVisualStyle
  2
Linepattern
 70
    14
 71
     2
 72
     2
 73
     1
 90
        0
 40
-0.6
 41
-30.0
 62
     5
 63
     7
 74
     1
 91
        4
 64
     7
 65
   257
 75
     7
175
     7
 42
1.0
 92
        8
 66
     7
 43
1.0
 76
     1
 77
     6
 78
     2
 67
     7
 79
     5
170
     0
171
     0
290
     0
174
     0
 93
        1
 44
0.0
173
     0
291
     1
 45
0.0
1001
ACAD
1000
AcDbSavedByObjectVersion
1070
     0
  0
VISUALSTYLE
  5
1E5
102
{ACAD_XDICTIONARY
360
2BB8E
102
}
102
{ACAD_REACTORS
330
EF
102
}
330
EF
100
AcDbVisualStyle
  2
OverhangOff
 70
    21
 71
     2
 72
     2
 73
     0
 90
        0
 40
-0.6
 41
-30.0
 62
     5
 63
     7
 74
     1
 91
        4
 64
     7
 65
   257
 75
     1
175
     1
 42
1.0
 92
        9
 66
     7
 43
1.0
 76
     1
 77
     6
 78
     2
 67
     7
 79
     5
170
     0
171
     0
290
     0
174
     0
 93
        1
 44
0.0
173
     0
291
     1
 45
0.0
1001
ACAD
1000
AcDbSavedByObjectVersion
1070
     0
  0
VISUALSTYLE
  5
F9
102
{ACAD_XDICTIONARY
360
2BB7C
102
}
102
{ACAD_REACTORS
330
EF
102
}
330
EF
100
AcDbVisualStyle
  2
Realistic
 70
     8
 71
     2
 72
     2
 73
     0
 90
        2
 40
-0.6
 41
30.0
 62
     5
 63
     7
 74
     0
 91
        0
 64
     7
 65
   257
 75
     1
175
     1
 42
1.0
 92
        8
 66
   257
 43
1.0
 76
     1
 77
     6
 78
     2
 67
     7
 79
     3
170
     0
171
     0
290
     0
174
     0
 93
       13
 44
0.0
173
     0
291
     0
 45
0.0
1001
ACAD
1000
AcDbSavedByObjectVersion
1070
     0
  0
VISUALSTYLE
  5
1F3
102
{ACAD_XDICTIONARY
360
2BB9A
102
}
102
{ACAD_REACTORS
330
EF
102
}
330
EF
100
AcDbVisualStyle
  2
Shaded
 70
    27
 71
     2
 72
     2
 73
     1
 90
        2
 40
-0.6
 41
30.0
 62
     5
 63
     7
 74
     0
 91
        4
 64
     7
 65
   257
 75
     1
175
     1
 42
1.0
 92
        8
 66
   257
 43
1.0
 76
     1
 77
     6
 78
     2
 67
     8
 79
     3
170
     0
171
     0
290
     0
174
     0
 93
        5
 44
0.0
173
     0
291
     0
 45
0.0
1001
ACAD
1000
AcDbSavedByObjectVersion
1070
     0
  0
VISUALSTYLE
  5
1F2
102
{ACAD_XDICTIONARY
360
2BB98
102
}
102
{ACAD_REACTORS
330
EF
102
}
330
EF
100
AcDbVisualStyle
  2
Shaded with edges
 70
    26
 71
     2
 72
     2
 73
     1
 90
        2
 40
-0.6
 41
30.0
 62
     5
 63
     7
 74
     1
 91
        2
 64
     7
 65
   257
 75
     2
175
     1
 42
1.0
 92
        8
 66
   257
 43
1.0
 76
     1
 77
     6
 78
     2
 67
     7
 79
     3
170
     0
171
     0
290
     0
174
     0
 93
        5
 44
0.0
173
     0
291
     0
 45
0.0
1001
ACAD
1000
AcDbSavedByObjectVersion
1070
     0
  0
VISUALSTYLE
  5
1EF
102
{ACAD_XDICTIONARY
360
2BB92
102
}
102
{ACAD_REACTORS
330
EF
102
}
330
EF
100
AcDbVisualStyle
  2
Shades of Gray
 70
    23
 71
     2
 72
     2
 73
     3
 90
        0
 40
-0.6
 41
-30.0
 62
     5
 63
     7
 74
     2
 91
        2
 64
     7
 65
     7
 75
     1
175
     1
 42
40.0
 92
        8
 66
     7
 43
1.0
 76
     1
 77
     6
 78
     2
 67
     7
 79
     3
170
     0
171
     0
290
     0
174
     0
 93
        1
 44
0.0
173
     0
291
     0
 45
0.0
1001
ACAD
1000
AcDbSavedByObjectVersion
1070
     0
  0
VISUALSTYLE
  5
1F0
102
{ACAD_XDICTIONARY
360
2BB94
102
}
102
{ACAD_REACTORS
330
EF
102
}
330
EF
100
AcDbVisualStyle
  2
Sketchy
 70
    24
 71
     1
 72
     2
 73
     2
 90
        0
 40
-0.6
 41
-30.0
 62
     5
 63
     7
 74
     2
 91
        2
 64
     7
 65
     7
 75
     1
175
     1
 42
40.0
 92
       11
 66
     7
 43
1.0
 76
     1
 77
     6
 78
     2
 67
     7
 79
     6
170
     0
171
     0
290
     0
174
     0
 93
        1
 44
0.0
173
     0
291
     0
 45
0.0
1001
ACAD
1000
AcDbSavedByObjectVersion
1070
     0
  0
VISUALSTYLE
  5
FC
102
{ACAD_XDICTIONARY
360
2BB82
102
}
102
{ACAD_REACTORS
330
EF
102
}
330
EF
100
AcDbVisualStyle
  2
Thicken
 70
    13
 71
     2
 72
     2
 73
     1
 90
        0
 40
-0.6
 41
-30.0
 62
     5
 63
     7
 74
     1
 91
        4
 64
     7
 65
   257
 75
     1
175
     1
 42
1.0
 92
       12
 66
     7
 43
1.0
 76
     1
 77
     6
 78
     2
 67
     7
 79
     5
170
     0
171
     0
290
     0
174
     0
 93
        1
 44
0.0
173
     0
291
     1
 45
0.0
1001
ACAD
1000
AcDbSavedByObjectVersion
1070
     0
  0
VISUALSTYLE
  5
F6
102
{ACAD_XDICTIONARY
360
2BB76
102
}
102
{ACAD_REACTORS
330
EF
102
}
330
EF
100
AcDbVisualStyle
  2
Wireframe
 70
     5
 71
     0
 72
     2
 73
     0
 90
        0
 40
-0.6
 41
-30.0
 62
     5
 63
     7
 74
     1
 91
        4
 64
     7
 65
   257
 75
     1
175
     1
 42
1.0
 92
        0
 66
   257
 43
1.0
 76
     1
 77
     6
 78
     2
 67
     7
 79
     3
170
     0
171
     0
290
     0
174
     0
 93
        1
 44
0.0
173
     0
291
     0
 45
0.0
1001
ACAD
1000
AcDbSavedByObjectVersion
1070
     0
  0
VISUALSTYLE
  5
1F1
102
{ACAD_XDICTIONARY
360
2BB96
102
}
102
{ACAD_REACTORS
330
EF
102
}
330
EF
100
AcDbVisualStyle
  2
X-Ray
 70
    25
 71
     2
 72
     2
 73
     1
 90
        1
 40
0.5
 41
-30.0
 62
     5
 63
     7
 74
     1
 91
        0
 64
     7
 65
   257
 75
     1
175
     1
 42
1.0
 92
        8
 66
     7
 43
1.0
 76
     1
 77
     6
 78
     2
 67
     7
 79
     3
170
     0
171
     0
290
     0
174
     0
 93
       13
 44
0.0
173
     0
291
     0
 45
0.0
1001
ACAD
1000
AcDbSavedByObjectVersion
1070
     0
  0
DICTIONARYVAR
  5
146
102
{ACAD_REACTORS
330
5E
102
}
330
5E
100
DictionaryVariables
280
     0
  1
1:1
  0
DICTIONARYVAR
  5
259
102
{ACAD_REACTORS
330
5E
102
}
330
5E
100
DictionaryVariables
280
     0
  1
3.500000
  0
DICTIONARYVAR
  5
25A
102
{ACAD_REACTORS
330
5E
102
}
330
5E
100
DictionaryVariables
280
     0
  1
acadiso.lin
  0
DICTIONARYVAR
  5
145
102
{ACAD_REACTORS
330
5E
102
}
330
5E
100
DictionaryVariables
280
     0
  1
STANDARD
  0
DICTIONARYVAR
  5
84
102
{ACAD_REACTORS
330
5E
102
}
330
5E
100
DictionaryVariables
280
     0
  1
STANDARD
  0
DICTIONARYVAR
  5
227
102
{ACAD_REACTORS
330
5E
102
}
330
5E
100
DictionaryVariables
280
     0
  1
Metric50
  0
DICTIONARYVAR
  5
228
102
{ACAD_REACTORS
330
5E
102
}
330
5E
100
DictionaryVariables
280
     0
  1
Metric50
  0
DICTIONARYVAR
  5
5F
102
{ACAD_REACTORS
330
5E
102
}
330
5E
100
DictionaryVariables
280
     0
  1
2
  0
DICTIONARYVAR
  5
63
102
{ACAD_REACTORS
330
5E
102
}
330
5E
100
DictionaryVariables
280
     0
  1
1
  0
DICTIONARYVAR
  5
2BB0B
102
{ACAD_REACTORS
330
5E
102
}
330
5E
100
DictionaryVariables
280
     0
  1
0
  0
DICTIONARYVAR
  5
1AE
102
{ACAD_REACTORS
330
5E
102
}
330
5E
100
DictionaryVariables
280
     0
  1
0
  0
DICTIONARYVAR
  5
1AF
102
{ACAD_REACTORS
330
5E
102
}
330
5E
100
DictionaryVariables
280
     0
  1
0
  0
DICTIONARYVAR
  5
2BB09
102
{ACAD_REACTORS
330
5E
102
}
330
5E
100
DictionaryVariables
280
     0
  1
2
  0
DICTIONARYVAR
  5
2BB08
102
{ACAD_REACTORS
330
5E
102
}
330
5E
100
DictionaryVariables
280
     0
  1
1
  0
DICTIONARYVAR
  5
2BB5B
102
{ACAD_REACTORS
330
5E
102
}
330
5E
100
DictionaryVariables
280
     0
  1
80.000000
  0
DICTIONARYVAR
  5
2BB5A
102
{ACAD_REACTORS
330
5E
102
}
330
5E
100
DictionaryVariables
280
     0
  1
5.000000
  0
DICTIONARYVAR
  5
2BB0A
102
{ACAD_REACTORS
330
5E
102
}
330
5E
100
DictionaryVariables
280
     0
  1
127
  0
DICTIONARYVAR
  5
2BB5C
102
{ACAD_REACTORS
330
5E
102
}
330
5E
100
DictionaryVariables
280
     0
  1
2
  0
DICTIONARY
  5
2BB9E
330
21C
100
AcDbDictionary
280
     1
281
     1
  3
ACAD_XREC_ROUNDTRIP
360
2BB9F
  0
DICTIONARY
  5
2BB63
330
D3
100
AcDbDictionary
280
     1
281
     1
  3
ACAD_XREC_ROUNDTRIP
360
2BB64
  0
DICTIONARY
  5
2BB65
330
D7
100
AcDbDictionary
280
     1
281
     1
  3
ACAD_XREC_ROUNDTRIP
360
2BB66
  0
DICTIONARY
  5
2BB60
330
22
100
AcDbDictionary
280
     1
281
     1
  3
ACAD_XREC_ROUNDTRIP
360
2BB61
  0
DICTIONARY
  5
1F9
330
ED
100
AcDbDictionary
280
     1
281
     1
  3
ACAD_XREC_ROUNDTRIP
360
2BB68
  3
FBXASSET
360
1FA
  0
DICTIONARY
  5
1F7
330
EC
100
AcDbDictionary
280
     1
281
     1
  3
ACAD_XREC_ROUNDTRIP
360
2BB67
  3
FBXASSET
360
1F8
  0
DICTIONARY
  5
173
330
EE
100
AcDbDictionary
280
     1
281
     1
  3
ACAD_XREC_ROUNDTRIP
360
2BB69
  3
BUMPTILE
360
175
  3
DIFFUSETILE
360
174
  3
FBXASSET
360
1FB
  3
OPACITYTILE
360
176
  3
REFLECTIONTILE
360
177
  0
DICTIONARY
  5
2BB8A
330
12E
100
AcDbDictionary
280
     1
281
     1
  3
ACAD_XREC_ROUNDTRIP
360
2BB8B
  0
DICTIONARY
  5
2BB9C
330
21A
100
AcDbDictionary
280
     1
281
     1
  3
ACAD_XREC_ROUNDTRIP
360
2BB9D
  0
DICTIONARY
  5
162
330
7F
100
AcDbDictionary
280
     1
281
     1
  3
ACAD_ROUNDTRIP_2008_TABLESTYLE_CELLSTYLEMAP
360
2BB5D
  3
ACAD_XREC_ROUNDTRIP
360
2BB62
  0
DICTIONARY
  5
2BB74
330
F5
100
AcDbDictionary
280
     1
281
     1
  3
ACAD_XREC_ROUNDTRIP
360
2BB75
  0
DICTIONARY
  5
2BB72
330
F4
100
AcDbDictionary
280
     1
281
     1
  3
ACAD_XREC_ROUNDTRIP
360
2BB73
  0
DICTIONARY
  5
2BB80
330
FB
100
AcDbDictionary
280
     1
281
     1
  3
ACAD_XREC_ROUNDTRIP
360
2BB81
  0
DICTIONARY
  5
2BB88
330
FF
100
AcDbDictionary
280
     1
281
     1
  3
ACAD_XREC_ROUNDTRIP
360
2BB89
  0
DICTIONARY
  5
2BB7A
330
F8
100
AcDbDictionary
280
     1
281
     1
  3
ACAD_XREC_ROUNDTRIP
360
2BB7B
  0
DICTIONARY
  5
2BB7E
330
FA
100
AcDbDictionary
280
     1
281
     1
  3
ACAD_XREC_ROUNDTRIP
360
2BB7F
  0
DICTIONARY
  5
2BB90
330
1E6
100
AcDbDictionary
280
     1
281
     1
  3
ACAD_XREC_ROUNDTRIP
360
2BB91
  0
DICTIONARY
  5
2BB86
330
FE
100
AcDbDictionary
280
     1
281
     1
  3
ACAD_XREC_ROUNDTRIP
360
2BB87
  0
DICTIONARY
  5
2BB6A
330
F0
100
AcDbDictionary
280
     1
281
     1
  3
ACAD_XREC_ROUNDTRIP
360
2BB6B
  0
DICTIONARY
  5
2BB6C
330
F1
100
AcDbDictionary
280
     1
281
     1
  3
ACAD_XREC_ROUNDTRIP
360
2BB6D
  0
DICTIONARY
  5
2BB6E
330
F2
100
AcDbDictionary
280
     1
281
     1
  3
ACAD_XREC_ROUNDTRIP
360
2BB6F
  0
DICTIONARY
  5
2BB70
330
F3
100
AcDbDictionary
280
     1
281
     1
  3
ACAD_XREC_ROUNDTRIP
360
2BB71
  0
DICTIONARY
  5
2BB78
330
F7
100
AcDbDictionary
280
     1
281
     1
  3
ACAD_XREC_ROUNDTRIP
360
2BB79
  0
DICTIONARY
  5
2BB8C
330
1E4
100
AcDbDictionary
280
     1
281
     1
  3
ACAD_XREC_ROUNDTRIP
360
2BB8D
  0
DICTIONARY
  5
2BB84
330
FD
100
AcDbDictionary
280
     1
281
     1
  3
ACAD_XREC_ROUNDTRIP
360
2BB85
  0
DICTIONARY
  5
2BB8E
330
1E5
100
AcDbDictionary
280
     1
281
     1
  3
ACAD_XREC_ROUNDTRIP
360
2BB8F
  0
DICTIONARY
  5
2BB7C
330
F9
100
AcDbDictionary
280
     1
281
     1
  3
ACAD_XREC_ROUNDTRIP
360
2BB7D
  0
DICTIONARY
  5
2BB9A
330
1F3
100
AcDbDictionary
280
     1
281
     1
  3
ACAD_XREC_ROUNDTRIP
360
2BB9B
  0
DICTIONARY
  5
2BB98
330
1F2
100
AcDbDictionary
280
     1
281
     1
  3
ACAD_XREC_ROUNDTRIP
360
2BB99
  0
DICTIONARY
  5
2BB92
330
1EF
100
AcDbDictionary
280
     1
281
     1
  3
ACAD_XREC_ROUNDTRIP
360
2BB93
  0
DICTIONARY
  5
2BB94
330
1F0
100
AcDbDictionary
280
     1
281
     1
  3
ACAD_XREC_ROUNDTRIP
360
2BB95
  0
DICTIONARY
  5
2BB82
330
FC
100
AcDbDictionary
280
     1
281
     1
  3
ACAD_XREC_ROUNDTRIP
360
2BB83
  0
DICTIONARY
  5
2BB76
330
F6
100
AcDbDictionary
280
     1
281
     1
  3
ACAD_XREC_ROUNDTRIP
360
2BB77
  0
DICTIONARY
  5
2BB96
330
1F1
100
AcDbDictionary
280
     1
281
     1
  3
ACAD_XREC_ROUNDTRIP
360
2BB97
  0
XRECORD
  5
2BB9F
102
{ACAD_REACTORS
330
2BB9E
102
}
330
2BB9E
100
AcDbXrecord
280
     1
102
DISPLAYNAME
  1
Metric50
102
FLAGS
 90
        0
  0
XRECORD
  5
2BB64
102
{ACAD_REACTORS
330
2BB63
102
}
330
2BB63
100
AcDbXrecord
280
     1
102
SHADEPLOT
 70
     0
102
SHADEPLOTRESLEVEL
 70
     2
102
SHADEPLOTCUSTOMDPI
 70
   300
  0
XRECORD
  5
2BB66
102
{ACAD_REACTORS
330
2BB65
102
}
330
2BB65
100
AcDbXrecord
280
     1
102
SHADEPLOT
 70
     0
102
SHADEPLOTRESLEVEL
 70
     2
102
SHADEPLOTCUSTOMDPI
 70
   300
  0
XRECORD
  5
2BB61
102
{ACAD_REACTORS
330
2BB60
102
}
330
2BB60
100
AcDbXrecord
280
     1
102
SHADEPLOT
 70
     0
102
SHADEPLOTRESLEVEL
 70
     2
102
SHADEPLOTCUSTOMDPI
 70
   300
  0
XRECORD
  5
2BB68
102
{ACAD_REACTORS
330
1F9
102
}
330
1F9
100
AcDbXrecord
280
     1
102
MATERIAL
148
0.0
149
0.0
149
0.0
 93
        0
 94
       63
282
     0
 72
     1
 77
     1
171
     1
175
     1
179
     1
273
     0
  0
XRECORD
  5
1FA
102
{ACAD_REACTORS
330
1F9
102
}
330
1F9
100
AcDbXrecord
280
     1
 70
     1
 90
429727718
  1
D62C5603-E3A1-4AEA-B7FB-FE5D8D0755AF
310
504B03040A0000080000CC70623B3DEE336E79000000790000001B0000006175746F6465736B2D64657369676E2D7061636B6167652E786D6C3C3F786D6C2076657273696F6E3D22312E302220656E636F64696E673D227574662D3822203F3E3C666F726D6174733E3C666F726D61743E687474703A2F2F736368656D612E
310
6175746F6465736B2E636F6D2F64657369676E2D7061636B6167652F323030393C2F666F726D61743E3C2F666F726D6174733E504B0304140006080800CC70623BD486FD9CA0000000F4000000130000005B436F6E74656E745F54797065735D2E786D6C7D8EC10E82300C865F65E91D8A1E8C310C0EEA1BF002731658846E
310
D98AC1B77784ABF1D8FE5FBFBF75BBCE937A534CCEB38643598122B6FEE978D0B0485F9C41B54DDD7D022595594E1A469170414C76A4D9A4D207E29CF43ECE46F218070CC6BECC4078ACAA135ACF422C856C0E68EA1BF5669944DDD7BCDE7B1F8E415D77AECB980613C2E4AC91FC167A2B244592486606FC29C8FD7F045B9A
310
EF7053A7E60B504B0304140006080800CC70623B853B8169EB0000007C01000008000000636F72652E786D6C8D90416EC3201045AF62CDB6C206821CC7C244919D9CA01740401C94182C03558F5F9C3852BBEB6A467FFE9B197D7EFC9E1EC5975982F5AE035262288C535E5B377690E21535501C055FBC8FBF6C503839990E
310
5619041F179FE64D52DE45E362569DD7661365082642A11EB9E920A89B99642953CC8E702F67A9EE7234257977194EC9EAE275C4EABCCF5EAD5940D4AC6F0E35A568B8F43562CD7046CD199FD07E60174276A7BE677B5EADB0E0D14EEFFB6A31321A0D82627C4084204C3F096B71DD52F6819B16635EADF63F509AF53FA164
310
5DDCD1EDDD17164090FCC8732078B56691CB33A85CD7DCC40F504B0304140006080800CC70623B55019EA25F0000007C00000007000000636E782E786D6C4DCB3B0E80201045D1AD90E915ED2CF8AC45050C11660C8261F98AB1B07AC9C97D42D718D865D3E909258CFD00CCE24AC6E326A164D74DC0B4128928FF32603847
310
2BA13128B1252AC747C6BAB984FC68F0B87FE8960A5C09FE86CFB69FBA01504B0304140006080800CC70623BDBABAAF470010000D40300000C0000006662782F636F72652E786D6CC553D16E823014FD95A6AF4B694182CC941A83FA05FB810A9511A125A5257EFE2E82712ECEB8A7F100CD39F7F69E734AF9FADC366850B6
310
AF8DCE7018308C942E4C59EB2AC3DE1D498AD15A706B8CFB56869196ADCAF00863C12B6B7C374385D14E6907A836A59A41D9F7CA615434B0C8705F7CAA5606D23BA8E84F41278B93AC54100640439DE0BDB320004D43C63716C7C399D30917DCFBBA9CD9BA8469F5B156168B24CED3F7248AC8769F27244EB73B92EED8862C
310
B7F13E0C179B3C8F979C8ECD82BBBABDAA2BAC924E9558448CBD9330242CFA08E3154B5651FCC6D215639C8EE5774DBE2B5F6CF2B5768B68963BB5F5588420E442FC700B1139D4CB01F450C1E918227C2E09DF070D8140C84E1E9AAB8F1340832A9CB13130A5F1376A908D57309505ECF2A0DF179C4E9D30F5B239B87E3823
310
7A79C6F31DE1A8A5AEC08474B03C7837EAE4938639B44E5932B833D2C6B6B279CDC613877FA26EE21F4A2A4C63EC7F29A2F301D1F9F7A0E37D145F504B0304140006080800CC70623B9C113CC27E0000009D0000000B0000006662782F636E782E786D6C4DCCDF0A83201C86E15B91DFB94BFB330DD428C8FB886521330DA7
310
6397BF1A1DECE883878F57749FCDA1B7892F1BBC047A23808C7F84D9FA55424E0BE6803A256208E9EF06C84F9B91703228B1C690F78B66B34CD9A5439DF5CF0BFBF65E35BCA1B8D6A5C6F540381E886698B5741C695F9503EBA150A2F8958E3DC3EA0B504B0304140006080800CC70623B7DF2F77C2A010000120200003100
310
00006662782F41393633353835312D344632462D344230382D423046372D3739314545314133324237412F636F72652E786D6C8D51DB8EC22014FC15C2939B0D2DB4B45643319AE817EC0F6041255A68B86CFCFC856D4D76DF7CE190393373060EDB3DC707F856CE6B6B7A480A0C81328395DA5C7B18C3057510EC3873D686
310
3F34088C18550F330C39BB3A1BA7051AAC09CA84841A2BD5020AEF55806078A44B0FFD7053A328440C89E1EFC52486BBB8AA8214A99D789CF9E05200300FC927E4FB4D5B375D43103D5527440FB843077C5AA3F5861C8F645F5787F59E95B390B318B55CE45AA638FAA2957BD7248B390B7A7CC51F9C124149C82B8C378810
310
84AB2F42B7B8DD56F413775B8C5999E9FF4471926F8AA236A1AE96B8B3CC434E5839373893369E1FAF30EA395917409EB7F26AF8801C171837A4A6AC9C89E9F9C9B1A58BA30FD6A5EF5DDDCF894B9AD9B6A59C957943A9FCAE2FD5BC4DFE03504B0304140006080800CC70623BAD7543B64E01000033030000300000006662
310
782F41393633353835312D344632462D344230382D423046372D3739314545314133324237412F636E782E786D6CD593CD6EC32010845F0571AD6CE3D48AD20813A9873E410FBD12D82434182C7EAAE6EDBB2424CD25871E7B41D6EC30B3FA84F9E67BB2E40B4234DE8DB46F1925E094D7C6ED479AD3AE5951B2113C789FEE
310
6C943839C1488B4C05DF079FE72A69D8C96C13AAD6B8631503449F83828872B949AC57D26200B826A308D316B4064D6E46FCDA41C05550DC9E483A00797BFD207EFB092A45DE9514C1BBD22178396BD39D891265658C238DEA00936C654E5E433CB65A26D9F6EDB5EBC14EBF49A45CB856E66048291F6939A9A81BB5C89177
310
38143CA680F4AA299D66A042CEB3354A2684DC9D8D178FE0D9B8B41CAAD720F880EE7EF93C0C18769E099ECC04D5A102C8049A8A05632F4DDF376CF1DE0F6BB65C2F8627B65A33C6BB62177CEBBDAD973006829F89F22E814B54F4BC2BE347F8AA8F681390B50FA73F804400B5F542E796F19FF974E7F78DB802FE05E20750
310
4B0304140006080800CC70623BE75B7789680500003C100000340000006662782F41393633353835312D344632462D344230382D423046372D3739314545314133324237412F6F626A656374732E786D6CAD575B8F9B3818FD2B887D06C22499CB8AA1CA655245D5B455A356FB305264C061D8018C6C3393D95FBFC7600890
310
A4CD5EF210B0B1BFEBF98E3F7B1FF6596ABC522E1296DF9BAE3D320D9A872C4AF2F8DE2CE5CEBA358D0FBEC719939D65A691938CDE9B6ADAF4BD98B3B2D05311DD91329583D9D5FC0F438434A7A611A644887B5384CF34233629258BA878B12322891DEFF6B66BD70BFB62634E8AE781D082709A4B588AF91C528CDA28B73F
310
1C998EEF39EABBEFA97FBD6A7C7E9553F9D3D79FE442923C3C523610337627CB87ABE99D359D4CC6D6E4FACAB5E6ABF9D2726FC6A3C5F56271377BB88362213924694B38DD99FE47C48627A1E7D49F5A8BB5E1A74C0A599ED3B0F21F1E56366B89112D681E218F0915D0D6F17AD41FBA2A369DCF6335D62ABBD39779D5DDD1
310
11D4D8DE3CBB96B2E04FB8202E41051754A1AA8E8F76B4C6DFE810B580B1547F4B84911149794252234D024EF8BBE963A95AE27B3D310A9D5C215C7960FAEE415ED75694C6AFB17BCACA5D99A60A9AA65F217B0BFC53292ACB92BF283FAD0D3621576592CB5BED907C2FA8E9DF794E35E97BEA31BED21FEB401ABB94C44839
310
DCACBF0E1C5DA8DA5B2F4DFFD32AD86F543D9E565E7056502E157C00AD2671CD534549AB752FCA9CDA00677A313F04E51B22FF19E57B300579E3C97EB29F682D92935CEC18CF901B7B54FD8C51F362B56FC72FE0B3C1EAE335EDCCBF5AEC39ADB17DC238973F804BA5E6F6BFE7AF1FB32E523BE9F3BD571418E3631DCA4D48
310
5250CF639223210A9446CA30052EDF057BD35F8329C1ECD84552BF0DC8D18BE7BCE23BFE6BD960AB4A7DE79923A103BEBD80F911CBAA2C60DB19B01CF164A5583B772EE6D3FFA56666CBCDA74DC97724A48F9A58967497E489C4D979006FD7A05E227A1EBDD0F737C623387A9C844D3709995625106D157315F8B8392CD4E0
310
A0B9A720C4BE9829CEF37EA1E13111214D53925356365ADA634861B52519DD27A00AEB808EAF0628E6F435519D446F45CF2C9CF5214F0A15B2F6D06B79DA3EE3CBF7F56780D2F4E7EF73A0F5E5B02A38D07DC852C6B7C1FBB6664213E0C39E3EBA7FF4E1AD23EA2829407C85E586727488B751B2DB9502BC7B228A3FD68B6E
310
A65A22397E690AA8D158D7E404EC8CDA235CC3B7D1898680131CEC2CDF2638C65196279577750F15884AEE19F94199155B92B13297978469D4F8D358DF0AEF7631E28DC8F0D9F437D5D39A83B2231A1D52D543813A824EF8D44BCFF2FA6A31BD1E8DAD87F1CCB526B3879935BF59CDADD5C37479BB1CDD4CA7B3556B516589
310
EF352754B706114D9C885EC9131DE6EFEB43D99AFE2391C2F958179413D7CFEF6B1B6DB1E7600F00DE6E5C67454A339A4BA2E0FBA85ED26F045D454F463DBFCE484C2F90F2E5E3666003662ED8F755951A7D1BECD5B30B550B2785C8E7320B7292A4838DDA71BBC863ED7613CAF659337A3354231D4FF4A182A54904C2898C
310
98B28C4AD0CE056CCF332A80986E571EE9DBC305BB5FEB7E509220A58D25CF042D712A806AC0AD0C657FDEF80D2D9CEAA2EE4D1C76F60BFE74219A06527D6F82DF6412526107381E55E353090704D085B52408A8913C4ED159D79BDA71BB4BC506F4831350EB6F975CD22D69BF7AC49B91A2C0A9DDA3D5CA36AD20FC478E37
310
E61844E2352865EBCB61A275A65283CAAA9DD27703B4102F5AF51EF5F573B75CBB5AD38BC845F7A49F82A0966A49C2E3EA5EA0ECD326CD965F1DB402C6FA8B51A4658C5C5E2EC9E214602E55810345408596591009A82E7E7FFACA19EEA299B14A0081A705CB3296EBC14CDF658DCD336EA6D1136881AAEB87B81AB9EE53D5
310
F5EB8BC8362082DA24122F98680A4E7930C01A0079749CEA14382A0783E5EBA5A10F8C098456A03D6A4AEB6BB881E2513747552A5DB22C7EDAF83BD5528081A365F7FF06504B0304140006080000CC70623B000000000000000000000000350000006662782F41393633353835312D344632462D344230382D423046372D37
310
39314545314133324237412F76657274696365732E62696E504B0304140006080800CC70623BF270F1330600000004000000360000006662782F41393633353835312D344632462D344230382D423046372D3739314545314133324237412F747269616E676C65732E62696E636660600000504B0304140006080000CC7062
310
3B000000000000000000000000370000006662782F41393633353835312D344632462D344230382D423046372D3739314545314133324237412F617474726962757465732E62696E504B0304140006080800CC70623B08DA0BD19000000041010000360000006662782F41393633353835312D344632462D344230382D4230
310
46372D3739314545314133324237412F6469726563746F72792E786D6C858F410AC3201045AF22B36F53E9A60B35CBEEBAE80D244E44489C6234F4F835464A48035D0DF398FF9F8AF63D0E6CC63039F212F8F9020C7D47C6792B21C5FE7403D62A1188E2E60C98D7234A5830286103A55745067B9D86B8A3CF9C7F90C11DE6
310
07FB144396D7B6A82D282E9A152AD114D5EF2CB866EEE831B8EEA07A7BB5A8D7D61A2BAAEB7FD5F70921FF497D00504B0304140006080800CC70623BEDD1DC58FD000000A00100003B0000006662782F41393633353835312D344632462D344230382D423046372D3739314545314133324237412F7265736F75726365732F
310
636F72652E786D6C8D504B6E833010BD0A9A6D65B00922041947112427E8052C33A156828DFCA97AFC9A40A576D7CDCCE87D344F8F9FBFE667F689CE6B6B3A6039850C8DB2A336530731DC4903D95970676DF82583CCC8193B5861107C72362E3BA4AC096842428D1D7107A5F7182053CF7474E0D507CE32973124857FE48B
310
540F3961CEF244279DE03EB81420DB9EAC1384436FA353E879B1B182C7A8C75DA3C7F453DF353A1075D537A7BA6464B8F535A99AE14A9A2BBD90E350DD183B5CFABE3AF262350B1EF4FC9351399401471025A527C218A1E53BAB5A5AB765F5469B96525EACF23FA6B88CFF34456DC2A1DCE36E360F82A5202F42F062ED2BAD
310
579969AFDD8A6F504B010214000A0000080000CC70623B3DEE336E79000000790000001B00000000000000000000000000000000006175746F6465736B2D64657369676E2D7061636B6167652E786D6C504B01021400140006080800CC70623BD486FD9CA0000000F40000001300000000000000000000000000B20000005B
310
436F6E74656E745F54797065735D2E786D6C504B01021400140006080800CC70623B853B8169EB0000007C010000080000000000000000000000000083010000636F72652E786D6C504B01021400140006080800CC70623B55019EA25F0000007C000000070000000000000000000000000094020000636E782E786D6C504B
310
01021400140006080800CC70623BDBABAAF470010000D40300000C00000000000000000000000000180300006662782F636F72652E786D6C504B01021400140006080800CC70623B9C113CC27E0000009D0000000B00000000000000000000000000B20400006662782F636E782E786D6C504B01021400140006080800CC70
310
623B7DF2F77C2A010000120200003100000000000000000000000000590500006662782F41393633353835312D344632462D344230382D423046372D3739314545314133324237412F636F72652E786D6C504B01021400140006080800CC70623BAD7543B64E010000330300003000000000000000000000000000D2060000
310
6662782F41393633353835312D344632462D344230382D423046372D3739314545314133324237412F636E782E786D6C504B01021400140006080800CC70623BE75B7789680500003C10000034000000000000000000000000006E0800006662782F41393633353835312D344632462D344230382D423046372D3739314545
310
314133324237412F6F626A656374732E786D6C504B01021400140006080000CC70623B0000000000000000000000003500000000000000000000000000280E00006662782F41393633353835312D344632462D344230382D423046372D3739314545314133324237412F76657274696365732E62696E504B01021400140006
310
080800CC70623BF270F133060000000400000036000000000000000000000000007B0E00006662782F41393633353835312D344632462D344230382D423046372D3739314545314133324237412F747269616E676C65732E62696E504B01021400140006080000CC70623B0000000000000000000000003700000000000000
310
000000000000D50E00006662782F41393633353835312D344632462D344230382D423046372D3739314545314133324237412F617474726962757465732E62696E504B01021400140006080800CC70623B08DA0BD1900000004101000036000000000000000000000000002A0F00006662782F41393633353835312D344632
310
462D344230382D423046372D3739314545314133324237412F6469726563746F72792E786D6C504B01021400140006080800CC70623BEDD1DC58FD000000A00100003B000000000000000000000000000E1000006662782F41393633353835312D344632462D344230382D423046372D3739314545314133324237412F7265
310
736F75726365732F636F72652E786D6C504B0506000000000E000E0080040000641100000000
  0
XRECORD
  5
2BB67
102
{ACAD_REACTORS
330
1F7
102
}
330
1F7
100
AcDbXrecord
280
     1
102
MATERIAL
148
0.0
149
0.0
149
0.0
 93
        0
 94
       63
282
     0
 72
     1
 77
     1
171
     1
175
     1
179
     1
273
     0
  0
XRECORD
  5
1F8
102
{ACAD_REACTORS
330
1F7
102
}
330
1F7
100
AcDbXrecord
280
     1
 70
     1
 90
429727718
  1
30362254-06B7-45E0-A893-8CFA70E3D6BC
310
504B03040A0000080000CC70623B3DEE336E79000000790000001B0000006175746F6465736B2D64657369676E2D7061636B6167652E786D6C3C3F786D6C2076657273696F6E3D22312E302220656E636F64696E673D227574662D3822203F3E3C666F726D6174733E3C666F726D61743E687474703A2F2F736368656D612E
310
6175746F6465736B2E636F6D2F64657369676E2D7061636B6167652F323030393C2F666F726D61743E3C2F666F726D6174733E504B0304140006080800CC70623BD486FD9CA0000000F4000000130000005B436F6E74656E745F54797065735D2E786D6C7D8EC10E82300C865F65E91D8A1E8C310C0EEA1BF002731658846E
310
D98AC1B77784ABF1D8FE5FBFBF75BBCE937A534CCEB38643598122B6FEE978D0B0485F9C41B54DDD7D022595594E1A469170414C76A4D9A4D207E29CF43ECE46F218070CC6BECC4078ACAA135ACF422C856C0E68EA1BF5669944DDD7BCDE7B1F8E415D77AECB980613C2E4AC91FC167A2B244592486606FC29C8FD7F045B9A
310
EF7053A7E60B504B0304140006080800CC70623B1EC5D7A3EB0000007C01000008000000636F72652E786D6C8D90416EC3201045AF82665B6103C6756C6122AB4D4ED00B204C5C94182C03558F5F9C3852BBEB6A467FFE9B197D71FC9E6FE8CBACC17AD7032D0820E3B41FAD9B7A48F1820F808E52ACDEC75F36404ECDA687
310
4D0629A6D5A76597B477D1B89855E747B38B2A041301E95B6E7A08FAD3CCAA50296647B8168BD2573599823EBB0CA76447F43862C7BCCF5EAC59410E4DDD9C7973C2755553CCCFA4C603E3040F1565ED3B1FDE4E432BCA0D9622DAF9795FAF464533826484B498524CD807E51D79ED187F21878E10516EF63F505AC67F42C9
310
BA58B1FDDD071640D2FCC87D2045B96591CB3DA85CB7DCE40F504B0304140006080800CC70623B55019EA25F0000007C00000007000000636E782E786D6C4DCB3B0E80201045D1AD90E915ED2CF8AC45050C11660C8261F98AB1B07AC9C97D42D718D865D3E909258CFD00CCE24AC6E326A164D74DC0B4128928FF32603847
310
2BA13128B1252AC747C6BAB984FC68F0B87FE8960A5C09FE86CFB69FBA01504B0304140006080800CC70623B8C9102E971010000D40300000C0000006662782F636F72652E786D6CC5535B6E833010BC8AE5DF0A6C08340F1947A84D4ED00B38C6A128602363A31CBFCB234A53A551FA553EC09AD9F5CE8C31DB9E9B1AF5CA
310
7695D1198E428A91D2D214952E33ECDD315861B4E5CC1AE3BE9561A445A3323CC098B3D21ADFCE9034DA29ED00D5A6503328BA4E398C640D8B0C77F253352214DE4145770A5B214FA2546114020D759C75CE8200340D19DE981F0F6746269C33EFAB6266AB02A655C74A59CCF365BADC27CB5D902ED22848F6340DF238A141
310
BE88E2F57B92BFEDF23523433367AE6A2EEAA455C2A902F398D2751045018D3FA264435F3771F242571B4A1919CA6F9A7C5B3CD9E42BED16F12C776AEB308F40C848FC700B1139D4891EF410CEC810227CC6846F8386402064270EF5C5C709A05E49676C024C61FC95EA45ED154CA5211D1FF4FB8291A913A68E9B83EBBB33
310
E2A7673CDE118E5AE8124C0807CB8377834E366998436B950D7A7746DAD846D4CFD978E0F04FD455FC5D49D2D4C6FE9722321F10997F0F32DC47FE05504B0304140006080800CC70623BFFEA85907E0000009D0000000B0000006662782F636E782E786D6C4DCCD10A83201886E15B91FFDC95D95A811AB6F23E625948A6C3
310
E9D8E5AF46073BFAE0E1E365ED67B3E8ADC3CB78C7815C7240DA3DFC64DCC221C519D7805AC182F7F1EF06C88D9BE6703008B6049F9E274D7A1E938DBB5AE3D6131B2589BA0D3D965551E0B2EA732C9B9A624AAEB41E3A557677029960D9AFB4EF11165F504B0304140006080800CC70623B4FEEA4082C0100001202000031
310
0000006662782F39464131463745442D413632322D343644302D413938332D3331353338454246344243312F636F72652E786D6C8D515B6EC32010BC0AE2AB55850DD871ED0813254D72825EC00192A2C460F1A872FC42ED48ED5F7E00CDCECCCEB26C731F6FE05B39AFADE921293004CA082BB5B9F43086336A21D870E6AC
310
0D7F68109861543DCC30E4ECE26C9C164858139409093556AA051CBC570102714B8F1E7AF1A5C6A11862480C7F2DA6415C878B2A4891CA89C7990F2E050073937C42DE1DB7E4F87ED8A36D4329AA9B3D46DBAEAD504556557BD81DEBDD0761E52CE42C462D17B996298E3E6BE59E35C962CE821E1FF18553435012728A7187
310
0841987E927A8D9B35ADDF70BBC6989599FE4F1427F9A4286A132ABAC49D651EF234CD5CE04CDA78BA3DC2A8FB645D00B9DF8B57E215725C60BCA2A463E54C4CE327C7A65E1C7DB02E7DEFCBF594B864C5CA6CDBD49C957943E9FA5D5FBAF336F90F504B0304140006080800CC70623BAD7543B64E01000033030000300000
310
006662782F39464131463745442D413632322D343644302D413938332D3331353338454246344243312F636E782E786D6CD593CD6EC32010845F0571AD6CE3D48AD20813A9873E410FBD12D82434182C7EAAE6EDBB2424CD25871E7B41D6EC30B3FA84F9E67BB2E40B4234DE8DB46F1925E094D7C6ED479AD3AE5951B2113C
310
789FEE6C943839C1488B4C05DF079FE72A69D8C96C13AAD6B8631503449F83828872B949AC57D26200B826A308D316B4064D6E46FCDA41C05550DC9E483A00797BFD207EFB092A45DE9514C1BBD22178396BD39D891265658C238DEA00936C654E5E433CB65A26D9F6EDB5EBC14EBF49A45CB856E66048291F6939A9A81BB5
310
C8917738143CA680F4AA299D66A042CEB3354A2684DC9D8D178FE0D9B8B41CAAD720F880EE7EF93C0C18769E099ECC04D5A102C8049A8A05632F4DDF376CF1DE0F6BB65C2F8627B65A33C6BB62177CEBBDAD973006829F89F22E814B54F4BC2BE347F8AA8F681390B50FA73F804400B5F542E796F19FF974E7F78DB802FE05
310
E207504B0304140006080800CC70623B16AB87BA640500003C100000340000006662782F39464131463745442D413632322D343644302D413938332D3331353338454246344243312F6F626A656374732E786D6CAD575B6FA33818FD2B887DE6924B3BED8A326A92B68A663B534DD4D13E548A0C38942D60649B369D5FBFC7
310
600890A493BDE42160637FD7F31D7FF63E6FB3D478A55C242CBF3247B66B1A340F5994E4F19559CA8D75611A9F7D8F33263BCB4C232719BD32D5B4E97B316765A1A722BA21652A07B3B7B33F0D11D29C9A46981221AE4C113ED38CD8A4942CA2E2C58E882476BCD9DA23BB5ED8171B73523C0F841684D35CC252CCE79062D4
310
468DFA43D7747CCF51DF7D4FFDEB5593E3AB9CCA9FBEFE241792E4E19EB28198C968BAB8199F5D5A67D3E9C49A9E8F47D6EC76B6B0469F26EEFC7C3EBFBCBEB98462213924694B38DD98FE1D62C393D073EA4FADC5DAF04326852CCF6958F90F0F2B9BB5C48816348F90C7840A68EB78EDF68723159BCEE7891A6B95DDE9D3
310
BCEAEEE8086A6C6F9E5D4B59F0175C10A7A0820BAA5055C7473B5AE3CFDD452D602CD5DF12616444529E90D448938013FE6EFA58AA96F85E4F8C42275708571E98FE6827AF6B2B4AE3D7D83D64E5A64C53054DD3AF90BD06FEA9149565C94FCA0F6B834DC85599E4F2423B24DF0B6AFA979E534DFA9E7A4CC6FA631D486393
310
921829879BF5D781A373557BCB85E97FB90DB62B558F8795179C15944B051F40AB495CF35451D26A4727654E6D8033BD98EF82F21D91FF8AF2DD9982BCF1643BDD4EB516C9492E368C67C88DED563FC36D5EACF66DFF057C3658BDBFA69DF9578B3DA735B64F18C7F20770A9D45CFCF7FCF563D6456A277DBEF78A02637CA2
310
43B90A490AEAB94F72244481D24819A6C0E59B606BFA4B3025981DBB48EAB701D97BF19C577CC77F2D1B6C55A9EF3C732474C0B727303F625995056C3B02963D9EAC146BE78EC5FCEC7FA999EBC5EACBAAE41B12D27B4D2C0BBA49F244E2ECDC81B76B502F113D8F5EE8FB1BE3111CDD4FC2AA9B844CAB1288B68AB90A7CDC
310
1C166AB0D3DC5310625FCC14E779BFD0709F8890A629C9292B1B2DED31A4B0DA928CEE135085754027E3018A397D4D5427D15BD1330B677DC8934285AC3DF45A9EB68FF8F2B8FC0A509AFEECFD0FF2DE25CC6047F7214B195F07EFEB9A094D800F7BFAE8FED187B78EA8A3A400F115961BCAD1215E47C966530AF0EE8128FE
310
58CEBB996A8964FFA529A046635D9353B0336A8F700DDF46271A024E70B0B37C9DE01847591E54DED53D54202AB947E4076556AC49C6CA5C9E1226B7F1A7B1BE15DEED62C41B91E1B3E9AFAAA735036547343A925075041DF0A9979E893B391F8FCFA6967B3EFB644DCF6E5CEBFAE272625DCC6FAF3FB93793C5F90CE1EF57
310
407342756B10D1C489E8953CD1617E5CEECAD6F4EF8914CE5D5D504E5C3F1F9736DA62CFC11E00BCDDB8CC8A9466349744C1F75EBDA4DF09BA8A9E8C7A7E9991989E20E5DBDD6A6003664ED8F7A04A8DBE0DF6EAD9B9AA858342E47399053949D2C146EDB85DE4B176BB0965FBAC19BD19AA918E27FA50C1D22402E144464C
310
59462568E704B6E71915404CB72B8FF4EDE184DDAF753F284990D2C6926782963815403548A70C657FDEF80D2D9CEAA2AE4C1C76F60BFE74219A06527D6582DF6412526107381E55E353090704D085B52408D0933C4ED159D79BDA71BB4BC506F4831350EB6F979CD22D69BF7AC49B91A2C0A9DDA3D5CA36AD20FC478E37E6
310
1844E2352865EBCB6EA275A652E3836BE04EFB400BF1A2556F515F1FBB35B2AB35BD889C744FFA1004B5544B121E57F70215746DD2F5E2C1412B602CBF19455AC6C8E5E9922C4E01E65215385004546899059180EAFCF7A707CE7017CD8CDB0410789AB32C63B91E5CEBBBACB17AC6CD347A022D5075FD106377347AAABA7E
310
7D11590744509B44E205134DC1290F06580320F78E537D3D73540E06CB970B431F185308AD40BBD794D6D77003C5A36E8EAA54BA64597CD8F83BD552A080A365F7FF06504B0304140006080000CC70623B000000000000000000000000350000006662782F39464131463745442D413632322D343644302D413938332D3331
310
353338454246344243312F76657274696365732E62696E504B0304140006080800CC70623BF270F1330600000004000000360000006662782F39464131463745442D413632322D343644302D413938332D3331353338454246344243312F747269616E676C65732E62696E636660600000504B0304140006080000CC70623B
310
000000000000000000000000370000006662782F39464131463745442D413632322D343644302D413938332D3331353338454246344243312F617474726962757465732E62696E504B0304140006080800CC70623B08DA0BD19000000041010000360000006662782F39464131463745442D413632322D343644302D413938
310
332D3331353338454246344243312F6469726563746F72792E786D6C858F410AC3201045AF22B36F53E9A60B35CBEEBAE80D244E44489C6234F4F835464A48035D0DF398FF9F8AF63D0E6CC63039F212F8F9020C7D47C6792B21C5FE7403D62A1188E2E60C98D7234A5830286103A55745067B9D86B8A3CF9C7F90C11DE607
310
FB144396D7B6A82D282E9A152AD114D5EF2CB866EEE831B8EEA07A7BB5A8D7D61A2BAAEB7FD5F70921FF497D00504B0304140006080800CC70623B0D6EF93BFE000000A00100003B0000006662782F39464131463745442D413632322D343644302D413938332D3331353338454246344243312F7265736F75726365732F63
310
6F72652E786D6C8D50596E833010BD0A9ADFCA60B334011947A8694ED00B586642AC041B79A97AFC9A40A5F6AF3F33A3B7689E1E3F7DCD8FEC139DD7D6F4C0720A191A65476DA61E62B892236427C19DB5E1970C322367EC618541F0C9D9B8EC90B226A009093576C41D94DE63804C3DD2D18357379C652E63480A7FCF17A9
310
EE72C29CE5894E3AC17D702940B63D59270887DE46A7D0F36263058F518FBB468FE9A7BE6A7420864373B8D4873369AA8691FA421B3294352543C5CAF65C0F6FEF43CB8BD52C78D0F34F46E550061C419494B6843142CB0F5677F4B52BEB177AEC28E5C52AFF638ACBF84F53D42654E51E77B379102C05791282176B5F693D
310
CB4C7BED567C03504B010214000A0000080000CC70623B3DEE336E79000000790000001B00000000000000000000000000000000006175746F6465736B2D64657369676E2D7061636B6167652E786D6C504B01021400140006080800CC70623BD486FD9CA0000000F40000001300000000000000000000000000B20000005B
310
436F6E74656E745F54797065735D2E786D6C504B01021400140006080800CC70623B1EC5D7A3EB0000007C010000080000000000000000000000000083010000636F72652E786D6C504B01021400140006080800CC70623B55019EA25F0000007C000000070000000000000000000000000094020000636E782E786D6C504B
310
01021400140006080800CC70623B8C9102E971010000D40300000C00000000000000000000000000180300006662782F636F72652E786D6C504B01021400140006080800CC70623BFFEA85907E0000009D0000000B00000000000000000000000000B30400006662782F636E782E786D6C504B01021400140006080800CC70
310
623B4FEEA4082C0100001202000031000000000000000000000000005A0500006662782F39464131463745442D413632322D343644302D413938332D3331353338454246344243312F636F72652E786D6C504B01021400140006080800CC70623BAD7543B64E010000330300003000000000000000000000000000D5060000
310
6662782F39464131463745442D413632322D343644302D413938332D3331353338454246344243312F636E782E786D6C504B01021400140006080800CC70623B16AB87BA640500003C1000003400000000000000000000000000710800006662782F39464131463745442D413632322D343644302D413938332D3331353338
310
454246344243312F6F626A656374732E786D6C504B01021400140006080000CC70623B0000000000000000000000003500000000000000000000000000270E00006662782F39464131463745442D413632322D343644302D413938332D3331353338454246344243312F76657274696365732E62696E504B01021400140006
310
080800CC70623BF270F133060000000400000036000000000000000000000000007A0E00006662782F39464131463745442D413632322D343644302D413938332D3331353338454246344243312F747269616E676C65732E62696E504B01021400140006080000CC70623B0000000000000000000000003700000000000000
310
000000000000D40E00006662782F39464131463745442D413632322D343644302D413938332D3331353338454246344243312F617474726962757465732E62696E504B01021400140006080800CC70623B08DA0BD190000000410100003600000000000000000000000000290F00006662782F39464131463745442D413632
310
322D343644302D413938332D3331353338454246344243312F6469726563746F72792E786D6C504B01021400140006080800CC70623B0D6EF93BFE000000A00100003B000000000000000000000000000D1000006662782F39464131463745442D413632322D343644302D413938332D3331353338454246344243312F7265
310
736F75726365732F636F72652E786D6C504B0506000000000E000E0080040000641100000000
  0
XRECORD
  5
2BB69
102
{ACAD_REACTORS
330
173
102
}
330
173
100
AcDbXrecord
280
     1
102
MATERIAL
148
0.0
149
0.0
149
0.0
 93
        0
 94
       63
282
     0
 72
     1
 77
     1
171
     1
175
     1
179
     1
273
     0
  0
XRECORD
  5
175
102
{ACAD_REACTORS
330
173
102
}
330
173
100
AcDbXrecord
280
     1
270
     1
271
     1
  0
XRECORD
  5
174
102
{ACAD_REACTORS
330
173
102
}
330
173
100
AcDbXrecord
280
     1
270
     1
271
     1
  0
XRECORD
  5
1FB
102
{ACAD_REACTORS
330
173
102
}
330
173
100
AcDbXrecord
280
     1
 70
     0
 90
1673772943
  1
ECE7A1D2-D628-4531-984C-D00F80459256
310
504B03040A0000080000CC70623B3DEE336E79000000790000001B0000006175746F6465736B2D64657369676E2D7061636B6167652E786D6C3C3F786D6C2076657273696F6E3D22312E302220656E636F64696E673D227574662D3822203F3E3C666F726D6174733E3C666F726D61743E687474703A2F2F736368656D612E
310
6175746F6465736B2E636F6D2F64657369676E2D7061636B6167652F323030393C2F666F726D61743E3C2F666F726D6174733E504B0304140006080800CC70623BD486FD9CA0000000F4000000130000005B436F6E74656E745F54797065735D2E786D6C7D8EC10E82300C865F65E91D8A1E8C310C0EEA1BF002731658846E
310
D98AC1B77784ABF1D8FE5FBFBF75BBCE937A534CCEB38643598122B6FEE978D0B0485F9C41B54DDD7D022595594E1A469170414C76A4D9A4D207E29CF43ECE46F218070CC6BECC4078ACAA135ACF422C856C0E68EA1BF5669944DDD7BCDE7B1F8E415D77AECB980613C2E4AC91FC167A2B244592486606FC29C8FD7F045B9A
310
EF7053A7E60B504B0304140006080800CC70623BD9DDAED0EC0000007C01000008000000636F72652E786D6C8D90416EC3201045AF82665B61836D9CD8C2444DD39CA01740405C94182C03558F5F9C3852BBEB6A467FFE9B197D7EF89E6EE8CB2CC17A37002D0820E394D7D68D03A478C17B4007C117EFE32F1B20272733C0
310
2A83E0E3E2D3BC49CABB685CCCAAF3DA6CA20CC14440EA969B0182FA34932C648AD911AEC52CD5558EA6A0CF2EC329598D1E47ACCEFBECC59A050463A7EA5833865FEBDD0E37353BE3EE8DBDE3F6786A48D375FBF6CC78B9C282473B3DEFABC5C86834888A900E538A49F5419B9EB47DD5BC907D4F082F57FB1F28CDFA9F50
310
B22ED6D5F6EE030B20687EE43E10BC5CB3C8E51E54AE6B6EE207504B0304140006080800CC70623B55019EA25F0000007C00000007000000636E782E786D6C4DCB3B0E80201045D1AD90E915ED2CF8AC45050C11660C8261F98AB1B07AC9C97D42D718D865D3E909258CFD00CCE24AC6E326A164D74DC0B4128928FF326038
310
472BA13128B1252AC747C6BAB984FC68F0B87FE8960A5C09FE86CFB69FBA01504B0304140006080800CC70623BA24EB22D72010000D40300000C0000006662782F636F72652E786D6CC5535B6E833010BC8AE5DF0A6C5E49888CA3A6694ED00B38E05014B091B1518EDFE511A5A9D228FD2A1F60CDEC7A67C6986DCE4D8D7A
310
69BA4AAB0C073EC548AA5C17952A33ECECD15B61B4E1CC686DBF9561A44423333CC098B3D268D7CE50AE9595CA02AA74216750749DB418E5352C32DCE59FB211BE70162ABA93DF8AFC244AE9073ED050C759670D0840D390E18DF9F1706664C23973AE2A66B62A605A75ACA4C13C4976E1364A12EF355A2EBD384AF65EFA96
310
BC7B8BED2EA6719AAE16FB8491A199335B351775B991C2CA02F390D2D40B028F861F41BCA68B7518BFD0D59A524686F29B26D7164F36B94AD9289CE54E6D1DE6010819891F6E21228B3AD1831EC219194284CF98F06DD01008846CC5A1BEF83801D4CBDC6A1303536877A57A513B0953A94FC707FDBE6064EA84A9E3E6E0FA
310
EE8CF0E9198F7784A316AA0413C2C2F2E0ECA0934D1AE6D05A69BCDE9E91D2A611F573361E38FC1375157F5752AE6B6DFE4B11990F88CCBF0719EE23FF02504B0304140006080800CC70623B408A7D3B7C0000009D0000000B0000006662782F636E782E786D6C4DCCD10A83201886E15B91FFDC552A92A0064DBC8F581632
310
D3703A76F9ABD1C18E3E78F878E5F0D9027ABBFCF2292AE86E2D20171F69F6715550CB827B40839639A5F2770314A7CD293819B45C73AAFB45B35BA61ACAA1C1C7E7855C58C15BC331339661262CC762340413D68D77DA5B42298546CBE6573AF60CEB2F504B0304140006080800CC70623B449FB9BD290100001202000031
310
0000006662782F36394639363044362D344446342D343946362D394244322D3234314243333846323333332F636F72652E786D6C8D515B6EC32010BC0AE22B55850D98B871848994463E412FE002495162B07854397EA176A4F62F3F2C9A9D991D587EB84F37F0AD7D30CEF6905418026DA553C65E7A98E219ED203808EE9D
310
8B7F6810D871D23D2C3014FCE25D9A57483A1BB58D19B54EE9151C43D0110279CB971E06F9A5A7B11A53CC8C70ADE6515EC78BAE4895DB992778883E0700CB907242D17643D7E2538BD869608875438BBAE38922CAC8F1BDD90DB4691A5E2F42C153326A951B95E398B3D1FE599322163C9AE9115F7A3D46ADA0A018778810
310
84E907617BDCEE297BC5BB3DC6BC2EF47FA234AB2745C9D8D8D035EE220B50105E2F0DC1954B9FB747187D9F9D8FA0CCDB042D5FA0C015C65B42DF78BD10F3F3B363CB56C7109DCFDFBBB97E662ED92EB62D13BC2E1BCAE5777DB9966D8A1F504B0304140006080800CC70623BAD7543B64E01000033030000300000006662
310
782F36394639363044362D344446342D343946362D394244322D3234314243333846323333332F636E782E786D6CD593CD6EC32010845F0571AD6CE3D48AD20813A9873E410FBD12D82434182C7EAAE6EDBB2424CD25871E7B41D6EC30B3FA84F9E67BB2E40B4234DE8DB46F1925E094D7C6ED479AD3AE5951B2113C789FEE
310
6C943839C1488B4C05DF079FE72A69D8C96C13AAD6B8631503449F83828872B949AC57D26200B826A308D316B4064D6E46FCDA41C05550DC9E483A00797BFD207EFB092A45DE9514C1BBD22178396BD39D891265658C238DEA00936C654E5E433CB65A26D9F6EDB5EBC14EBF49A45CB856E66048291F6939A9A81BB5C89177
310
38143CA680F4AA299D66A042CEB3354A2684DC9D8D178FE0D9B8B41CAAD720F880EE7EF93C0C18769E099ECC04D5A102C8049A8A05632F4DDF376CF1DE0F6BB65C2F8627B65A33C6BB62177CEBBDAD973006829F89F22E814B54F4BC2BE347F8AA8F681390B50FA73F804400B5F542E796F19FF974E7F78DB802FE05E20750
310
4B0304140006080800CC70623B8D05915C650500003B100000340000006662782F36394639363044362D344446342D343946362D394244322D3234314243333846323333332F6F626A656374732E786D6CAD575B6FA33814FE2B887D06429276DA1565D4266D158D3A339A6846FB502932E050B66023DB74D2FDF5FB190C01
310
9276B2973C046C8ECFF53B17071F77456EBD502133CEAE6CDF9DD81665314F32965ED995DA3A17B6F5310C04E7AA47665B8C14F4CAD6DB7618A48257A5D94AE89654B91AEDDEDDFC61C998326A5B714EA4BCB265FC440BE2924AF184CA6737218AB8E976E7FA6E4338649B0A523E8D98964450A6A029F619B8588D52FE7039
310
B1BD30F0F4F730D0FF866AF6369557DB33949F31A9088B0F848DD8CCFCF9F2767A76E99CCDE733677E3EF59D9BBB9BA5E37F984D16E78BC5E5F5ED25044B25C0C96822E8D60EEFE11B91C581D77CEA34368A1F5329E68CD1B8B61F16D63A1B8E092D294B10C78C4A48EB593D192E7DED9BDEE7995E1B91FDEDD3ACEA9FE831
310
6A756F9F7D4D79F4274C90A7A04248AA51D5F8C718DAE06FB2F75AC4796EBE65D22A88A22223B995679120E2D50E41AA49C260C046A35368846B0BECD0DFF3EBEB8AD4F835768F69B9ADF25C43D30E6B646F807FAA64AD59F61715C7A54127C4AACA98BA3006A9D792DAE165E0D59B61A01FB3A9F9D838D2DAE62445C86166
310
F37564E842E7DE6A69879FEEA2DD5AE7E371E1A5E025154AC307D06A03D73EB5978C58FFA4C8E9033066E0F3BD53BEC1F39F91BE7B55103791EDE6BBB991A2046172CB4581D8B893FA674DDA17A77B3B7C413D1B511FD2743BFF8A38F03A658705E3ADF8015C3A3417FF3D7E439FF591DA0B5F18BC20C1B8981957AE6392A3
310
F43C640C01D1A0B4728E2DD4F26DB4B3C3152A252A3B4E913CEC1C72F012782FF88EFF8637AA552DBEF76408E8A8DE9E50F9E1CB3A2DA0DB1B6039A893B56063DC5B3E3FFB5F72E67AB9FEB4AEC496C4F4C1149625DD662C53E89D7BF0F6151A046260D1337DFDC94502430F83B0EE07A130A224BCAD7DAE1D9FB6CD422FF6
310
920702629C4BB9AE79C12F243C6432A6794E18E5552BA56B431AAB5D91317302B2B071E86C3A42B1A02F999E24061403B5D0EB639195DA655DD3EBEAB4FB862DDF579F014AD0E73C22F99E28DA57FB98E75C6CA2D74D53086D600F4786E0FE3144B771A8A7B900F03594DB8A633CBC49B2EDB69228BB479CF863B5E807AAAB
310
23872F6DFEB4129B949CA33823F58830E86D65621E10047D9DB34D862E8EAC3C2ABC2F7B2C40D67CDFE01F5545B92105AF983AC54D93D69E56FB8E797F88913F898A9FEC705D3F9D1B54EC8426FB500D40A03BD0119B06E1B95DDC7EB8F6975367793EBD70E66733DFB9BC982F9CE564727731999F5D4ECFCE3B8D6A4DC2A0
310
6D50FD148437D110834A64C6CDDF57FBACB5C307A2A477DFE4939736CFEF2B175371E0E10CF0DD1D5C15654E0BCA14D1E87DD02FF93782A162C0A3D95F1524A52770F972BF1EE9809D13CE7DD599467F8ECE9ADD85CE85A34CD45355448C64F9E8A031DC2D596ACC6E5DD93D9B82DE2EF5CAF81363A8E47996A0DE24564A79
310
4115AACE09C55E14540231FDA13C319787134EBF34E3A022514E5B4D9E0826E25C02D5805B15ABE1BEF51B26383D445DD9E875EE33FE4C22DA16427D65A3BCA92CA6D28DD01DF5DC53330704308475351050232CCD31583787BA75774AFB06E5070DD0C8EF484E19968C5D83BA5B90B244D31E54D55A372320FE4786B7EA58
310
44E135AA5467CB7EA333A61683CC6A8C3257034C10CF46F40EF9F5BE59BE5BD30C3C72D235E95D10345C1D45445A5F0BB47E46A5EBE5570F9380B5FA629579952296A773720405982B9DE04011506178964401AA8BDF1FBF0A8EAB6861DD6580C0E38217056766716DAEB2D6FA0917D3E4116581EADB879C4E7CFFB11EFACD
310
3D641311495D92C8676CB409A72D18610D803CE8A626049E8EC1887CB5B44CC39883690DDA8399B4B9855B481E7D71D4A9D22F96E5BB73BF5793020C02137BF837504B0304140006080000CC70623B000000000000000000000000350000006662782F36394639363044362D344446342D343946362D394244322D32343142
310
43333846323333332F76657274696365732E62696E504B0304140006080800CC70623BF270F1330600000004000000360000006662782F36394639363044362D344446342D343946362D394244322D3234314243333846323333332F747269616E676C65732E62696E636660600000504B0304140006080000CC70623B0000
310
00000000000000000000370000006662782F36394639363044362D344446342D343946362D394244322D3234314243333846323333332F617474726962757465732E62696E504B0304140006080800CC70623B08DA0BD19000000041010000360000006662782F36394639363044362D344446342D343946362D394244322D
310
3234314243333846323333332F6469726563746F72792E786D6C858F410AC3201045AF22B36F53E9A60B35CBEEBAE80D244E44489C6234F4F835464A48035D0DF398FF9F8AF63D0E6CC63039F212F8F9020C7D47C6792B21C5FE7403D62A1188E2E60C98D7234A5830286103A55745067B9D86B8A3CF9C7F90C11DE607FB14
310
4396D7B6A82D282E9A152AD114D5EF2CB866EEE831B8EEA07A7BB5A8D7D61A2BAAEB7FD5F70921FF497D00504B0304140006080800CC70623BCA768048FE000000A00100003B0000006662782F36394639363044362D344446342D343946362D394244322D3234314243333846323333332F7265736F75726365732F636F72
310
652E786D6C8D50596E833010BD0A9ADFCA60D600328E9AA639412F609909B1126CE4A5EAF16B0295DABFFECC8CDEA2797AECF8353F924FB44E193D409E5248504B332A3D0D10FC95B4901C39B3C6F85F3248B49871801506CE266BC2B243D2688FDA47549B11775038871E12F988C7004EDE7016A9083E2ADC3D5D84BC8B09
310
D33C8D74D471E6BC8D0192EDC93A815B742658898E651BCB59086ADC356A8C3FD555A1055ED7E7E254D615792D0F075295F585746FF53B694EE78A565DD736979A65AB9933AFE69F8CD2A2F038022F28ED489E135A7CE4554F9BBEA85E68DB53CAB255FEC71496F19FA6A0B42F8B3DEE6673C0F318E4497096AD7DC5F52C33
310
EEB55BFE0D504B010214000A0000080000CC70623B3DEE336E79000000790000001B00000000000000000000000000000000006175746F6465736B2D64657369676E2D7061636B6167652E786D6C504B01021400140006080800CC70623BD486FD9CA0000000F40000001300000000000000000000000000B20000005B436F
310
6E74656E745F54797065735D2E786D6C504B01021400140006080800CC70623BD9DDAED0EC0000007C010000080000000000000000000000000083010000636F72652E786D6C504B01021400140006080800CC70623B55019EA25F0000007C000000070000000000000000000000000095020000636E782E786D6C504B0102
310
1400140006080800CC70623BA24EB22D72010000D40300000C00000000000000000000000000190300006662782F636F72652E786D6C504B01021400140006080800CC70623B408A7D3B7C0000009D0000000B00000000000000000000000000B50400006662782F636E782E786D6C504B01021400140006080800CC70623B
310
449FB9BD290100001202000031000000000000000000000000005A0500006662782F36394639363044362D344446342D343946362D394244322D3234314243333846323333332F636F72652E786D6C504B01021400140006080800CC70623BAD7543B64E010000330300003000000000000000000000000000D20600006662
310
782F36394639363044362D344446342D343946362D394244322D3234314243333846323333332F636E782E786D6C504B01021400140006080800CC70623B8D05915C650500003B10000034000000000000000000000000006E0800006662782F36394639363044362D344446342D343946362D394244322D32343142433338
310
46323333332F6F626A656374732E786D6C504B01021400140006080000CC70623B0000000000000000000000003500000000000000000000000000250E00006662782F36394639363044362D344446342D343946362D394244322D3234314243333846323333332F76657274696365732E62696E504B010214001400060808
310
00CC70623BF270F13306000000040000003600000000000000000000000000780E00006662782F36394639363044362D344446342D343946362D394244322D3234314243333846323333332F747269616E676C65732E62696E504B01021400140006080000CC70623B00000000000000000000000037000000000000000000
310
00000000D20E00006662782F36394639363044362D344446342D343946362D394244322D3234314243333846323333332F617474726962757465732E62696E504B01021400140006080800CC70623B08DA0BD190000000410100003600000000000000000000000000270F00006662782F36394639363044362D344446342D
310
343946362D394244322D3234314243333846323333332F6469726563746F72792E786D6C504B01021400140006080800CC70623BCA768048FE000000A00100003B000000000000000000000000000B1000006662782F36394639363044362D344446342D343946362D394244322D3234314243333846323333332F7265736F
310
75726365732F636F72652E786D6C504B0506000000000E000E0080040000621100000000
  0
XRECORD
  5
176
102
{ACAD_REACTORS
330
173
102
}
330
173
100
AcDbXrecord
280
     1
270
     1
271
     1
  0
XRECORD
  5
177
102
{ACAD_REACTORS
330
173
102
}
330
173
100
AcDbXrecord
280
     1
270
     1
271
     1
  0
XRECORD
  5
2BB8B
102
{ACAD_REACTORS
330
2BB8A
102
}
330
2BB8A
100
AcDbXrecord
280
     1
102
ACAD_ROUNDTRIP_2012_MLEADER_STYLE
298
     1
  0
XRECORD
  5
2BB9D
102
{ACAD_REACTORS
330
2BB9C
102
}
330
2BB9C
100
AcDbXrecord
280
     1
102
DISPLAYNAME
  1
Metric50
102
FLAGS
 90
        0
  0
CELLSTYLEMAP
  5
2BB5D
102
{ACAD_REACTORS
330
162
102
}
330
162
100
AcDbCellStyleMap
 90
        3
300
CELLSTYLE
  1
TABLEFORMAT_BEGIN
 90
        5
170
     1
 91
        0
 92
    32768
 62
   257
 93
        1
300
CONTENTFORMAT
  1
CONTENTFORMAT_BEGIN
 90
        0
 91
        0
 92
      512
 93
        0
300

 40
0.0
140
1.0
 94
        5
 62
     0
340
11
144
6.0
309
CONTENTFORMAT_END
171
     1
301
MARGIN
  1
CELLMARGIN_BEGIN
 40
1.5
 40
1.5
 40
1.5
 40
1.5
 40
4.5
 40
4.5
309
CELLMARGIN_END
 94
        6
 95
        1
302
GRIDFORMAT
  1
GRIDFORMAT_BEGIN
 90
        0
 91
        1
 62
     0
 92
       -2
340
14
 93
        0
 40
1.125
309
GRIDFORMAT_END
 95
        2
302
GRIDFORMAT
  1
GRIDFORMAT_BEGIN
 90
        0
 91
        1
 62
     0
 92
       -2
340
14
 93
        0
 40
1.125
309
GRIDFORMAT_END
 95
        4
302
GRIDFORMAT
  1
GRIDFORMAT_BEGIN
 90
        0
 91
        1
 62
     0
 92
       -2
340
14
 93
        0
 40
1.125
309
GRIDFORMAT_END
 95
        8
302
GRIDFORMAT
  1
GRIDFORMAT_BEGIN
 90
        0
 91
        1
 62
     0
 92
       -2
340
14
 93
        0
 40
1.125
309
GRIDFORMAT_END
 95
       16
302
GRIDFORMAT
  1
GRIDFORMAT_BEGIN
 90
        0
 91
        1
 62
     0
 92
       -2
340
14
 93
        0
 40
1.125
309
GRIDFORMAT_END
 95
       32
302
GRIDFORMAT
  1
GRIDFORMAT_BEGIN
 90
        0
 91
        1
 62
     0
 92
       -2
340
14
 93
        0
 40
1.125
309
GRIDFORMAT_END
309
TABLEFORMAT_END
  1
CELLSTYLE_BEGIN
 90
        1
 91
        1
300
_TITLE
309
CELLSTYLE_END
300
CELLSTYLE
  1
TABLEFORMAT_BEGIN
 90
        5
170
     1
 91
        0
 92
        0
 62
   257
 93
        1
300
CONTENTFORMAT
  1
CONTENTFORMAT_BEGIN
 90
        0
 91
        0
 92
      512
 93
        0
300

 40
0.0
140
1.0
 94
        5
 62
     0
340
11
144
4.5
309
CONTENTFORMAT_END
171
     1
301
MARGIN
  1
CELLMARGIN_BEGIN
 40
1.5
 40
1.5
 40
1.5
 40
1.5
 40
4.5
 40
4.5
309
CELLMARGIN_END
 94
        6
 95
        1
302
GRIDFORMAT
  1
GRIDFORMAT_BEGIN
 90
        0
 91
        1
 62
     0
 92
       -2
340
14
 93
        0
 40
1.125
309
GRIDFORMAT_END
 95
        2
302
GRIDFORMAT
  1
GRIDFORMAT_BEGIN
 90
        0
 91
        1
 62
     0
 92
       -2
340
14
 93
        0
 40
1.125
309
GRIDFORMAT_END
 95
        4
302
GRIDFORMAT
  1
GRIDFORMAT_BEGIN
 90
        0
 91
        1
 62
     0
 92
       -2
340
14
 93
        0
 40
1.125
309
GRIDFORMAT_END
 95
        8
302
GRIDFORMAT
  1
GRIDFORMAT_BEGIN
 90
        0
 91
        1
 62
     0
 92
       -2
340
14
 93
        0
 40
1.125
309
GRIDFORMAT_END
 95
       16
302
GRIDFORMAT
  1
GRIDFORMAT_BEGIN
 90
        0
 91
        1
 62
     0
 92
       -2
340
14
 93
        0
 40
1.125
309
GRIDFORMAT_END
 95
       32
302
GRIDFORMAT
  1
GRIDFORMAT_BEGIN
 90
        0
 91
        1
 62
     0
 92
       -2
340
14
 93
        0
 40
1.125
309
GRIDFORMAT_END
309
TABLEFORMAT_END
  1
CELLSTYLE_BEGIN
 90
        2
 91
        1
300
_HEADER
309
CELLSTYLE_END
300
CELLSTYLE
  1
TABLEFORMAT_BEGIN
 90
        5
170
     1
 91
        0
 92
        0
 62
   257
 93
        1
300
CONTENTFORMAT
  1
CONTENTFORMAT_BEGIN
 90
        0
 91
        0
 92
      512
 93
        0
300

 40
0.0
140
1.0
 94
        2
 62
     0
340
11
144
4.5
309
CONTENTFORMAT_END
171
     1
301
MARGIN
  1
CELLMARGIN_BEGIN
 40
1.5
 40
1.5
 40
1.5
 40
1.5
 40
4.5
 40
4.5
309
CELLMARGIN_END
 94
        6
 95
        1
302
GRIDFORMAT
  1
GRIDFORMAT_BEGIN
 90
        0
 91
        1
 62
     0
 92
       -2
340
14
 93
        0
 40
1.125
309
GRIDFORMAT_END
 95
        2
302
GRIDFORMAT
  1
GRIDFORMAT_BEGIN
 90
        0
 91
        1
 62
     0
 92
       -2
340
14
 93
        0
 40
1.125
309
GRIDFORMAT_END
 95
        4
302
GRIDFORMAT
  1
GRIDFORMAT_BEGIN
 90
        0
 91
        1
 62
     0
 92
       -2
340
14
 93
        0
 40
1.125
309
GRIDFORMAT_END
 95
        8
302
GRIDFORMAT
  1
GRIDFORMAT_BEGIN
 90
        0
 91
        1
 62
     0
 92
       -2
340
14
 93
        0
 40
1.125
309
GRIDFORMAT_END
 95
       16
302
GRIDFORMAT
  1
GRIDFORMAT_BEGIN
 90
        0
 91
        1
 62
     0
 92
       -2
340
14
 93
        0
 40
1.125
309
GRIDFORMAT_END
 95
       32
302
GRIDFORMAT
  1
GRIDFORMAT_BEGIN
 90
        0
 91
        1
 62
     0
 92
       -2
340
14
 93
        0
 40
1.125
309
GRIDFORMAT_END
309
TABLEFORMAT_END
  1
CELLSTYLE_BEGIN
 90
        3
 91
        2
300
_DATA
309
CELLSTYLE_END
  0
XRECORD
  5
2BB62
102
{ACAD_REACTORS
330
162
102
}
330
162
100
AcDbXrecord
280
     1
102
ACAD_ROUNDTRIP_PRE2007_TABLESTYLE
 90
      512
 91
        0
  1

 92
      512
 93
        0
  2

 94
      512
 95
        0
  3

  0
XRECORD
  5
2BB75
102
{ACAD_REACTORS
330
2BB74
102
}
330
2BB74
100
AcDbXrecord
280
     1
102
RTVSPost2010Prop28
280
     1
102
RTVSPost2010PropOp28
 70
     1
102
RTVSPost2010Prop29
280
     1
102
RTVSPost2010PropOp29
 70
     1
102
RTVSPost2010Prop30
280
     0
102
RTVSPost2010PropOp30
 70
     1
102
RTVSPost2010Prop31
280
     0
102
RTVSPost2010PropOp31
 70
     1
102
RTVSPost2010Prop32
280
     0
102
RTVSPost2010PropOp32
 70
     1
102
RTVSPost2010Prop33
280
     0
102
RTVSPost2010PropOp33
 70
     1
102
RTVSPost2010Prop34
280
     0
102
RTVSPost2010PropOp34
 70
     1
102
RTVSPost2010Prop35
280
     0
102
RTVSPost2010PropOp35
 70
     1
102
RTVSPost2010Prop36
280
     0
102
RTVSPost2010PropOp36
 70
     1
102
RTVSPost2010Prop37
 90
       50
102
RTVSPost2010PropOp37
 70
     1
102
RTVSPost2010Prop38
140
0.0
102
RTVSPost2010PropOp38
 70
     1
102
RTVSPost2010Prop39
140
1.0
102
RTVSPost2010PropOp39
 70
     1
102
RTVSPost2010Prop40
 90
        0
102
RTVSPost2010PropOp40
 70
     1
102
RTVSPost2010Prop41ColorIndex
 90
       18
102
RTVSPost2010Prop41ColorRGB
 90
        0
102
RTVSPost2010PropOp41
 70
     1
102
RTVSPost2010Prop42
 90
       50
102
RTVSPost2010PropOp42
 70
     1
102
RTVSPost2010Prop43
 90
        3
102
RTVSPost2010PropOp43
 70
     1
102
RTVSPost2010Prop44ColorIndex
 90
        5
102
RTVSPost2010Prop44ColorRGB
 90
      255
102
RTVSPost2010PropOp44
 70
     1
102
RTVSPost2010Prop45
280
     0
102
RTVSPost2010PropOp45
 70
     1
102
RTVSPost2010Prop46
 90
       50
102
RTVSPost2010PropOp46
 70
     1
102
RTVSPost2010Prop47
 90
       50
102
RTVSPost2010PropOp47
 70
     1
102
RTVSPost2010Prop48
 90
       50
102
RTVSPost2010PropOp48
 70
     1
102
RTVSPost2010Prop49
280
     0
102
RTVSPost2010PropOp49
 70
     1
102
RTVSPost2010Prop50
 90
       50
102
RTVSPost2010PropOp50
 70
     1
102
RTVSPost2010Prop51ColorIndex
 90
      256
102
RTVSPost2010Prop51ColorRGB
 90
-16777216
102
RTVSPost2010PropOp51
 70
     0
102
RTVSPost2010Prop52
140
1.0
102
RTVSPost2010PropOp52
 70
     0
102
RTVSPost2010Prop53
 90
        2
102
RTVSPost2010PropOp53
 70
     1
102
RTVSPost2010Prop54
  1
strokes_ogs.tif
102
RTVSPost2010PropOp54
 70
     1
102
RTVSPost2010Prop55
280
     0
102
RTVSPost2010PropOp55
 70
     1
102
RTVSPost2010Prop56
140
1.0
102
RTVSPost2010PropOp56
 70
     1
102
RTVSPost2010Prop57
140
1.0
102
RTVSPost2010PropOp57
 70
     1
102
RTVSPropertyOp0
 70
     1
102
RTVSPropertyOp1
 70
     1
102
RTVSPropertyOp2
 70
     1
102
RTVSPropertyOp3
 70
     1
102
RTVSPropertyOp4
 70
     1
102
RTVSPropertyOp5
 70
     1
102
RTVSPropertyOp6
 70
     1
102
RTVSPropertyOp7
 70
     1
102
RTVSPropertyOp8
 70
     1
102
RTVSPropertyOp9
 70
     1
102
RTVSPropertyOp10
 70
     1
102
RTVSPropertyOp11
 70
     1
102
RTVSPropertyOp12
 70
     1
102
RTVSPropertyOp13
 70
     1
102
RTVSPropertyOp14
 70
     1
102
RTVSPropertyOp15
 70
     1
102
RTVSPropertyOp16
 70
     1
102
RTVSPropertyOp17
 70
     1
102
RTVSPropertyOp18
 70
     1
102
RTVSPropertyOp19
 70
     1
102
RTVSPropertyOp20
 70
     1
102
RTVSPropertyOp21
 70
     1
102
RTVSPropertyOp22
 70
     1
102
RTVSPropertyOp23
 70
     1
102
RTVSPropertyOp24
 70
     1
102
RTVSPropertyOp25
 70
     1
102
RTVSPropertyOp26
 70
     1
102
RTVSPropertyOp27
 70
     1
102
RTVSPropertyOp28
 70
     1
102
RTVSPropertyOp29
 70
     1
102
RTVSPropertyOp30
 70
     1
102
RTVSPropertyOp31
 70
     1
102
RTVSPropertyOp32
 70
     1
102
RTVSPropertyOp33
 70
     1
102
RTVSPropertyOp34
 70
     1
102
RTVSPropertyOp35
 70
     1
102
RTVSPropertyOp36
 70
     1
102
RTVSPropertyOp37
 70
     1
102
RTVSPropertyOp38
 70
     1
102
RTVSPropertyOp39
 70
     1
102
RTVSPropertyOp40
 70
     1
102
RTVSPropertyOp41
 70
     1
102
RTVSPropertyOp42
 70
     1
102
RTVSPropertyOp43
 70
     1
102
RTVSPropertyOp44
 70
     1
102
RTVSPropertyOp45
 70
     1
102
RTVSPropertyOp46
 70
     1
102
RTVSPropertyOp47
 70
     1
102
RTVSPropertyOp48
 70
     1
102
RTVSPropertyOp49
 70
     1
102
RTVSPropertyOp50
 70
     1
102
RTVSPropertyOp51
 70
     0
102
RTVSPropertyOp52
 70
     0
102
RTVSPropertyOp53
 70
     1
102
RTVSPropertyOp54
 70
     1
102
RTVSPropertyOp55
 70
     1
102
RTVSPropertyOp56
 70
     1
102
RTVSPropertyOp57
 70
     1
102
RTVSPropertyOp58
 70
     1
102
RTVSPropertyOp59
 70
     1
102
RTVSPropertyOp60
 70
     1
102
RTVSPropertyOp61
 70
     1
102
RTVSPropertyOp62
 70
     1
  0
XRECORD
  5
2BB73
102
{ACAD_REACTORS
330
2BB72
102
}
330
2BB72
100
AcDbXrecord
280
     1
102
RTVSPost2010Prop28
280
     0
102
RTVSPost2010PropOp28
 70
     1
102
RTVSPost2010Prop29
280
     1
102
RTVSPost2010PropOp29
 70
     1
102
RTVSPost2010Prop30
280
     1
102
RTVSPost2010PropOp30
 70
     1
102
RTVSPost2010Prop31
280
     0
102
RTVSPost2010PropOp31
 70
     1
102
RTVSPost2010Prop32
280
     0
102
RTVSPost2010PropOp32
 70
     1
102
RTVSPost2010Prop33
280
     0
102
RTVSPost2010PropOp33
 70
     1
102
RTVSPost2010Prop34
280
     0
102
RTVSPost2010PropOp34
 70
     1
102
RTVSPost2010Prop35
280
     0
102
RTVSPost2010PropOp35
 70
     1
102
RTVSPost2010Prop36
280
     0
102
RTVSPost2010PropOp36
 70
     1
102
RTVSPost2010Prop37
 90
       50
102
RTVSPost2010PropOp37
 70
     1
102
RTVSPost2010Prop38
140
0.0
102
RTVSPost2010PropOp38
 70
     1
102
RTVSPost2010Prop39
140
1.0
102
RTVSPost2010PropOp39
 70
     1
102
RTVSPost2010Prop40
 90
        0
102
RTVSPost2010PropOp40
 70
     1
102
RTVSPost2010Prop41ColorIndex
 90
       18
102
RTVSPost2010Prop41ColorRGB
 90
        0
102
RTVSPost2010PropOp41
 70
     1
102
RTVSPost2010Prop42
 90
       50
102
RTVSPost2010PropOp42
 70
     1
102
RTVSPost2010Prop43
 90
        3
102
RTVSPost2010PropOp43
 70
     1
102
RTVSPost2010Prop44ColorIndex
 90
        5
102
RTVSPost2010Prop44ColorRGB
 90
      255
102
RTVSPost2010PropOp44
 70
     1
102
RTVSPost2010Prop45
280
     0
102
RTVSPost2010PropOp45
 70
     1
102
RTVSPost2010Prop46
 90
       50
102
RTVSPost2010PropOp46
 70
     1
102
RTVSPost2010Prop47
 90
       50
102
RTVSPost2010PropOp47
 70
     1
102
RTVSPost2010Prop48
 90
       50
102
RTVSPost2010PropOp48
 70
     1
102
RTVSPost2010Prop49
280
     0
102
RTVSPost2010PropOp49
 70
     1
102
RTVSPost2010Prop50
 90
       50
102
RTVSPost2010PropOp50
 70
     1
102
RTVSPost2010Prop51ColorIndex
 90
      256
102
RTVSPost2010Prop51ColorRGB
 90
-16777216
102
RTVSPost2010PropOp51
 70
     0
102
RTVSPost2010Prop52
140
1.0
102
RTVSPost2010PropOp52
 70
     0
102
RTVSPost2010Prop53
 90
        2
102
RTVSPost2010PropOp53
 70
     1
102
RTVSPost2010Prop54
  1
strokes_ogs.tif
102
RTVSPost2010PropOp54
 70
     1
102
RTVSPost2010Prop55
280
     0
102
RTVSPost2010PropOp55
 70
     1
102
RTVSPost2010Prop56
140
1.0
102
RTVSPost2010PropOp56
 70
     1
102
RTVSPost2010Prop57
140
1.0
102
RTVSPost2010PropOp57
 70
     1
102
RTVSPropertyOp0
 70
     1
102
RTVSPropertyOp1
 70
     1
102
RTVSPropertyOp2
 70
     1
102
RTVSPropertyOp3
 70
     1
102
RTVSPropertyOp4
 70
     1
102
RTVSPropertyOp5
 70
     1
102
RTVSPropertyOp6
 70
     1
102
RTVSPropertyOp7
 70
     1
102
RTVSPropertyOp8
 70
     1
102
RTVSPropertyOp9
 70
     1
102
RTVSPropertyOp10
 70
     1
102
RTVSPropertyOp11
 70
     1
102
RTVSPropertyOp12
 70
     1
102
RTVSPropertyOp13
 70
     1
102
RTVSPropertyOp14
 70
     1
102
RTVSPropertyOp15
 70
     1
102
RTVSPropertyOp16
 70
     1
102
RTVSPropertyOp17
 70
     1
102
RTVSPropertyOp18
 70
     1
102
RTVSPropertyOp19
 70
     1
102
RTVSPropertyOp20
 70
     1
102
RTVSPropertyOp21
 70
     1
102
RTVSPropertyOp22
 70
     1
102
RTVSPropertyOp23
 70
     1
102
RTVSPropertyOp24
 70
     1
102
RTVSPropertyOp25
 70
     1
102
RTVSPropertyOp26
 70
     1
102
RTVSPropertyOp27
 70
     1
102
RTVSPropertyOp28
 70
     1
102
RTVSPropertyOp29
 70
     1
102
RTVSPropertyOp30
 70
     1
102
RTVSPropertyOp31
 70
     1
102
RTVSPropertyOp32
 70
     1
102
RTVSPropertyOp33
 70
     1
102
RTVSPropertyOp34
 70
     1
102
RTVSPropertyOp35
 70
     1
102
RTVSPropertyOp36
 70
     1
102
RTVSPropertyOp37
 70
     1
102
RTVSPropertyOp38
 70
     1
102
RTVSPropertyOp39
 70
     1
102
RTVSPropertyOp40
 70
     1
102
RTVSPropertyOp41
 70
     1
102
RTVSPropertyOp42
 70
     1
102
RTVSPropertyOp43
 70
     1
102
RTVSPropertyOp44
 70
     1
102
RTVSPropertyOp45
 70
     1
102
RTVSPropertyOp46
 70
     1
102
RTVSPropertyOp47
 70
     1
102
RTVSPropertyOp48
 70
     1
102
RTVSPropertyOp49
 70
     1
102
RTVSPropertyOp50
 70
     1
102
RTVSPropertyOp51
 70
     0
102
RTVSPropertyOp52
 70
     0
102
RTVSPropertyOp53
 70
     1
102
RTVSPropertyOp54
 70
     1
102
RTVSPropertyOp55
 70
     1
102
RTVSPropertyOp56
 70
     1
102
RTVSPropertyOp57
 70
     1
102
RTVSPropertyOp58
 70
     1
102
RTVSPropertyOp59
 70
     1
102
RTVSPropertyOp60
 70
     1
102
RTVSPropertyOp61
 70
     1
102
RTVSPropertyOp62
 70
     1
  0
XRECORD
  5
2BB81
102
{ACAD_REACTORS
330
2BB80
102
}
330
2BB80
100
AcDbXrecord
280
     1
102
RTVSPost2010Prop28
280
     0
102
RTVSPost2010PropOp28
 70
     1
102
RTVSPost2010Prop29
280
     1
102
RTVSPost2010PropOp29
 70
     1
102
RTVSPost2010Prop30
280
     1
102
RTVSPost2010PropOp30
 70
     1
102
RTVSPost2010Prop31
280
     0
102
RTVSPost2010PropOp31
 70
     1
102
RTVSPost2010Prop32
280
     0
102
RTVSPost2010PropOp32
 70
     1
102
RTVSPost2010Prop33
280
     0
102
RTVSPost2010PropOp33
 70
     1
102
RTVSPost2010Prop34
280
     0
102
RTVSPost2010PropOp34
 70
     1
102
RTVSPost2010Prop35
280
     0
102
RTVSPost2010PropOp35
 70
     1
102
RTVSPost2010Prop36
280
     0
102
RTVSPost2010PropOp36
 70
     1
102
RTVSPost2010Prop37
 90
       50
102
RTVSPost2010PropOp37
 70
     1
102
RTVSPost2010Prop38
140
0.0
102
RTVSPost2010PropOp38
 70
     1
102
RTVSPost2010Prop39
140
1.0
102
RTVSPost2010PropOp39
 70
     1
102
RTVSPost2010Prop40
 90
        0
102
RTVSPost2010PropOp40
 70
     1
102
RTVSPost2010Prop41ColorIndex
 90
       18
102
RTVSPost2010Prop41ColorRGB
 90
        0
102
RTVSPost2010PropOp41
 70
     1
102
RTVSPost2010Prop42
 90
       50
102
RTVSPost2010PropOp42
 70
     1
102
RTVSPost2010Prop43
 90
        3
102
RTVSPost2010PropOp43
 70
     1
102
RTVSPost2010Prop44ColorIndex
 90
        5
102
RTVSPost2010Prop44ColorRGB
 90
      255
102
RTVSPost2010PropOp44
 70
     1
102
RTVSPost2010Prop45
280
     0
102
RTVSPost2010PropOp45
 70
     1
102
RTVSPost2010Prop46
 90
       50
102
RTVSPost2010PropOp46
 70
     1
102
RTVSPost2010Prop47
 90
       50
102
RTVSPost2010PropOp47
 70
     1
102
RTVSPost2010Prop48
 90
       50
102
RTVSPost2010PropOp48
 70
     1
102
RTVSPost2010Prop49
280
     0
102
RTVSPost2010PropOp49
 70
     1
102
RTVSPost2010Prop50
 90
       50
102
RTVSPost2010PropOp50
 70
     1
102
RTVSPost2010Prop51ColorIndex
 90
      256
102
RTVSPost2010Prop51ColorRGB
 90
-16777216
102
RTVSPost2010PropOp51
 70
     0
102
RTVSPost2010Prop52
140
1.0
102
RTVSPost2010PropOp52
 70
     0
102
RTVSPost2010Prop53
 90
        2
102
RTVSPost2010PropOp53
 70
     1
102
RTVSPost2010Prop54
  1
strokes_ogs.tif
102
RTVSPost2010PropOp54
 70
     1
102
RTVSPost2010Prop55
280
     0
102
RTVSPost2010PropOp55
 70
     1
102
RTVSPost2010Prop56
140
1.0
102
RTVSPost2010PropOp56
 70
     1
102
RTVSPost2010Prop57
140
1.0
102
RTVSPost2010PropOp57
 70
     1
102
RTVSPropertyOp0
 70
     1
102
RTVSPropertyOp1
 70
     1
102
RTVSPropertyOp2
 70
     1
102
RTVSPropertyOp3
 70
     1
102
RTVSPropertyOp4
 70
     1
102
RTVSPropertyOp5
 70
     1
102
RTVSPropertyOp6
 70
     1
102
RTVSPropertyOp7
 70
     1
102
RTVSPropertyOp8
 70
     1
102
RTVSPropertyOp9
 70
     1
102
RTVSPropertyOp10
 70
     1
102
RTVSPropertyOp11
 70
     1
102
RTVSPropertyOp12
 70
     1
102
RTVSPropertyOp13
 70
     1
102
RTVSPropertyOp14
 70
     1
102
RTVSPropertyOp15
 70
     1
102
RTVSPropertyOp16
 70
     1
102
RTVSPropertyOp17
 70
     1
102
RTVSPropertyOp18
 70
     1
102
RTVSPropertyOp19
 70
     1
102
RTVSPropertyOp20
 70
     1
102
RTVSPropertyOp21
 70
     1
102
RTVSPropertyOp22
 70
     1
102
RTVSPropertyOp23
 70
     1
102
RTVSPropertyOp24
 70
     1
102
RTVSPropertyOp25
 70
     1
102
RTVSPropertyOp26
 70
     1
102
RTVSPropertyOp27
 70
     1
102
RTVSPropertyOp28
 70
     1
102
RTVSPropertyOp29
 70
     1
102
RTVSPropertyOp30
 70
     1
102
RTVSPropertyOp31
 70
     1
102
RTVSPropertyOp32
 70
     1
102
RTVSPropertyOp33
 70
     1
102
RTVSPropertyOp34
 70
     1
102
RTVSPropertyOp35
 70
     1
102
RTVSPropertyOp36
 70
     1
102
RTVSPropertyOp37
 70
     1
102
RTVSPropertyOp38
 70
     1
102
RTVSPropertyOp39
 70
     1
102
RTVSPropertyOp40
 70
     1
102
RTVSPropertyOp41
 70
     1
102
RTVSPropertyOp42
 70
     1
102
RTVSPropertyOp43
 70
     1
102
RTVSPropertyOp44
 70
     1
102
RTVSPropertyOp45
 70
     1
102
RTVSPropertyOp46
 70
     1
102
RTVSPropertyOp47
 70
     1
102
RTVSPropertyOp48
 70
     1
102
RTVSPropertyOp49
 70
     1
102
RTVSPropertyOp50
 70
     1
102
RTVSPropertyOp51
 70
     0
102
RTVSPropertyOp52
 70
     0
102
RTVSPropertyOp53
 70
     1
102
RTVSPropertyOp54
 70
     1
102
RTVSPropertyOp55
 70
     1
102
RTVSPropertyOp56
 70
     1
102
RTVSPropertyOp57
 70
     1
102
RTVSPropertyOp58
 70
     1
102
RTVSPropertyOp59
 70
     1
102
RTVSPropertyOp60
 70
     1
102
RTVSPropertyOp61
 70
     1
102
RTVSPropertyOp62
 70
     1
  0
XRECORD
  5
2BB89
102
{ACAD_REACTORS
330
2BB88
102
}
330
2BB88
100
AcDbXrecord
280
     1
102
RTVSPost2010Prop28
280
     0
102
RTVSPost2010PropOp28
 70
     1
102
RTVSPost2010Prop29
280
     1
102
RTVSPost2010PropOp29
 70
     1
102
RTVSPost2010Prop30
280
     1
102
RTVSPost2010PropOp30
 70
     1
102
RTVSPost2010Prop31
280
     0
102
RTVSPost2010PropOp31
 70
     1
102
RTVSPost2010Prop32
280
     0
102
RTVSPost2010PropOp32
 70
     1
102
RTVSPost2010Prop33
280
     0
102
RTVSPost2010PropOp33
 70
     1
102
RTVSPost2010Prop34
280
     0
102
RTVSPost2010PropOp34
 70
     1
102
RTVSPost2010Prop35
280
     0
102
RTVSPost2010PropOp35
 70
     1
102
RTVSPost2010Prop36
280
     0
102
RTVSPost2010PropOp36
 70
     1
102
RTVSPost2010Prop37
 90
       50
102
RTVSPost2010PropOp37
 70
     1
102
RTVSPost2010Prop38
140
0.0
102
RTVSPost2010PropOp38
 70
     1
102
RTVSPost2010Prop39
140
1.0
102
RTVSPost2010PropOp39
 70
     1
102
RTVSPost2010Prop40
 90
        0
102
RTVSPost2010PropOp40
 70
     1
102
RTVSPost2010Prop41ColorIndex
 90
       18
102
RTVSPost2010Prop41ColorRGB
 90
        0
102
RTVSPost2010PropOp41
 70
     1
102
RTVSPost2010Prop42
 90
       50
102
RTVSPost2010PropOp42
 70
     1
102
RTVSPost2010Prop43
 90
        3
102
RTVSPost2010PropOp43
 70
     1
102
RTVSPost2010Prop44ColorIndex
 90
        5
102
RTVSPost2010Prop44ColorRGB
 90
      255
102
RTVSPost2010PropOp44
 70
     1
102
RTVSPost2010Prop45
280
     0
102
RTVSPost2010PropOp45
 70
     1
102
RTVSPost2010Prop46
 90
       50
102
RTVSPost2010PropOp46
 70
     1
102
RTVSPost2010Prop47
 90
       50
102
RTVSPost2010PropOp47
 70
     1
102
RTVSPost2010Prop48
 90
       50
102
RTVSPost2010PropOp48
 70
     1
102
RTVSPost2010Prop49
280
     0
102
RTVSPost2010PropOp49
 70
     1
102
RTVSPost2010Prop50
 90
       50
102
RTVSPost2010PropOp50
 70
     1
102
RTVSPost2010Prop51ColorIndex
 90
      256
102
RTVSPost2010Prop51ColorRGB
 90
-16777216
102
RTVSPost2010PropOp51
 70
     0
102
RTVSPost2010Prop52
140
1.0
102
RTVSPost2010PropOp52
 70
     0
102
RTVSPost2010Prop53
 90
        2
102
RTVSPost2010PropOp53
 70
     1
102
RTVSPost2010Prop54
  1
strokes_ogs.tif
102
RTVSPost2010PropOp54
 70
     1
102
RTVSPost2010Prop55
280
     0
102
RTVSPost2010PropOp55
 70
     1
102
RTVSPost2010Prop56
140
1.0
102
RTVSPost2010PropOp56
 70
     1
102
RTVSPost2010Prop57
140
1.0
102
RTVSPost2010PropOp57
 70
     1
102
RTVSPropertyOp0
 70
     1
102
RTVSPropertyOp1
 70
     1
102
RTVSPropertyOp2
 70
     1
102
RTVSPropertyOp3
 70
     1
102
RTVSPropertyOp4
 70
     1
102
RTVSPropertyOp5
 70
     1
102
RTVSPropertyOp6
 70
     1
102
RTVSPropertyOp7
 70
     1
102
RTVSPropertyOp8
 70
     1
102
RTVSPropertyOp9
 70
     1
102
RTVSPropertyOp10
 70
     1
102
RTVSPropertyOp11
 70
     1
102
RTVSPropertyOp12
 70
     1
102
RTVSPropertyOp13
 70
     1
102
RTVSPropertyOp14
 70
     1
102
RTVSPropertyOp15
 70
     1
102
RTVSPropertyOp16
 70
     1
102
RTVSPropertyOp17
 70
     1
102
RTVSPropertyOp18
 70
     1
102
RTVSPropertyOp19
 70
     1
102
RTVSPropertyOp20
 70
     1
102
RTVSPropertyOp21
 70
     1
102
RTVSPropertyOp22
 70
     1
102
RTVSPropertyOp23
 70
     1
102
RTVSPropertyOp24
 70
     1
102
RTVSPropertyOp25
 70
     1
102
RTVSPropertyOp26
 70
     1
102
RTVSPropertyOp27
 70
     1
102
RTVSPropertyOp28
 70
     1
102
RTVSPropertyOp29
 70
     1
102
RTVSPropertyOp30
 70
     1
102
RTVSPropertyOp31
 70
     1
102
RTVSPropertyOp32
 70
     1
102
RTVSPropertyOp33
 70
     1
102
RTVSPropertyOp34
 70
     1
102
RTVSPropertyOp35
 70
     1
102
RTVSPropertyOp36
 70
     1
102
RTVSPropertyOp37
 70
     1
102
RTVSPropertyOp38
 70
     1
102
RTVSPropertyOp39
 70
     1
102
RTVSPropertyOp40
 70
     1
102
RTVSPropertyOp41
 70
     1
102
RTVSPropertyOp42
 70
     1
102
RTVSPropertyOp43
 70
     1
102
RTVSPropertyOp44
 70
     1
102
RTVSPropertyOp45
 70
     1
102
RTVSPropertyOp46
 70
     1
102
RTVSPropertyOp47
 70
     1
102
RTVSPropertyOp48
 70
     1
102
RTVSPropertyOp49
 70
     1
102
RTVSPropertyOp50
 70
     1
102
RTVSPropertyOp51
 70
     0
102
RTVSPropertyOp52
 70
     0
102
RTVSPropertyOp53
 70
     1
102
RTVSPropertyOp54
 70
     1
102
RTVSPropertyOp55
 70
     1
102
RTVSPropertyOp56
 70
     1
102
RTVSPropertyOp57
 70
     1
102
RTVSPropertyOp58
 70
     1
102
RTVSPropertyOp59
 70
     1
102
RTVSPropertyOp60
 70
     1
102
RTVSPropertyOp61
 70
     1
102
RTVSPropertyOp62
 70
     1
  0
XRECORD
  5
2BB7B
102
{ACAD_REACTORS
330
2BB7A
102
}
330
2BB7A
100
AcDbXrecord
280
     1
102
RTVSPost2010Prop28
280
     0
102
RTVSPost2010PropOp28
 70
     1
102
RTVSPost2010Prop29
280
     1
102
RTVSPost2010PropOp29
 70
     1
102
RTVSPost2010Prop30
280
     1
102
RTVSPost2010PropOp30
 70
     1
102
RTVSPost2010Prop31
280
     0
102
RTVSPost2010PropOp31
 70
     1
102
RTVSPost2010Prop32
280
     0
102
RTVSPost2010PropOp32
 70
     1
102
RTVSPost2010Prop33
280
     0
102
RTVSPost2010PropOp33
 70
     1
102
RTVSPost2010Prop34
280
     0
102
RTVSPost2010PropOp34
 70
     1
102
RTVSPost2010Prop35
280
     0
102
RTVSPost2010PropOp35
 70
     1
102
RTVSPost2010Prop36
280
     0
102
RTVSPost2010PropOp36
 70
     1
102
RTVSPost2010Prop37
 90
       50
102
RTVSPost2010PropOp37
 70
     1
102
RTVSPost2010Prop38
140
0.0
102
RTVSPost2010PropOp38
 70
     1
102
RTVSPost2010Prop39
140
1.0
102
RTVSPost2010PropOp39
 70
     1
102
RTVSPost2010Prop40
 90
        0
102
RTVSPost2010PropOp40
 70
     1
102
RTVSPost2010Prop41ColorIndex
 90
       18
102
RTVSPost2010Prop41ColorRGB
 90
        0
102
RTVSPost2010PropOp41
 70
     1
102
RTVSPost2010Prop42
 90
       50
102
RTVSPost2010PropOp42
 70
     1
102
RTVSPost2010Prop43
 90
        3
102
RTVSPost2010PropOp43
 70
     1
102
RTVSPost2010Prop44ColorIndex
 90
        5
102
RTVSPost2010Prop44ColorRGB
 90
      255
102
RTVSPost2010PropOp44
 70
     1
102
RTVSPost2010Prop45
280
     0
102
RTVSPost2010PropOp45
 70
     1
102
RTVSPost2010Prop46
 90
       50
102
RTVSPost2010PropOp46
 70
     1
102
RTVSPost2010Prop47
 90
       50
102
RTVSPost2010PropOp47
 70
     1
102
RTVSPost2010Prop48
 90
       50
102
RTVSPost2010PropOp48
 70
     1
102
RTVSPost2010Prop49
280
     0
102
RTVSPost2010PropOp49
 70
     1
102
RTVSPost2010Prop50
 90
       50
102
RTVSPost2010PropOp50
 70
     1
102
RTVSPost2010Prop51ColorIndex
 90
      256
102
RTVSPost2010Prop51ColorRGB
 90
-16777216
102
RTVSPost2010PropOp51
 70
     0
102
RTVSPost2010Prop52
140
1.0
102
RTVSPost2010PropOp52
 70
     0
102
RTVSPost2010Prop53
 90
        2
102
RTVSPost2010PropOp53
 70
     1
102
RTVSPost2010Prop54
  1
strokes_ogs.tif
102
RTVSPost2010PropOp54
 70
     1
102
RTVSPost2010Prop55
280
     0
102
RTVSPost2010PropOp55
 70
     1
102
RTVSPost2010Prop56
140
1.0
102
RTVSPost2010PropOp56
 70
     1
102
RTVSPost2010Prop57
140
1.0
102
RTVSPost2010PropOp57
 70
     1
102
RTVSPropertyOp0
 70
     1
102
RTVSPropertyOp1
 70
     1
102
RTVSPropertyOp2
 70
     1
102
RTVSPropertyOp3
 70
     1
102
RTVSPropertyOp4
 70
     1
102
RTVSPropertyOp5
 70
     1
102
RTVSPropertyOp6
 70
     1
102
RTVSPropertyOp7
 70
     1
102
RTVSPropertyOp8
 70
     1
102
RTVSPropertyOp9
 70
     1
102
RTVSPropertyOp10
 70
     1
102
RTVSPropertyOp11
 70
     1
102
RTVSPropertyOp12
 70
     1
102
RTVSPropertyOp13
 70
     1
102
RTVSPropertyOp14
 70
     1
102
RTVSPropertyOp15
 70
     1
102
RTVSPropertyOp16
 70
     1
102
RTVSPropertyOp17
 70
     1
102
RTVSPropertyOp18
 70
     1
102
RTVSPropertyOp19
 70
     1
102
RTVSPropertyOp20
 70
     1
102
RTVSPropertyOp21
 70
     1
102
RTVSPropertyOp22
 70
     1
102
RTVSPropertyOp23
 70
     1
102
RTVSPropertyOp24
 70
     1
102
RTVSPropertyOp25
 70
     1
102
RTVSPropertyOp26
 70
     1
102
RTVSPropertyOp27
 70
     1
102
RTVSPropertyOp28
 70
     1
102
RTVSPropertyOp29
 70
     1
102
RTVSPropertyOp30
 70
     1
102
RTVSPropertyOp31
 70
     1
102
RTVSPropertyOp32
 70
     1
102
RTVSPropertyOp33
 70
     1
102
RTVSPropertyOp34
 70
     1
102
RTVSPropertyOp35
 70
     1
102
RTVSPropertyOp36
 70
     1
102
RTVSPropertyOp37
 70
     1
102
RTVSPropertyOp38
 70
     1
102
RTVSPropertyOp39
 70
     1
102
RTVSPropertyOp40
 70
     1
102
RTVSPropertyOp41
 70
     1
102
RTVSPropertyOp42
 70
     1
102
RTVSPropertyOp43
 70
     1
102
RTVSPropertyOp44
 70
     1
102
RTVSPropertyOp45
 70
     1
102
RTVSPropertyOp46
 70
     1
102
RTVSPropertyOp47
 70
     1
102
RTVSPropertyOp48
 70
     1
102
RTVSPropertyOp49
 70
     1
102
RTVSPropertyOp50
 70
     1
102
RTVSPropertyOp51
 70
     0
102
RTVSPropertyOp52
 70
     0
102
RTVSPropertyOp53
 70
     1
102
RTVSPropertyOp54
 70
     1
102
RTVSPropertyOp55
 70
     1
102
RTVSPropertyOp56
 70
     1
102
RTVSPropertyOp57
 70
     1
102
RTVSPropertyOp58
 70
     1
102
RTVSPropertyOp59
 70
     1
102
RTVSPropertyOp60
 70
     1
102
RTVSPropertyOp61
 70
     1
102
RTVSPropertyOp62
 70
     1
  0
XRECORD
  5
2BB7F
102
{ACAD_REACTORS
330
2BB7E
102
}
330
2BB7E
100
AcDbXrecord
280
     1
102
RTVSPost2010Prop28
280
     0
102
RTVSPost2010PropOp28
 70
     1
102
RTVSPost2010Prop29
280
     1
102
RTVSPost2010PropOp29
 70
     1
102
RTVSPost2010Prop30
280
     1
102
RTVSPost2010PropOp30
 70
     1
102
RTVSPost2010Prop31
280
     0
102
RTVSPost2010PropOp31
 70
     1
102
RTVSPost2010Prop32
280
     0
102
RTVSPost2010PropOp32
 70
     1
102
RTVSPost2010Prop33
280
     0
102
RTVSPost2010PropOp33
 70
     1
102
RTVSPost2010Prop34
280
     0
102
RTVSPost2010PropOp34
 70
     1
102
RTVSPost2010Prop35
280
     0
102
RTVSPost2010PropOp35
 70
     1
102
RTVSPost2010Prop36
280
     0
102
RTVSPost2010PropOp36
 70
     1
102
RTVSPost2010Prop37
 90
       50
102
RTVSPost2010PropOp37
 70
     1
102
RTVSPost2010Prop38
140
0.0
102
RTVSPost2010PropOp38
 70
     1
102
RTVSPost2010Prop39
140
1.0
102
RTVSPost2010PropOp39
 70
     1
102
RTVSPost2010Prop40
 90
        0
102
RTVSPost2010PropOp40
 70
     1
102
RTVSPost2010Prop41ColorIndex
 90
       18
102
RTVSPost2010Prop41ColorRGB
 90
        0
102
RTVSPost2010PropOp41
 70
     1
102
RTVSPost2010Prop42
 90
       50
102
RTVSPost2010PropOp42
 70
     1
102
RTVSPost2010Prop43
 90
        3
102
RTVSPost2010PropOp43
 70
     1
102
RTVSPost2010Prop44ColorIndex
 90
        5
102
RTVSPost2010Prop44ColorRGB
 90
      255
102
RTVSPost2010PropOp44
 70
     1
102
RTVSPost2010Prop45
280
     0
102
RTVSPost2010PropOp45
 70
     1
102
RTVSPost2010Prop46
 90
       50
102
RTVSPost2010PropOp46
 70
     1
102
RTVSPost2010Prop47
 90
       50
102
RTVSPost2010PropOp47
 70
     1
102
RTVSPost2010Prop48
 90
       50
102
RTVSPost2010PropOp48
 70
     1
102
RTVSPost2010Prop49
280
     0
102
RTVSPost2010PropOp49
 70
     1
102
RTVSPost2010Prop50
 90
       50
102
RTVSPost2010PropOp50
 70
     1
102
RTVSPost2010Prop51ColorIndex
 90
      256
102
RTVSPost2010Prop51ColorRGB
 90
-16777216
102
RTVSPost2010PropOp51
 70
     0
102
RTVSPost2010Prop52
140
1.0
102
RTVSPost2010PropOp52
 70
     0
102
RTVSPost2010Prop53
 90
        2
102
RTVSPost2010PropOp53
 70
     1
102
RTVSPost2010Prop54
  1
strokes_ogs.tif
102
RTVSPost2010PropOp54
 70
     1
102
RTVSPost2010Prop55
280
     0
102
RTVSPost2010PropOp55
 70
     1
102
RTVSPost2010Prop56
140
1.0
102
RTVSPost2010PropOp56
 70
     1
102
RTVSPost2010Prop57
140
1.0
102
RTVSPost2010PropOp57
 70
     1
102
RTVSPropertyOp0
 70
     1
102
RTVSPropertyOp1
 70
     1
102
RTVSPropertyOp2
 70
     1
102
RTVSPropertyOp3
 70
     1
102
RTVSPropertyOp4
 70
     1
102
RTVSPropertyOp5
 70
     1
102
RTVSPropertyOp6
 70
     1
102
RTVSPropertyOp7
 70
     1
102
RTVSPropertyOp8
 70
     1
102
RTVSPropertyOp9
 70
     1
102
RTVSPropertyOp10
 70
     1
102
RTVSPropertyOp11
 70
     1
102
RTVSPropertyOp12
 70
     1
102
RTVSPropertyOp13
 70
     1
102
RTVSPropertyOp14
 70
     1
102
RTVSPropertyOp15
 70
     1
102
RTVSPropertyOp16
 70
     1
102
RTVSPropertyOp17
 70
     1
102
RTVSPropertyOp18
 70
     1
102
RTVSPropertyOp19
 70
     1
102
RTVSPropertyOp20
 70
     1
102
RTVSPropertyOp21
 70
     1
102
RTVSPropertyOp22
 70
     1
102
RTVSPropertyOp23
 70
     1
102
RTVSPropertyOp24
 70
     1
102
RTVSPropertyOp25
 70
     1
102
RTVSPropertyOp26
 70
     1
102
RTVSPropertyOp27
 70
     1
102
RTVSPropertyOp28
 70
     1
102
RTVSPropertyOp29
 70
     1
102
RTVSPropertyOp30
 70
     1
102
RTVSPropertyOp31
 70
     1
102
RTVSPropertyOp32
 70
     1
102
RTVSPropertyOp33
 70
     1
102
RTVSPropertyOp34
 70
     1
102
RTVSPropertyOp35
 70
     1
102
RTVSPropertyOp36
 70
     1
102
RTVSPropertyOp37
 70
     1
102
RTVSPropertyOp38
 70
     1
102
RTVSPropertyOp39
 70
     1
102
RTVSPropertyOp40
 70
     1
102
RTVSPropertyOp41
 70
     1
102
RTVSPropertyOp42
 70
     1
102
RTVSPropertyOp43
 70
     1
102
RTVSPropertyOp44
 70
     1
102
RTVSPropertyOp45
 70
     1
102
RTVSPropertyOp46
 70
     1
102
RTVSPropertyOp47
 70
     1
102
RTVSPropertyOp48
 70
     1
102
RTVSPropertyOp49
 70
     1
102
RTVSPropertyOp50
 70
     1
102
RTVSPropertyOp51
 70
     0
102
RTVSPropertyOp52
 70
     0
102
RTVSPropertyOp53
 70
     1
102
RTVSPropertyOp54
 70
     1
102
RTVSPropertyOp55
 70
     1
102
RTVSPropertyOp56
 70
     1
102
RTVSPropertyOp57
 70
     1
102
RTVSPropertyOp58
 70
     1
102
RTVSPropertyOp59
 70
     1
102
RTVSPropertyOp60
 70
     1
102
RTVSPropertyOp61
 70
     1
102
RTVSPropertyOp62
 70
     1
  0
XRECORD
  5
2BB91
102
{ACAD_REACTORS
330
2BB90
102
}
330
2BB90
100
AcDbXrecord
280
     1
102
RTVSPost2010Prop28
280
     0
102
RTVSPost2010PropOp28
 70
     1
102
RTVSPost2010Prop29
280
     1
102
RTVSPost2010PropOp29
 70
     1
102
RTVSPost2010Prop30
280
     1
102
RTVSPost2010PropOp30
 70
     1
102
RTVSPost2010Prop31
280
     0
102
RTVSPost2010PropOp31
 70
     1
102
RTVSPost2010Prop32
280
     0
102
RTVSPost2010PropOp32
 70
     1
102
RTVSPost2010Prop33
280
     0
102
RTVSPost2010PropOp33
 70
     1
102
RTVSPost2010Prop34
280
     0
102
RTVSPost2010PropOp34
 70
     1
102
RTVSPost2010Prop35
280
     0
102
RTVSPost2010PropOp35
 70
     1
102
RTVSPost2010Prop36
280
     0
102
RTVSPost2010PropOp36
 70
     1
102
RTVSPost2010Prop37
 90
       50
102
RTVSPost2010PropOp37
 70
     1
102
RTVSPost2010Prop38
140
0.0
102
RTVSPost2010PropOp38
 70
     1
102
RTVSPost2010Prop39
140
1.0
102
RTVSPost2010PropOp39
 70
     1
102
RTVSPost2010Prop40
 90
        0
102
RTVSPost2010PropOp40
 70
     1
102
RTVSPost2010Prop41ColorIndex
 90
       18
102
RTVSPost2010Prop41ColorRGB
 90
        0
102
RTVSPost2010PropOp41
 70
     1
102
RTVSPost2010Prop42
 90
       50
102
RTVSPost2010PropOp42
 70
     1
102
RTVSPost2010Prop43
 90
        3
102
RTVSPost2010PropOp43
 70
     1
102
RTVSPost2010Prop44ColorIndex
 90
        5
102
RTVSPost2010Prop44ColorRGB
 90
      255
102
RTVSPost2010PropOp44
 70
     1
102
RTVSPost2010Prop45
280
     0
102
RTVSPost2010PropOp45
 70
     1
102
RTVSPost2010Prop46
 90
       50
102
RTVSPost2010PropOp46
 70
     1
102
RTVSPost2010Prop47
 90
       50
102
RTVSPost2010PropOp47
 70
     1
102
RTVSPost2010Prop48
 90
       50
102
RTVSPost2010PropOp48
 70
     1
102
RTVSPost2010Prop49
280
     0
102
RTVSPost2010PropOp49
 70
     1
102
RTVSPost2010Prop50
 90
       50
102
RTVSPost2010PropOp50
 70
     1
102
RTVSPost2010Prop51ColorIndex
 90
      256
102
RTVSPost2010Prop51ColorRGB
 90
-16777216
102
RTVSPost2010PropOp51
 70
     0
102
RTVSPost2010Prop52
140
1.0
102
RTVSPost2010PropOp52
 70
     0
102
RTVSPost2010Prop53
 90
        2
102
RTVSPost2010PropOp53
 70
     1
102
RTVSPost2010Prop54
  1
strokes_ogs.tif
102
RTVSPost2010PropOp54
 70
     1
102
RTVSPost2010Prop55
280
     0
102
RTVSPost2010PropOp55
 70
     1
102
RTVSPost2010Prop56
140
1.0
102
RTVSPost2010PropOp56
 70
     1
102
RTVSPost2010Prop57
140
1.0
102
RTVSPost2010PropOp57
 70
     1
102
RTVSPropertyOp0
 70
     0
102
RTVSPropertyOp1
 70
     0
102
RTVSPropertyOp2
 70
     0
102
RTVSPropertyOp3
 70
     0
102
RTVSPropertyOp4
 70
     0
102
RTVSPropertyOp5
 70
     0
102
RTVSPropertyOp6
 70
     0
102
RTVSPropertyOp7
 70
     0
102
RTVSPropertyOp8
 70
     0
102
RTVSPropertyOp9
 70
     0
102
RTVSPropertyOp10
 70
     0
102
RTVSPropertyOp11
 70
     0
102
RTVSPropertyOp12
 70
     0
102
RTVSPropertyOp13
 70
     0
102
RTVSPropertyOp14
 70
     2
102
RTVSPropertyOp15
 70
     0
102
RTVSPropertyOp16
 70
     0
102
RTVSPropertyOp17
 70
     0
102
RTVSPropertyOp18
 70
     0
102
RTVSPropertyOp19
 70
     0
102
RTVSPropertyOp20
 70
     0
102
RTVSPropertyOp21
 70
     0
102
RTVSPropertyOp22
 70
     0
102
RTVSPropertyOp23
 70
     0
102
RTVSPropertyOp24
 70
     0
102
RTVSPropertyOp25
 70
     0
102
RTVSPropertyOp26
 70
     0
102
RTVSPropertyOp27
 70
     0
102
RTVSPropertyOp28
 70
     1
102
RTVSPropertyOp29
 70
     1
102
RTVSPropertyOp30
 70
     1
102
RTVSPropertyOp31
 70
     1
102
RTVSPropertyOp32
 70
     1
102
RTVSPropertyOp33
 70
     1
102
RTVSPropertyOp34
 70
     1
102
RTVSPropertyOp35
 70
     1
102
RTVSPropertyOp36
 70
     1
102
RTVSPropertyOp37
 70
     1
102
RTVSPropertyOp38
 70
     1
102
RTVSPropertyOp39
 70
     1
102
RTVSPropertyOp40
 70
     1
102
RTVSPropertyOp41
 70
     1
102
RTVSPropertyOp42
 70
     1
102
RTVSPropertyOp43
 70
     1
102
RTVSPropertyOp44
 70
     1
102
RTVSPropertyOp45
 70
     1
102
RTVSPropertyOp46
 70
     1
102
RTVSPropertyOp47
 70
     1
102
RTVSPropertyOp48
 70
     1
102
RTVSPropertyOp49
 70
     1
102
RTVSPropertyOp50
 70
     1
102
RTVSPropertyOp51
 70
     0
102
RTVSPropertyOp52
 70
     0
102
RTVSPropertyOp53
 70
     1
102
RTVSPropertyOp54
 70
     1
102
RTVSPropertyOp55
 70
     1
102
RTVSPropertyOp56
 70
     1
102
RTVSPropertyOp57
 70
     1
102
RTVSPropertyOp58
 70
     1
102
RTVSPropertyOp59
 70
     1
102
RTVSPropertyOp60
 70
     1
102
RTVSPropertyOp61
 70
     1
102
RTVSPropertyOp62
 70
     1
  0
XRECORD
  5
2BB87
102
{ACAD_REACTORS
330
2BB86
102
}
330
2BB86
100
AcDbXrecord
280
     1
102
RTVSPost2010Prop28
280
     0
102
RTVSPost2010PropOp28
 70
     1
102
RTVSPost2010Prop29
280
     1
102
RTVSPost2010PropOp29
 70
     1
102
RTVSPost2010Prop30
280
     1
102
RTVSPost2010PropOp30
 70
     1
102
RTVSPost2010Prop31
280
     0
102
RTVSPost2010PropOp31
 70
     1
102
RTVSPost2010Prop32
280
     0
102
RTVSPost2010PropOp32
 70
     1
102
RTVSPost2010Prop33
280
     0
102
RTVSPost2010PropOp33
 70
     1
102
RTVSPost2010Prop34
280
     0
102
RTVSPost2010PropOp34
 70
     1
102
RTVSPost2010Prop35
280
     0
102
RTVSPost2010PropOp35
 70
     1
102
RTVSPost2010Prop36
280
     0
102
RTVSPost2010PropOp36
 70
     1
102
RTVSPost2010Prop37
 90
       50
102
RTVSPost2010PropOp37
 70
     1
102
RTVSPost2010Prop38
140
0.0
102
RTVSPost2010PropOp38
 70
     1
102
RTVSPost2010Prop39
140
1.0
102
RTVSPost2010PropOp39
 70
     1
102
RTVSPost2010Prop40
 90
        0
102
RTVSPost2010PropOp40
 70
     1
102
RTVSPost2010Prop41ColorIndex
 90
       18
102
RTVSPost2010Prop41ColorRGB
 90
        0
102
RTVSPost2010PropOp41
 70
     1
102
RTVSPost2010Prop42
 90
       50
102
RTVSPost2010PropOp42
 70
     1
102
RTVSPost2010Prop43
 90
        3
102
RTVSPost2010PropOp43
 70
     1
102
RTVSPost2010Prop44ColorIndex
 90
        5
102
RTVSPost2010Prop44ColorRGB
 90
      255
102
RTVSPost2010PropOp44
 70
     1
102
RTVSPost2010Prop45
280
     0
102
RTVSPost2010PropOp45
 70
     1
102
RTVSPost2010Prop46
 90
       50
102
RTVSPost2010PropOp46
 70
     1
102
RTVSPost2010Prop47
 90
       50
102
RTVSPost2010PropOp47
 70
     1
102
RTVSPost2010Prop48
 90
       50
102
RTVSPost2010PropOp48
 70
     1
102
RTVSPost2010Prop49
280
     0
102
RTVSPost2010PropOp49
 70
     1
102
RTVSPost2010Prop50
 90
       50
102
RTVSPost2010PropOp50
 70
     1
102
RTVSPost2010Prop51ColorIndex
 90
      256
102
RTVSPost2010Prop51ColorRGB
 90
-16777216
102
RTVSPost2010PropOp51
 70
     0
102
RTVSPost2010Prop52
140
1.0
102
RTVSPost2010PropOp52
 70
     0
102
RTVSPost2010Prop53
 90
        2
102
RTVSPost2010PropOp53
 70
     1
102
RTVSPost2010Prop54
  1
strokes_ogs.tif
102
RTVSPost2010PropOp54
 70
     1
102
RTVSPost2010Prop55
280
     0
102
RTVSPost2010PropOp55
 70
     1
102
RTVSPost2010Prop56
140
1.0
102
RTVSPost2010PropOp56
 70
     1
102
RTVSPost2010Prop57
140
1.0
102
RTVSPost2010PropOp57
 70
     1
102
RTVSPropertyOp0
 70
     1
102
RTVSPropertyOp1
 70
     1
102
RTVSPropertyOp2
 70
     1
102
RTVSPropertyOp3
 70
     1
102
RTVSPropertyOp4
 70
     1
102
RTVSPropertyOp5
 70
     1
102
RTVSPropertyOp6
 70
     1
102
RTVSPropertyOp7
 70
     1
102
RTVSPropertyOp8
 70
     1
102
RTVSPropertyOp9
 70
     1
102
RTVSPropertyOp10
 70
     1
102
RTVSPropertyOp11
 70
     1
102
RTVSPropertyOp12
 70
     1
102
RTVSPropertyOp13
 70
     1
102
RTVSPropertyOp14
 70
     1
102
RTVSPropertyOp15
 70
     1
102
RTVSPropertyOp16
 70
     1
102
RTVSPropertyOp17
 70
     1
102
RTVSPropertyOp18
 70
     1
102
RTVSPropertyOp19
 70
     1
102
RTVSPropertyOp20
 70
     1
102
RTVSPropertyOp21
 70
     1
102
RTVSPropertyOp22
 70
     1
102
RTVSPropertyOp23
 70
     1
102
RTVSPropertyOp24
 70
     1
102
RTVSPropertyOp25
 70
     1
102
RTVSPropertyOp26
 70
     1
102
RTVSPropertyOp27
 70
     1
102
RTVSPropertyOp28
 70
     1
102
RTVSPropertyOp29
 70
     1
102
RTVSPropertyOp30
 70
     1
102
RTVSPropertyOp31
 70
     1
102
RTVSPropertyOp32
 70
     1
102
RTVSPropertyOp33
 70
     1
102
RTVSPropertyOp34
 70
     1
102
RTVSPropertyOp35
 70
     1
102
RTVSPropertyOp36
 70
     1
102
RTVSPropertyOp37
 70
     1
102
RTVSPropertyOp38
 70
     1
102
RTVSPropertyOp39
 70
     1
102
RTVSPropertyOp40
 70
     1
102
RTVSPropertyOp41
 70
     1
102
RTVSPropertyOp42
 70
     1
102
RTVSPropertyOp43
 70
     1
102
RTVSPropertyOp44
 70
     1
102
RTVSPropertyOp45
 70
     1
102
RTVSPropertyOp46
 70
     1
102
RTVSPropertyOp47
 70
     1
102
RTVSPropertyOp48
 70
     1
102
RTVSPropertyOp49
 70
     1
102
RTVSPropertyOp50
 70
     1
102
RTVSPropertyOp51
 70
     0
102
RTVSPropertyOp52
 70
     0
102
RTVSPropertyOp53
 70
     1
102
RTVSPropertyOp54
 70
     1
102
RTVSPropertyOp55
 70
     1
102
RTVSPropertyOp56
 70
     1
102
RTVSPropertyOp57
 70
     1
102
RTVSPropertyOp58
 70
     1
102
RTVSPropertyOp59
 70
     1
102
RTVSPropertyOp60
 70
     1
102
RTVSPropertyOp61
 70
     1
102
RTVSPropertyOp62
 70
     1
  0
XRECORD
  5
2BB6B
102
{ACAD_REACTORS
330
2BB6A
102
}
330
2BB6A
100
AcDbXrecord
280
     1
102
RTVSPost2010Prop28
280
     0
102
RTVSPost2010PropOp28
 70
     1
102
RTVSPost2010Prop29
280
     1
102
RTVSPost2010PropOp29
 70
     1
102
RTVSPost2010Prop30
280
     1
102
RTVSPost2010PropOp30
 70
     1
102
RTVSPost2010Prop31
280
     0
102
RTVSPost2010PropOp31
 70
     1
102
RTVSPost2010Prop32
280
     0
102
RTVSPost2010PropOp32
 70
     1
102
RTVSPost2010Prop33
280
     0
102
RTVSPost2010PropOp33
 70
     1
102
RTVSPost2010Prop34
280
     0
102
RTVSPost2010PropOp34
 70
     1
102
RTVSPost2010Prop35
280
     0
102
RTVSPost2010PropOp35
 70
     1
102
RTVSPost2010Prop36
280
     0
102
RTVSPost2010PropOp36
 70
     1
102
RTVSPost2010Prop37
 90
       50
102
RTVSPost2010PropOp37
 70
     1
102
RTVSPost2010Prop38
140
0.0
102
RTVSPost2010PropOp38
 70
     1
102
RTVSPost2010Prop39
140
1.0
102
RTVSPost2010PropOp39
 70
     1
102
RTVSPost2010Prop40
 90
        0
102
RTVSPost2010PropOp40
 70
     1
102
RTVSPost2010Prop41ColorIndex
 90
       18
102
RTVSPost2010Prop41ColorRGB
 90
        0
102
RTVSPost2010PropOp41
 70
     1
102
RTVSPost2010Prop42
 90
       50
102
RTVSPost2010PropOp42
 70
     1
102
RTVSPost2010Prop43
 90
        3
102
RTVSPost2010PropOp43
 70
     1
102
RTVSPost2010Prop44ColorIndex
 90
        5
102
RTVSPost2010Prop44ColorRGB
 90
      255
102
RTVSPost2010PropOp44
 70
     1
102
RTVSPost2010Prop45
280
     0
102
RTVSPost2010PropOp45
 70
     1
102
RTVSPost2010Prop46
 90
       50
102
RTVSPost2010PropOp46
 70
     1
102
RTVSPost2010Prop47
 90
       50
102
RTVSPost2010PropOp47
 70
     1
102
RTVSPost2010Prop48
 90
       50
102
RTVSPost2010PropOp48
 70
     1
102
RTVSPost2010Prop49
280
     0
102
RTVSPost2010PropOp49
 70
     1
102
RTVSPost2010Prop50
 90
       50
102
RTVSPost2010PropOp50
 70
     1
102
RTVSPost2010Prop51ColorIndex
 90
      256
102
RTVSPost2010Prop51ColorRGB
 90
-16777216
102
RTVSPost2010PropOp51
 70
     0
102
RTVSPost2010Prop52
140
1.0
102
RTVSPost2010PropOp52
 70
     0
102
RTVSPost2010Prop53
 90
        2
102
RTVSPost2010PropOp53
 70
     1
102
RTVSPost2010Prop54
  1
strokes_ogs.tif
102
RTVSPost2010PropOp54
 70
     1
102
RTVSPost2010Prop55
280
     0
102
RTVSPost2010PropOp55
 70
     1
102
RTVSPost2010Prop56
140
1.0
102
RTVSPost2010PropOp56
 70
     1
102
RTVSPost2010Prop57
140
1.0
102
RTVSPost2010PropOp57
 70
     1
102
RTVSPropertyOp0
 70
     1
102
RTVSPropertyOp1
 70
     1
102
RTVSPropertyOp2
 70
     1
102
RTVSPropertyOp3
 70
     1
102
RTVSPropertyOp4
 70
     1
102
RTVSPropertyOp5
 70
     1
102
RTVSPropertyOp6
 70
     1
102
RTVSPropertyOp7
 70
     1
102
RTVSPropertyOp8
 70
     1
102
RTVSPropertyOp9
 70
     1
102
RTVSPropertyOp10
 70
     1
102
RTVSPropertyOp11
 70
     1
102
RTVSPropertyOp12
 70
     1
102
RTVSPropertyOp13
 70
     1
102
RTVSPropertyOp14
 70
     1
102
RTVSPropertyOp15
 70
     1
102
RTVSPropertyOp16
 70
     1
102
RTVSPropertyOp17
 70
     1
102
RTVSPropertyOp18
 70
     1
102
RTVSPropertyOp19
 70
     1
102
RTVSPropertyOp20
 70
     1
102
RTVSPropertyOp21
 70
     1
102
RTVSPropertyOp22
 70
     1
102
RTVSPropertyOp23
 70
     1
102
RTVSPropertyOp24
 70
     1
102
RTVSPropertyOp25
 70
     1
102
RTVSPropertyOp26
 70
     1
102
RTVSPropertyOp27
 70
     1
102
RTVSPropertyOp28
 70
     1
102
RTVSPropertyOp29
 70
     1
102
RTVSPropertyOp30
 70
     1
102
RTVSPropertyOp31
 70
     1
102
RTVSPropertyOp32
 70
     1
102
RTVSPropertyOp33
 70
     1
102
RTVSPropertyOp34
 70
     1
102
RTVSPropertyOp35
 70
     1
102
RTVSPropertyOp36
 70
     1
102
RTVSPropertyOp37
 70
     1
102
RTVSPropertyOp38
 70
     1
102
RTVSPropertyOp39
 70
     1
102
RTVSPropertyOp40
 70
     1
102
RTVSPropertyOp41
 70
     1
102
RTVSPropertyOp42
 70
     1
102
RTVSPropertyOp43
 70
     1
102
RTVSPropertyOp44
 70
     1
102
RTVSPropertyOp45
 70
     1
102
RTVSPropertyOp46
 70
     1
102
RTVSPropertyOp47
 70
     1
102
RTVSPropertyOp48
 70
     1
102
RTVSPropertyOp49
 70
     1
102
RTVSPropertyOp50
 70
     1
102
RTVSPropertyOp51
 70
     0
102
RTVSPropertyOp52
 70
     0
102
RTVSPropertyOp53
 70
     1
102
RTVSPropertyOp54
 70
     1
102
RTVSPropertyOp55
 70
     1
102
RTVSPropertyOp56
 70
     1
102
RTVSPropertyOp57
 70
     1
102
RTVSPropertyOp58
 70
     1
102
RTVSPropertyOp59
 70
     1
102
RTVSPropertyOp60
 70
     1
102
RTVSPropertyOp61
 70
     1
102
RTVSPropertyOp62
 70
     1
  0
XRECORD
  5
2BB6D
102
{ACAD_REACTORS
330
2BB6C
102
}
330
2BB6C
100
AcDbXrecord
280
     1
102
RTVSPost2010Prop28
280
     0
102
RTVSPost2010PropOp28
 70
     1
102
RTVSPost2010Prop29
280
     1
102
RTVSPost2010PropOp29
 70
     1
102
RTVSPost2010Prop30
280
     1
102
RTVSPost2010PropOp30
 70
     1
102
RTVSPost2010Prop31
280
     0
102
RTVSPost2010PropOp31
 70
     1
102
RTVSPost2010Prop32
280
     0
102
RTVSPost2010PropOp32
 70
     1
102
RTVSPost2010Prop33
280
     0
102
RTVSPost2010PropOp33
 70
     1
102
RTVSPost2010Prop34
280
     0
102
RTVSPost2010PropOp34
 70
     1
102
RTVSPost2010Prop35
280
     0
102
RTVSPost2010PropOp35
 70
     1
102
RTVSPost2010Prop36
280
     0
102
RTVSPost2010PropOp36
 70
     1
102
RTVSPost2010Prop37
 90
       50
102
RTVSPost2010PropOp37
 70
     1
102
RTVSPost2010Prop38
140
0.0
102
RTVSPost2010PropOp38
 70
     1
102
RTVSPost2010Prop39
140
1.0
102
RTVSPost2010PropOp39
 70
     1
102
RTVSPost2010Prop40
 90
        0
102
RTVSPost2010PropOp40
 70
     1
102
RTVSPost2010Prop41ColorIndex
 90
       18
102
RTVSPost2010Prop41ColorRGB
 90
        0
102
RTVSPost2010PropOp41
 70
     1
102
RTVSPost2010Prop42
 90
       50
102
RTVSPost2010PropOp42
 70
     1
102
RTVSPost2010Prop43
 90
        3
102
RTVSPost2010PropOp43
 70
     1
102
RTVSPost2010Prop44ColorIndex
 90
        5
102
RTVSPost2010Prop44ColorRGB
 90
      255
102
RTVSPost2010PropOp44
 70
     1
102
RTVSPost2010Prop45
280
     0
102
RTVSPost2010PropOp45
 70
     1
102
RTVSPost2010Prop46
 90
       50
102
RTVSPost2010PropOp46
 70
     1
102
RTVSPost2010Prop47
 90
       50
102
RTVSPost2010PropOp47
 70
     1
102
RTVSPost2010Prop48
 90
       50
102
RTVSPost2010PropOp48
 70
     1
102
RTVSPost2010Prop49
280
     0
102
RTVSPost2010PropOp49
 70
     1
102
RTVSPost2010Prop50
 90
       50
102
RTVSPost2010PropOp50
 70
     1
102
RTVSPost2010Prop51ColorIndex
 90
      256
102
RTVSPost2010Prop51ColorRGB
 90
-16777216
102
RTVSPost2010PropOp51
 70
     0
102
RTVSPost2010Prop52
140
1.0
102
RTVSPost2010PropOp52
 70
     0
102
RTVSPost2010Prop53
 90
        2
102
RTVSPost2010PropOp53
 70
     1
102
RTVSPost2010Prop54
  1
strokes_ogs.tif
102
RTVSPost2010PropOp54
 70
     1
102
RTVSPost2010Prop55
280
     0
102
RTVSPost2010PropOp55
 70
     1
102
RTVSPost2010Prop56
140
1.0
102
RTVSPost2010PropOp56
 70
     1
102
RTVSPost2010Prop57
140
1.0
102
RTVSPost2010PropOp57
 70
     1
102
RTVSPropertyOp0
 70
     1
102
RTVSPropertyOp1
 70
     1
102
RTVSPropertyOp2
 70
     1
102
RTVSPropertyOp3
 70
     1
102
RTVSPropertyOp4
 70
     1
102
RTVSPropertyOp5
 70
     1
102
RTVSPropertyOp6
 70
     1
102
RTVSPropertyOp7
 70
     1
102
RTVSPropertyOp8
 70
     1
102
RTVSPropertyOp9
 70
     1
102
RTVSPropertyOp10
 70
     1
102
RTVSPropertyOp11
 70
     1
102
RTVSPropertyOp12
 70
     1
102
RTVSPropertyOp13
 70
     1
102
RTVSPropertyOp14
 70
     1
102
RTVSPropertyOp15
 70
     1
102
RTVSPropertyOp16
 70
     1
102
RTVSPropertyOp17
 70
     1
102
RTVSPropertyOp18
 70
     1
102
RTVSPropertyOp19
 70
     1
102
RTVSPropertyOp20
 70
     1
102
RTVSPropertyOp21
 70
     1
102
RTVSPropertyOp22
 70
     1
102
RTVSPropertyOp23
 70
     1
102
RTVSPropertyOp24
 70
     1
102
RTVSPropertyOp25
 70
     1
102
RTVSPropertyOp26
 70
     1
102
RTVSPropertyOp27
 70
     1
102
RTVSPropertyOp28
 70
     1
102
RTVSPropertyOp29
 70
     1
102
RTVSPropertyOp30
 70
     1
102
RTVSPropertyOp31
 70
     1
102
RTVSPropertyOp32
 70
     1
102
RTVSPropertyOp33
 70
     1
102
RTVSPropertyOp34
 70
     1
102
RTVSPropertyOp35
 70
     1
102
RTVSPropertyOp36
 70
     1
102
RTVSPropertyOp37
 70
     1
102
RTVSPropertyOp38
 70
     1
102
RTVSPropertyOp39
 70
     1
102
RTVSPropertyOp40
 70
     1
102
RTVSPropertyOp41
 70
     1
102
RTVSPropertyOp42
 70
     1
102
RTVSPropertyOp43
 70
     1
102
RTVSPropertyOp44
 70
     1
102
RTVSPropertyOp45
 70
     1
102
RTVSPropertyOp46
 70
     1
102
RTVSPropertyOp47
 70
     1
102
RTVSPropertyOp48
 70
     1
102
RTVSPropertyOp49
 70
     1
102
RTVSPropertyOp50
 70
     1
102
RTVSPropertyOp51
 70
     0
102
RTVSPropertyOp52
 70
     0
102
RTVSPropertyOp53
 70
     1
102
RTVSPropertyOp54
 70
     1
102
RTVSPropertyOp55
 70
     1
102
RTVSPropertyOp56
 70
     1
102
RTVSPropertyOp57
 70
     1
102
RTVSPropertyOp58
 70
     1
102
RTVSPropertyOp59
 70
     1
102
RTVSPropertyOp60
 70
     1
102
RTVSPropertyOp61
 70
     1
102
RTVSPropertyOp62
 70
     1
  0
XRECORD
  5
2BB6F
102
{ACAD_REACTORS
330
2BB6E
102
}
330
2BB6E
100
AcDbXrecord
280
     1
102
RTVSPost2010Prop28
280
     0
102
RTVSPost2010PropOp28
 70
     1
102
RTVSPost2010Prop29
280
     1
102
RTVSPost2010PropOp29
 70
     1
102
RTVSPost2010Prop30
280
     1
102
RTVSPost2010PropOp30
 70
     1
102
RTVSPost2010Prop31
280
     0
102
RTVSPost2010PropOp31
 70
     1
102
RTVSPost2010Prop32
280
     0
102
RTVSPost2010PropOp32
 70
     1
102
RTVSPost2010Prop33
280
     0
102
RTVSPost2010PropOp33
 70
     1
102
RTVSPost2010Prop34
280
     0
102
RTVSPost2010PropOp34
 70
     1
102
RTVSPost2010Prop35
280
     0
102
RTVSPost2010PropOp35
 70
     1
102
RTVSPost2010Prop36
280
     0
102
RTVSPost2010PropOp36
 70
     1
102
RTVSPost2010Prop37
 90
       50
102
RTVSPost2010PropOp37
 70
     1
102
RTVSPost2010Prop38
140
0.0
102
RTVSPost2010PropOp38
 70
     1
102
RTVSPost2010Prop39
140
1.0
102
RTVSPost2010PropOp39
 70
     1
102
RTVSPost2010Prop40
 90
        0
102
RTVSPost2010PropOp40
 70
     1
102
RTVSPost2010Prop41ColorIndex
 90
       18
102
RTVSPost2010Prop41ColorRGB
 90
        0
102
RTVSPost2010PropOp41
 70
     1
102
RTVSPost2010Prop42
 90
       50
102
RTVSPost2010PropOp42
 70
     1
102
RTVSPost2010Prop43
 90
        3
102
RTVSPost2010PropOp43
 70
     1
102
RTVSPost2010Prop44ColorIndex
 90
        5
102
RTVSPost2010Prop44ColorRGB
 90
      255
102
RTVSPost2010PropOp44
 70
     1
102
RTVSPost2010Prop45
280
     0
102
RTVSPost2010PropOp45
 70
     1
102
RTVSPost2010Prop46
 90
       50
102
RTVSPost2010PropOp46
 70
     1
102
RTVSPost2010Prop47
 90
       50
102
RTVSPost2010PropOp47
 70
     1
102
RTVSPost2010Prop48
 90
       50
102
RTVSPost2010PropOp48
 70
     1
102
RTVSPost2010Prop49
280
     0
102
RTVSPost2010PropOp49
 70
     1
102
RTVSPost2010Prop50
 90
       50
102
RTVSPost2010PropOp50
 70
     1
102
RTVSPost2010Prop51ColorIndex
 90
      256
102
RTVSPost2010Prop51ColorRGB
 90
-16777216
102
RTVSPost2010PropOp51
 70
     0
102
RTVSPost2010Prop52
140
1.0
102
RTVSPost2010PropOp52
 70
     0
102
RTVSPost2010Prop53
 90
        2
102
RTVSPost2010PropOp53
 70
     1
102
RTVSPost2010Prop54
  1
strokes_ogs.tif
102
RTVSPost2010PropOp54
 70
     1
102
RTVSPost2010Prop55
280
     0
102
RTVSPost2010PropOp55
 70
     1
102
RTVSPost2010Prop56
140
1.0
102
RTVSPost2010PropOp56
 70
     1
102
RTVSPost2010Prop57
140
1.0
102
RTVSPost2010PropOp57
 70
     1
102
RTVSPropertyOp0
 70
     1
102
RTVSPropertyOp1
 70
     1
102
RTVSPropertyOp2
 70
     1
102
RTVSPropertyOp3
 70
     1
102
RTVSPropertyOp4
 70
     1
102
RTVSPropertyOp5
 70
     1
102
RTVSPropertyOp6
 70
     1
102
RTVSPropertyOp7
 70
     1
102
RTVSPropertyOp8
 70
     1
102
RTVSPropertyOp9
 70
     1
102
RTVSPropertyOp10
 70
     1
102
RTVSPropertyOp11
 70
     1
102
RTVSPropertyOp12
 70
     1
102
RTVSPropertyOp13
 70
     1
102
RTVSPropertyOp14
 70
     1
102
RTVSPropertyOp15
 70
     1
102
RTVSPropertyOp16
 70
     1
102
RTVSPropertyOp17
 70
     1
102
RTVSPropertyOp18
 70
     1
102
RTVSPropertyOp19
 70
     1
102
RTVSPropertyOp20
 70
     1
102
RTVSPropertyOp21
 70
     1
102
RTVSPropertyOp22
 70
     1
102
RTVSPropertyOp23
 70
     1
102
RTVSPropertyOp24
 70
     1
102
RTVSPropertyOp25
 70
     1
102
RTVSPropertyOp26
 70
     1
102
RTVSPropertyOp27
 70
     1
102
RTVSPropertyOp28
 70
     1
102
RTVSPropertyOp29
 70
     1
102
RTVSPropertyOp30
 70
     1
102
RTVSPropertyOp31
 70
     1
102
RTVSPropertyOp32
 70
     1
102
RTVSPropertyOp33
 70
     1
102
RTVSPropertyOp34
 70
     1
102
RTVSPropertyOp35
 70
     1
102
RTVSPropertyOp36
 70
     1
102
RTVSPropertyOp37
 70
     1
102
RTVSPropertyOp38
 70
     1
102
RTVSPropertyOp39
 70
     1
102
RTVSPropertyOp40
 70
     1
102
RTVSPropertyOp41
 70
     1
102
RTVSPropertyOp42
 70
     1
102
RTVSPropertyOp43
 70
     1
102
RTVSPropertyOp44
 70
     1
102
RTVSPropertyOp45
 70
     1
102
RTVSPropertyOp46
 70
     1
102
RTVSPropertyOp47
 70
     1
102
RTVSPropertyOp48
 70
     1
102
RTVSPropertyOp49
 70
     1
102
RTVSPropertyOp50
 70
     1
102
RTVSPropertyOp51
 70
     0
102
RTVSPropertyOp52
 70
     0
102
RTVSPropertyOp53
 70
     1
102
RTVSPropertyOp54
 70
     1
102
RTVSPropertyOp55
 70
     1
102
RTVSPropertyOp56
 70
     1
102
RTVSPropertyOp57
 70
     1
102
RTVSPropertyOp58
 70
     1
102
RTVSPropertyOp59
 70
     1
102
RTVSPropertyOp60
 70
     1
102
RTVSPropertyOp61
 70
     1
102
RTVSPropertyOp62
 70
     1
  0
XRECORD
  5
2BB71
102
{ACAD_REACTORS
330
2BB70
102
}
330
2BB70
100
AcDbXrecord
280
     1
102
RTVSPost2010Prop28
280
     0
102
RTVSPost2010PropOp28
 70
     1
102
RTVSPost2010Prop29
280
     1
102
RTVSPost2010PropOp29
 70
     1
102
RTVSPost2010Prop30
280
     1
102
RTVSPost2010PropOp30
 70
     1
102
RTVSPost2010Prop31
280
     0
102
RTVSPost2010PropOp31
 70
     1
102
RTVSPost2010Prop32
280
     0
102
RTVSPost2010PropOp32
 70
     1
102
RTVSPost2010Prop33
280
     0
102
RTVSPost2010PropOp33
 70
     1
102
RTVSPost2010Prop34
280
     0
102
RTVSPost2010PropOp34
 70
     1
102
RTVSPost2010Prop35
280
     0
102
RTVSPost2010PropOp35
 70
     1
102
RTVSPost2010Prop36
280
     0
102
RTVSPost2010PropOp36
 70
     1
102
RTVSPost2010Prop37
 90
       50
102
RTVSPost2010PropOp37
 70
     1
102
RTVSPost2010Prop38
140
0.0
102
RTVSPost2010PropOp38
 70
     1
102
RTVSPost2010Prop39
140
1.0
102
RTVSPost2010PropOp39
 70
     1
102
RTVSPost2010Prop40
 90
        0
102
RTVSPost2010PropOp40
 70
     1
102
RTVSPost2010Prop41ColorIndex
 90
       18
102
RTVSPost2010Prop41ColorRGB
 90
        0
102
RTVSPost2010PropOp41
 70
     1
102
RTVSPost2010Prop42
 90
       50
102
RTVSPost2010PropOp42
 70
     1
102
RTVSPost2010Prop43
 90
        3
102
RTVSPost2010PropOp43
 70
     1
102
RTVSPost2010Prop44ColorIndex
 90
        5
102
RTVSPost2010Prop44ColorRGB
 90
      255
102
RTVSPost2010PropOp44
 70
     1
102
RTVSPost2010Prop45
280
     0
102
RTVSPost2010PropOp45
 70
     1
102
RTVSPost2010Prop46
 90
       50
102
RTVSPost2010PropOp46
 70
     1
102
RTVSPost2010Prop47
 90
       50
102
RTVSPost2010PropOp47
 70
     1
102
RTVSPost2010Prop48
 90
       50
102
RTVSPost2010PropOp48
 70
     1
102
RTVSPost2010Prop49
280
     0
102
RTVSPost2010PropOp49
 70
     1
102
RTVSPost2010Prop50
 90
       50
102
RTVSPost2010PropOp50
 70
     1
102
RTVSPost2010Prop51ColorIndex
 90
      256
102
RTVSPost2010Prop51ColorRGB
 90
-16777216
102
RTVSPost2010PropOp51
 70
     0
102
RTVSPost2010Prop52
140
1.0
102
RTVSPost2010PropOp52
 70
     0
102
RTVSPost2010Prop53
 90
        2
102
RTVSPost2010PropOp53
 70
     1
102
RTVSPost2010Prop54
  1
strokes_ogs.tif
102
RTVSPost2010PropOp54
 70
     1
102
RTVSPost2010Prop55
280
     0
102
RTVSPost2010PropOp55
 70
     1
102
RTVSPost2010Prop56
140
1.0
102
RTVSPost2010PropOp56
 70
     1
102
RTVSPost2010Prop57
140
1.0
102
RTVSPost2010PropOp57
 70
     1
102
RTVSPropertyOp0
 70
     1
102
RTVSPropertyOp1
 70
     1
102
RTVSPropertyOp2
 70
     1
102
RTVSPropertyOp3
 70
     1
102
RTVSPropertyOp4
 70
     1
102
RTVSPropertyOp5
 70
     1
102
RTVSPropertyOp6
 70
     1
102
RTVSPropertyOp7
 70
     1
102
RTVSPropertyOp8
 70
     1
102
RTVSPropertyOp9
 70
     1
102
RTVSPropertyOp10
 70
     1
102
RTVSPropertyOp11
 70
     1
102
RTVSPropertyOp12
 70
     1
102
RTVSPropertyOp13
 70
     1
102
RTVSPropertyOp14
 70
     1
102
RTVSPropertyOp15
 70
     1
102
RTVSPropertyOp16
 70
     1
102
RTVSPropertyOp17
 70
     1
102
RTVSPropertyOp18
 70
     1
102
RTVSPropertyOp19
 70
     1
102
RTVSPropertyOp20
 70
     1
102
RTVSPropertyOp21
 70
     1
102
RTVSPropertyOp22
 70
     1
102
RTVSPropertyOp23
 70
     1
102
RTVSPropertyOp24
 70
     1
102
RTVSPropertyOp25
 70
     1
102
RTVSPropertyOp26
 70
     1
102
RTVSPropertyOp27
 70
     1
102
RTVSPropertyOp28
 70
     1
102
RTVSPropertyOp29
 70
     1
102
RTVSPropertyOp30
 70
     1
102
RTVSPropertyOp31
 70
     1
102
RTVSPropertyOp32
 70
     1
102
RTVSPropertyOp33
 70
     1
102
RTVSPropertyOp34
 70
     1
102
RTVSPropertyOp35
 70
     1
102
RTVSPropertyOp36
 70
     1
102
RTVSPropertyOp37
 70
     1
102
RTVSPropertyOp38
 70
     1
102
RTVSPropertyOp39
 70
     1
102
RTVSPropertyOp40
 70
     1
102
RTVSPropertyOp41
 70
     1
102
RTVSPropertyOp42
 70
     1
102
RTVSPropertyOp43
 70
     1
102
RTVSPropertyOp44
 70
     1
102
RTVSPropertyOp45
 70
     1
102
RTVSPropertyOp46
 70
     1
102
RTVSPropertyOp47
 70
     1
102
RTVSPropertyOp48
 70
     1
102
RTVSPropertyOp49
 70
     1
102
RTVSPropertyOp50
 70
     1
102
RTVSPropertyOp51
 70
     0
102
RTVSPropertyOp52
 70
     0
102
RTVSPropertyOp53
 70
     1
102
RTVSPropertyOp54
 70
     1
102
RTVSPropertyOp55
 70
     1
102
RTVSPropertyOp56
 70
     1
102
RTVSPropertyOp57
 70
     1
102
RTVSPropertyOp58
 70
     1
102
RTVSPropertyOp59
 70
     1
102
RTVSPropertyOp60
 70
     1
102
RTVSPropertyOp61
 70
     1
102
RTVSPropertyOp62
 70
     1
  0
XRECORD
  5
2BB79
102
{ACAD_REACTORS
330
2BB78
102
}
330
2BB78
100
AcDbXrecord
280
     1
102
RTVSPost2010Prop28
280
     0
102
RTVSPost2010PropOp28
 70
     1
102
RTVSPost2010Prop29
280
     1
102
RTVSPost2010PropOp29
 70
     1
102
RTVSPost2010Prop30
280
     1
102
RTVSPost2010PropOp30
 70
     1
102
RTVSPost2010Prop31
280
     0
102
RTVSPost2010PropOp31
 70
     1
102
RTVSPost2010Prop32
280
     0
102
RTVSPost2010PropOp32
 70
     1
102
RTVSPost2010Prop33
280
     0
102
RTVSPost2010PropOp33
 70
     1
102
RTVSPost2010Prop34
280
     0
102
RTVSPost2010PropOp34
 70
     1
102
RTVSPost2010Prop35
280
     0
102
RTVSPost2010PropOp35
 70
     1
102
RTVSPost2010Prop36
280
     0
102
RTVSPost2010PropOp36
 70
     1
102
RTVSPost2010Prop37
 90
       50
102
RTVSPost2010PropOp37
 70
     1
102
RTVSPost2010Prop38
140
0.0
102
RTVSPost2010PropOp38
 70
     1
102
RTVSPost2010Prop39
140
1.0
102
RTVSPost2010PropOp39
 70
     1
102
RTVSPost2010Prop40
 90
        0
102
RTVSPost2010PropOp40
 70
     1
102
RTVSPost2010Prop41ColorIndex
 90
       18
102
RTVSPost2010Prop41ColorRGB
 90
        0
102
RTVSPost2010PropOp41
 70
     1
102
RTVSPost2010Prop42
 90
       50
102
RTVSPost2010PropOp42
 70
     1
102
RTVSPost2010Prop43
 90
        3
102
RTVSPost2010PropOp43
 70
     1
102
RTVSPost2010Prop44ColorIndex
 90
        5
102
RTVSPost2010Prop44ColorRGB
 90
      255
102
RTVSPost2010PropOp44
 70
     1
102
RTVSPost2010Prop45
280
     0
102
RTVSPost2010PropOp45
 70
     1
102
RTVSPost2010Prop46
 90
       50
102
RTVSPost2010PropOp46
 70
     1
102
RTVSPost2010Prop47
 90
       50
102
RTVSPost2010PropOp47
 70
     1
102
RTVSPost2010Prop48
 90
       50
102
RTVSPost2010PropOp48
 70
     1
102
RTVSPost2010Prop49
280
     0
102
RTVSPost2010PropOp49
 70
     1
102
RTVSPost2010Prop50
 90
       50
102
RTVSPost2010PropOp50
 70
     1
102
RTVSPost2010Prop51ColorIndex
 90
      256
102
RTVSPost2010Prop51ColorRGB
 90
-16777216
102
RTVSPost2010PropOp51
 70
     0
102
RTVSPost2010Prop52
140
1.0
102
RTVSPost2010PropOp52
 70
     0
102
RTVSPost2010Prop53
 90
        2
102
RTVSPost2010PropOp53
 70
     1
102
RTVSPost2010Prop54
  1
strokes_ogs.tif
102
RTVSPost2010PropOp54
 70
     1
102
RTVSPost2010Prop55
280
     0
102
RTVSPost2010PropOp55
 70
     1
102
RTVSPost2010Prop56
140
1.0
102
RTVSPost2010PropOp56
 70
     1
102
RTVSPost2010Prop57
140
1.0
102
RTVSPost2010PropOp57
 70
     1
102
RTVSPropertyOp0
 70
     1
102
RTVSPropertyOp1
 70
     1
102
RTVSPropertyOp2
 70
     1
102
RTVSPropertyOp3
 70
     1
102
RTVSPropertyOp4
 70
     1
102
RTVSPropertyOp5
 70
     1
102
RTVSPropertyOp6
 70
     1
102
RTVSPropertyOp7
 70
     1
102
RTVSPropertyOp8
 70
     1
102
RTVSPropertyOp9
 70
     1
102
RTVSPropertyOp10
 70
     1
102
RTVSPropertyOp11
 70
     1
102
RTVSPropertyOp12
 70
     1
102
RTVSPropertyOp13
 70
     1
102
RTVSPropertyOp14
 70
     1
102
RTVSPropertyOp15
 70
     1
102
RTVSPropertyOp16
 70
     1
102
RTVSPropertyOp17
 70
     1
102
RTVSPropertyOp18
 70
     1
102
RTVSPropertyOp19
 70
     1
102
RTVSPropertyOp20
 70
     1
102
RTVSPropertyOp21
 70
     1
102
RTVSPropertyOp22
 70
     1
102
RTVSPropertyOp23
 70
     1
102
RTVSPropertyOp24
 70
     1
102
RTVSPropertyOp25
 70
     1
102
RTVSPropertyOp26
 70
     1
102
RTVSPropertyOp27
 70
     1
102
RTVSPropertyOp28
 70
     1
102
RTVSPropertyOp29
 70
     1
102
RTVSPropertyOp30
 70
     1
102
RTVSPropertyOp31
 70
     1
102
RTVSPropertyOp32
 70
     1
102
RTVSPropertyOp33
 70
     1
102
RTVSPropertyOp34
 70
     1
102
RTVSPropertyOp35
 70
     1
102
RTVSPropertyOp36
 70
     1
102
RTVSPropertyOp37
 70
     1
102
RTVSPropertyOp38
 70
     1
102
RTVSPropertyOp39
 70
     1
102
RTVSPropertyOp40
 70
     1
102
RTVSPropertyOp41
 70
     1
102
RTVSPropertyOp42
 70
     1
102
RTVSPropertyOp43
 70
     1
102
RTVSPropertyOp44
 70
     1
102
RTVSPropertyOp45
 70
     1
102
RTVSPropertyOp46
 70
     1
102
RTVSPropertyOp47
 70
     1
102
RTVSPropertyOp48
 70
     1
102
RTVSPropertyOp49
 70
     1
102
RTVSPropertyOp50
 70
     1
102
RTVSPropertyOp51
 70
     0
102
RTVSPropertyOp52
 70
     0
102
RTVSPropertyOp53
 70
     1
102
RTVSPropertyOp54
 70
     1
102
RTVSPropertyOp55
 70
     1
102
RTVSPropertyOp56
 70
     1
102
RTVSPropertyOp57
 70
     1
102
RTVSPropertyOp58
 70
     1
102
RTVSPropertyOp59
 70
     1
102
RTVSPropertyOp60
 70
     1
102
RTVSPropertyOp61
 70
     1
102
RTVSPropertyOp62
 70
     1
  0
XRECORD
  5
2BB8D
102
{ACAD_REACTORS
330
2BB8C
102
}
330
2BB8C
100
AcDbXrecord
280
     1
102
RTVSPost2010Prop28
280
     0
102
RTVSPost2010PropOp28
 70
     1
102
RTVSPost2010Prop29
280
     1
102
RTVSPost2010PropOp29
 70
     1
102
RTVSPost2010Prop30
280
     1
102
RTVSPost2010PropOp30
 70
     1
102
RTVSPost2010Prop31
280
     0
102
RTVSPost2010PropOp31
 70
     1
102
RTVSPost2010Prop32
280
     0
102
RTVSPost2010PropOp32
 70
     1
102
RTVSPost2010Prop33
280
     0
102
RTVSPost2010PropOp33
 70
     1
102
RTVSPost2010Prop34
280
     0
102
RTVSPost2010PropOp34
 70
     1
102
RTVSPost2010Prop35
280
     0
102
RTVSPost2010PropOp35
 70
     1
102
RTVSPost2010Prop36
280
     0
102
RTVSPost2010PropOp36
 70
     1
102
RTVSPost2010Prop37
 90
       50
102
RTVSPost2010PropOp37
 70
     1
102
RTVSPost2010Prop38
140
0.0
102
RTVSPost2010PropOp38
 70
     1
102
RTVSPost2010Prop39
140
1.0
102
RTVSPost2010PropOp39
 70
     1
102
RTVSPost2010Prop40
 90
        0
102
RTVSPost2010PropOp40
 70
     1
102
RTVSPost2010Prop41ColorIndex
 90
       18
102
RTVSPost2010Prop41ColorRGB
 90
        0
102
RTVSPost2010PropOp41
 70
     1
102
RTVSPost2010Prop42
 90
       50
102
RTVSPost2010PropOp42
 70
     1
102
RTVSPost2010Prop43
 90
        3
102
RTVSPost2010PropOp43
 70
     1
102
RTVSPost2010Prop44ColorIndex
 90
        5
102
RTVSPost2010Prop44ColorRGB
 90
      255
102
RTVSPost2010PropOp44
 70
     1
102
RTVSPost2010Prop45
280
     0
102
RTVSPost2010PropOp45
 70
     1
102
RTVSPost2010Prop46
 90
       50
102
RTVSPost2010PropOp46
 70
     1
102
RTVSPost2010Prop47
 90
       50
102
RTVSPost2010PropOp47
 70
     1
102
RTVSPost2010Prop48
 90
       50
102
RTVSPost2010PropOp48
 70
     1
102
RTVSPost2010Prop49
280
     0
102
RTVSPost2010PropOp49
 70
     1
102
RTVSPost2010Prop50
 90
       50
102
RTVSPost2010PropOp50
 70
     1
102
RTVSPost2010Prop51ColorIndex
 90
      256
102
RTVSPost2010Prop51ColorRGB
 90
-16777216
102
RTVSPost2010PropOp51
 70
     0
102
RTVSPost2010Prop52
140
1.0
102
RTVSPost2010PropOp52
 70
     0
102
RTVSPost2010Prop53
 90
        2
102
RTVSPost2010PropOp53
 70
     1
102
RTVSPost2010Prop54
  1
strokes_ogs.tif
102
RTVSPost2010PropOp54
 70
     1
102
RTVSPost2010Prop55
280
     0
102
RTVSPost2010PropOp55
 70
     1
102
RTVSPost2010Prop56
140
1.0
102
RTVSPost2010PropOp56
 70
     1
102
RTVSPost2010Prop57
140
1.0
102
RTVSPost2010PropOp57
 70
     1
102
RTVSPropertyOp0
 70
     0
102
RTVSPropertyOp1
 70
     0
102
RTVSPropertyOp2
 70
     0
102
RTVSPropertyOp3
 70
     0
102
RTVSPropertyOp4
 70
     0
102
RTVSPropertyOp5
 70
     0
102
RTVSPropertyOp6
 70
     0
102
RTVSPropertyOp7
 70
     0
102
RTVSPropertyOp8
 70
     0
102
RTVSPropertyOp9
 70
     0
102
RTVSPropertyOp10
 70
     0
102
RTVSPropertyOp11
 70
     0
102
RTVSPropertyOp12
 70
     0
102
RTVSPropertyOp13
 70
     0
102
RTVSPropertyOp14
 70
     2
102
RTVSPropertyOp15
 70
     0
102
RTVSPropertyOp16
 70
     0
102
RTVSPropertyOp17
 70
     0
102
RTVSPropertyOp18
 70
     0
102
RTVSPropertyOp19
 70
     0
102
RTVSPropertyOp20
 70
     0
102
RTVSPropertyOp21
 70
     0
102
RTVSPropertyOp22
 70
     0
102
RTVSPropertyOp23
 70
     0
102
RTVSPropertyOp24
 70
     0
102
RTVSPropertyOp25
 70
     0
102
RTVSPropertyOp26
 70
     0
102
RTVSPropertyOp27
 70
     0
102
RTVSPropertyOp28
 70
     1
102
RTVSPropertyOp29
 70
     1
102
RTVSPropertyOp30
 70
     1
102
RTVSPropertyOp31
 70
     1
102
RTVSPropertyOp32
 70
     1
102
RTVSPropertyOp33
 70
     1
102
RTVSPropertyOp34
 70
     1
102
RTVSPropertyOp35
 70
     1
102
RTVSPropertyOp36
 70
     1
102
RTVSPropertyOp37
 70
     1
102
RTVSPropertyOp38
 70
     1
102
RTVSPropertyOp39
 70
     1
102
RTVSPropertyOp40
 70
     1
102
RTVSPropertyOp41
 70
     1
102
RTVSPropertyOp42
 70
     1
102
RTVSPropertyOp43
 70
     1
102
RTVSPropertyOp44
 70
     1
102
RTVSPropertyOp45
 70
     1
102
RTVSPropertyOp46
 70
     1
102
RTVSPropertyOp47
 70
     1
102
RTVSPropertyOp48
 70
     1
102
RTVSPropertyOp49
 70
     1
102
RTVSPropertyOp50
 70
     1
102
RTVSPropertyOp51
 70
     0
102
RTVSPropertyOp52
 70
     0
102
RTVSPropertyOp53
 70
     1
102
RTVSPropertyOp54
 70
     1
102
RTVSPropertyOp55
 70
     1
102
RTVSPropertyOp56
 70
     1
102
RTVSPropertyOp57
 70
     1
102
RTVSPropertyOp58
 70
     1
102
RTVSPropertyOp59
 70
     1
102
RTVSPropertyOp60
 70
     1
102
RTVSPropertyOp61
 70
     1
102
RTVSPropertyOp62
 70
     1
  0
XRECORD
  5
2BB85
102
{ACAD_REACTORS
330
2BB84
102
}
330
2BB84
100
AcDbXrecord
280
     1
102
RTVSPost2010Prop28
280
     0
102
RTVSPost2010PropOp28
 70
     1
102
RTVSPost2010Prop29
280
     1
102
RTVSPost2010PropOp29
 70
     1
102
RTVSPost2010Prop30
280
     1
102
RTVSPost2010PropOp30
 70
     1
102
RTVSPost2010Prop31
280
     0
102
RTVSPost2010PropOp31
 70
     1
102
RTVSPost2010Prop32
280
     0
102
RTVSPost2010PropOp32
 70
     1
102
RTVSPost2010Prop33
280
     0
102
RTVSPost2010PropOp33
 70
     1
102
RTVSPost2010Prop34
280
     0
102
RTVSPost2010PropOp34
 70
     1
102
RTVSPost2010Prop35
280
     0
102
RTVSPost2010PropOp35
 70
     1
102
RTVSPost2010Prop36
280
     0
102
RTVSPost2010PropOp36
 70
     1
102
RTVSPost2010Prop37
 90
       50
102
RTVSPost2010PropOp37
 70
     1
102
RTVSPost2010Prop38
140
0.0
102
RTVSPost2010PropOp38
 70
     1
102
RTVSPost2010Prop39
140
1.0
102
RTVSPost2010PropOp39
 70
     1
102
RTVSPost2010Prop40
 90
        0
102
RTVSPost2010PropOp40
 70
     1
102
RTVSPost2010Prop41ColorIndex
 90
       18
102
RTVSPost2010Prop41ColorRGB
 90
        0
102
RTVSPost2010PropOp41
 70
     1
102
RTVSPost2010Prop42
 90
       50
102
RTVSPost2010PropOp42
 70
     1
102
RTVSPost2010Prop43
 90
        3
102
RTVSPost2010PropOp43
 70
     1
102
RTVSPost2010Prop44ColorIndex
 90
        5
102
RTVSPost2010Prop44ColorRGB
 90
      255
102
RTVSPost2010PropOp44
 70
     1
102
RTVSPost2010Prop45
280
     0
102
RTVSPost2010PropOp45
 70
     1
102
RTVSPost2010Prop46
 90
       50
102
RTVSPost2010PropOp46
 70
     1
102
RTVSPost2010Prop47
 90
       50
102
RTVSPost2010PropOp47
 70
     1
102
RTVSPost2010Prop48
 90
       50
102
RTVSPost2010PropOp48
 70
     1
102
RTVSPost2010Prop49
280
     0
102
RTVSPost2010PropOp49
 70
     1
102
RTVSPost2010Prop50
 90
       50
102
RTVSPost2010PropOp50
 70
     1
102
RTVSPost2010Prop51ColorIndex
 90
      256
102
RTVSPost2010Prop51ColorRGB
 90
-16777216
102
RTVSPost2010PropOp51
 70
     0
102
RTVSPost2010Prop52
140
1.0
102
RTVSPost2010PropOp52
 70
     0
102
RTVSPost2010Prop53
 90
        2
102
RTVSPost2010PropOp53
 70
     1
102
RTVSPost2010Prop54
  1
strokes_ogs.tif
102
RTVSPost2010PropOp54
 70
     1
102
RTVSPost2010Prop55
280
     0
102
RTVSPost2010PropOp55
 70
     1
102
RTVSPost2010Prop56
140
1.0
102
RTVSPost2010PropOp56
 70
     1
102
RTVSPost2010Prop57
140
1.0
102
RTVSPost2010PropOp57
 70
     1
102
RTVSPropertyOp0
 70
     1
102
RTVSPropertyOp1
 70
     1
102
RTVSPropertyOp2
 70
     1
102
RTVSPropertyOp3
 70
     1
102
RTVSPropertyOp4
 70
     1
102
RTVSPropertyOp5
 70
     1
102
RTVSPropertyOp6
 70
     1
102
RTVSPropertyOp7
 70
     1
102
RTVSPropertyOp8
 70
     1
102
RTVSPropertyOp9
 70
     1
102
RTVSPropertyOp10
 70
     1
102
RTVSPropertyOp11
 70
     1
102
RTVSPropertyOp12
 70
     1
102
RTVSPropertyOp13
 70
     1
102
RTVSPropertyOp14
 70
     1
102
RTVSPropertyOp15
 70
     1
102
RTVSPropertyOp16
 70
     1
102
RTVSPropertyOp17
 70
     1
102
RTVSPropertyOp18
 70
     1
102
RTVSPropertyOp19
 70
     1
102
RTVSPropertyOp20
 70
     1
102
RTVSPropertyOp21
 70
     1
102
RTVSPropertyOp22
 70
     1
102
RTVSPropertyOp23
 70
     1
102
RTVSPropertyOp24
 70
     1
102
RTVSPropertyOp25
 70
     1
102
RTVSPropertyOp26
 70
     1
102
RTVSPropertyOp27
 70
     1
102
RTVSPropertyOp28
 70
     1
102
RTVSPropertyOp29
 70
     1
102
RTVSPropertyOp30
 70
     1
102
RTVSPropertyOp31
 70
     1
102
RTVSPropertyOp32
 70
     1
102
RTVSPropertyOp33
 70
     1
102
RTVSPropertyOp34
 70
     1
102
RTVSPropertyOp35
 70
     1
102
RTVSPropertyOp36
 70
     1
102
RTVSPropertyOp37
 70
     1
102
RTVSPropertyOp38
 70
     1
102
RTVSPropertyOp39
 70
     1
102
RTVSPropertyOp40
 70
     1
102
RTVSPropertyOp41
 70
     1
102
RTVSPropertyOp42
 70
     1
102
RTVSPropertyOp43
 70
     1
102
RTVSPropertyOp44
 70
     1
102
RTVSPropertyOp45
 70
     1
102
RTVSPropertyOp46
 70
     1
102
RTVSPropertyOp47
 70
     1
102
RTVSPropertyOp48
 70
     1
102
RTVSPropertyOp49
 70
     1
102
RTVSPropertyOp50
 70
     1
102
RTVSPropertyOp51
 70
     0
102
RTVSPropertyOp52
 70
     0
102
RTVSPropertyOp53
 70
     1
102
RTVSPropertyOp54
 70
     1
102
RTVSPropertyOp55
 70
     1
102
RTVSPropertyOp56
 70
     1
102
RTVSPropertyOp57
 70
     1
102
RTVSPropertyOp58
 70
     1
102
RTVSPropertyOp59
 70
     1
102
RTVSPropertyOp60
 70
     1
102
RTVSPropertyOp61
 70
     1
102
RTVSPropertyOp62
 70
     1
  0
XRECORD
  5
2BB8F
102
{ACAD_REACTORS
330
2BB8E
102
}
330
2BB8E
100
AcDbXrecord
280
     1
102
RTVSPost2010Prop28
280
     0
102
RTVSPost2010PropOp28
 70
     1
102
RTVSPost2010Prop29
280
     1
102
RTVSPost2010PropOp29
 70
     1
102
RTVSPost2010Prop30
280
     1
102
RTVSPost2010PropOp30
 70
     1
102
RTVSPost2010Prop31
280
     0
102
RTVSPost2010PropOp31
 70
     1
102
RTVSPost2010Prop32
280
     0
102
RTVSPost2010PropOp32
 70
     1
102
RTVSPost2010Prop33
280
     0
102
RTVSPost2010PropOp33
 70
     1
102
RTVSPost2010Prop34
280
     0
102
RTVSPost2010PropOp34
 70
     1
102
RTVSPost2010Prop35
280
     0
102
RTVSPost2010PropOp35
 70
     1
102
RTVSPost2010Prop36
280
     0
102
RTVSPost2010PropOp36
 70
     1
102
RTVSPost2010Prop37
 90
       50
102
RTVSPost2010PropOp37
 70
     1
102
RTVSPost2010Prop38
140
0.0
102
RTVSPost2010PropOp38
 70
     1
102
RTVSPost2010Prop39
140
1.0
102
RTVSPost2010PropOp39
 70
     1
102
RTVSPost2010Prop40
 90
        0
102
RTVSPost2010PropOp40
 70
     1
102
RTVSPost2010Prop41ColorIndex
 90
       18
102
RTVSPost2010Prop41ColorRGB
 90
        0
102
RTVSPost2010PropOp41
 70
     1
102
RTVSPost2010Prop42
 90
       50
102
RTVSPost2010PropOp42
 70
     1
102
RTVSPost2010Prop43
 90
        3
102
RTVSPost2010PropOp43
 70
     1
102
RTVSPost2010Prop44ColorIndex
 90
        5
102
RTVSPost2010Prop44ColorRGB
 90
      255
102
RTVSPost2010PropOp44
 70
     1
102
RTVSPost2010Prop45
280
     0
102
RTVSPost2010PropOp45
 70
     1
102
RTVSPost2010Prop46
 90
       50
102
RTVSPost2010PropOp46
 70
     1
102
RTVSPost2010Prop47
 90
       50
102
RTVSPost2010PropOp47
 70
     1
102
RTVSPost2010Prop48
 90
       50
102
RTVSPost2010PropOp48
 70
     1
102
RTVSPost2010Prop49
280
     0
102
RTVSPost2010PropOp49
 70
     1
102
RTVSPost2010Prop50
 90
       50
102
RTVSPost2010PropOp50
 70
     1
102
RTVSPost2010Prop51ColorIndex
 90
      256
102
RTVSPost2010Prop51ColorRGB
 90
-16777216
102
RTVSPost2010PropOp51
 70
     0
102
RTVSPost2010Prop52
140
1.0
102
RTVSPost2010PropOp52
 70
     0
102
RTVSPost2010Prop53
 90
        2
102
RTVSPost2010PropOp53
 70
     1
102
RTVSPost2010Prop54
  1
strokes_ogs.tif
102
RTVSPost2010PropOp54
 70
     1
102
RTVSPost2010Prop55
280
     0
102
RTVSPost2010PropOp55
 70
     1
102
RTVSPost2010Prop56
140
1.0
102
RTVSPost2010PropOp56
 70
     1
102
RTVSPost2010Prop57
140
1.0
102
RTVSPost2010PropOp57
 70
     1
102
RTVSPropertyOp0
 70
     0
102
RTVSPropertyOp1
 70
     0
102
RTVSPropertyOp2
 70
     0
102
RTVSPropertyOp3
 70
     0
102
RTVSPropertyOp4
 70
     0
102
RTVSPropertyOp5
 70
     0
102
RTVSPropertyOp6
 70
     0
102
RTVSPropertyOp7
 70
     0
102
RTVSPropertyOp8
 70
     0
102
RTVSPropertyOp9
 70
     0
102
RTVSPropertyOp10
 70
     0
102
RTVSPropertyOp11
 70
     0
102
RTVSPropertyOp12
 70
     0
102
RTVSPropertyOp13
 70
     0
102
RTVSPropertyOp14
 70
     2
102
RTVSPropertyOp15
 70
     0
102
RTVSPropertyOp16
 70
     0
102
RTVSPropertyOp17
 70
     0
102
RTVSPropertyOp18
 70
     0
102
RTVSPropertyOp19
 70
     0
102
RTVSPropertyOp20
 70
     0
102
RTVSPropertyOp21
 70
     0
102
RTVSPropertyOp22
 70
     0
102
RTVSPropertyOp23
 70
     0
102
RTVSPropertyOp24
 70
     0
102
RTVSPropertyOp25
 70
     0
102
RTVSPropertyOp26
 70
     0
102
RTVSPropertyOp27
 70
     0
102
RTVSPropertyOp28
 70
     1
102
RTVSPropertyOp29
 70
     1
102
RTVSPropertyOp30
 70
     1
102
RTVSPropertyOp31
 70
     1
102
RTVSPropertyOp32
 70
     1
102
RTVSPropertyOp33
 70
     1
102
RTVSPropertyOp34
 70
     1
102
RTVSPropertyOp35
 70
     1
102
RTVSPropertyOp36
 70
     1
102
RTVSPropertyOp37
 70
     1
102
RTVSPropertyOp38
 70
     1
102
RTVSPropertyOp39
 70
     1
102
RTVSPropertyOp40
 70
     1
102
RTVSPropertyOp41
 70
     1
102
RTVSPropertyOp42
 70
     1
102
RTVSPropertyOp43
 70
     1
102
RTVSPropertyOp44
 70
     1
102
RTVSPropertyOp45
 70
     1
102
RTVSPropertyOp46
 70
     1
102
RTVSPropertyOp47
 70
     1
102
RTVSPropertyOp48
 70
     1
102
RTVSPropertyOp49
 70
     1
102
RTVSPropertyOp50
 70
     1
102
RTVSPropertyOp51
 70
     0
102
RTVSPropertyOp52
 70
     0
102
RTVSPropertyOp53
 70
     1
102
RTVSPropertyOp54
 70
     1
102
RTVSPropertyOp55
 70
     1
102
RTVSPropertyOp56
 70
     1
102
RTVSPropertyOp57
 70
     1
102
RTVSPropertyOp58
 70
     1
102
RTVSPropertyOp59
 70
     1
102
RTVSPropertyOp60
 70
     1
102
RTVSPropertyOp61
 70
     1
102
RTVSPropertyOp62
 70
     1
  0
XRECORD
  5
2BB7D
102
{ACAD_REACTORS
330
2BB7C
102
}
330
2BB7C
100
AcDbXrecord
280
     1
102
RTVSPost2010Prop28
280
     0
102
RTVSPost2010PropOp28
 70
     1
102
RTVSPost2010Prop29
280
     1
102
RTVSPost2010PropOp29
 70
     1
102
RTVSPost2010Prop30
280
     1
102
RTVSPost2010PropOp30
 70
     1
102
RTVSPost2010Prop31
280
     0
102
RTVSPost2010PropOp31
 70
     1
102
RTVSPost2010Prop32
280
     0
102
RTVSPost2010PropOp32
 70
     1
102
RTVSPost2010Prop33
280
     0
102
RTVSPost2010PropOp33
 70
     1
102
RTVSPost2010Prop34
280
     0
102
RTVSPost2010PropOp34
 70
     1
102
RTVSPost2010Prop35
280
     0
102
RTVSPost2010PropOp35
 70
     1
102
RTVSPost2010Prop36
280
     0
102
RTVSPost2010PropOp36
 70
     1
102
RTVSPost2010Prop37
 90
       50
102
RTVSPost2010PropOp37
 70
     1
102
RTVSPost2010Prop38
140
0.0
102
RTVSPost2010PropOp38
 70
     1
102
RTVSPost2010Prop39
140
1.0
102
RTVSPost2010PropOp39
 70
     1
102
RTVSPost2010Prop40
 90
        0
102
RTVSPost2010PropOp40
 70
     1
102
RTVSPost2010Prop41ColorIndex
 90
       18
102
RTVSPost2010Prop41ColorRGB
 90
        0
102
RTVSPost2010PropOp41
 70
     1
102
RTVSPost2010Prop42
 90
       50
102
RTVSPost2010PropOp42
 70
     1
102
RTVSPost2010Prop43
 90
        3
102
RTVSPost2010PropOp43
 70
     1
102
RTVSPost2010Prop44ColorIndex
 90
        5
102
RTVSPost2010Prop44ColorRGB
 90
      255
102
RTVSPost2010PropOp44
 70
     1
102
RTVSPost2010Prop45
280
     0
102
RTVSPost2010PropOp45
 70
     1
102
RTVSPost2010Prop46
 90
       50
102
RTVSPost2010PropOp46
 70
     1
102
RTVSPost2010Prop47
 90
       50
102
RTVSPost2010PropOp47
 70
     1
102
RTVSPost2010Prop48
 90
       50
102
RTVSPost2010PropOp48
 70
     1
102
RTVSPost2010Prop49
280
     0
102
RTVSPost2010PropOp49
 70
     1
102
RTVSPost2010Prop50
 90
       50
102
RTVSPost2010PropOp50
 70
     1
102
RTVSPost2010Prop51ColorIndex
 90
      256
102
RTVSPost2010Prop51ColorRGB
 90
-16777216
102
RTVSPost2010PropOp51
 70
     0
102
RTVSPost2010Prop52
140
1.0
102
RTVSPost2010PropOp52
 70
     0
102
RTVSPost2010Prop53
 90
        2
102
RTVSPost2010PropOp53
 70
     1
102
RTVSPost2010Prop54
  1
strokes_ogs.tif
102
RTVSPost2010PropOp54
 70
     1
102
RTVSPost2010Prop55
280
     0
102
RTVSPost2010PropOp55
 70
     1
102
RTVSPost2010Prop56
140
1.0
102
RTVSPost2010PropOp56
 70
     1
102
RTVSPost2010Prop57
140
1.0
102
RTVSPost2010PropOp57
 70
     1
102
RTVSPropertyOp0
 70
     1
102
RTVSPropertyOp1
 70
     1
102
RTVSPropertyOp2
 70
     1
102
RTVSPropertyOp3
 70
     1
102
RTVSPropertyOp4
 70
     1
102
RTVSPropertyOp5
 70
     1
102
RTVSPropertyOp6
 70
     1
102
RTVSPropertyOp7
 70
     1
102
RTVSPropertyOp8
 70
     1
102
RTVSPropertyOp9
 70
     1
102
RTVSPropertyOp10
 70
     1
102
RTVSPropertyOp11
 70
     1
102
RTVSPropertyOp12
 70
     1
102
RTVSPropertyOp13
 70
     1
102
RTVSPropertyOp14
 70
     1
102
RTVSPropertyOp15
 70
     1
102
RTVSPropertyOp16
 70
     1
102
RTVSPropertyOp17
 70
     1
102
RTVSPropertyOp18
 70
     1
102
RTVSPropertyOp19
 70
     1
102
RTVSPropertyOp20
 70
     1
102
RTVSPropertyOp21
 70
     1
102
RTVSPropertyOp22
 70
     1
102
RTVSPropertyOp23
 70
     1
102
RTVSPropertyOp24
 70
     1
102
RTVSPropertyOp25
 70
     1
102
RTVSPropertyOp26
 70
     1
102
RTVSPropertyOp27
 70
     1
102
RTVSPropertyOp28
 70
     1
102
RTVSPropertyOp29
 70
     1
102
RTVSPropertyOp30
 70
     1
102
RTVSPropertyOp31
 70
     1
102
RTVSPropertyOp32
 70
     1
102
RTVSPropertyOp33
 70
     1
102
RTVSPropertyOp34
 70
     1
102
RTVSPropertyOp35
 70
     1
102
RTVSPropertyOp36
 70
     1
102
RTVSPropertyOp37
 70
     1
102
RTVSPropertyOp38
 70
     1
102
RTVSPropertyOp39
 70
     1
102
RTVSPropertyOp40
 70
     1
102
RTVSPropertyOp41
 70
     1
102
RTVSPropertyOp42
 70
     1
102
RTVSPropertyOp43
 70
     1
102
RTVSPropertyOp44
 70
     1
102
RTVSPropertyOp45
 70
     1
102
RTVSPropertyOp46
 70
     1
102
RTVSPropertyOp47
 70
     1
102
RTVSPropertyOp48
 70
     1
102
RTVSPropertyOp49
 70
     1
102
RTVSPropertyOp50
 70
     1
102
RTVSPropertyOp51
 70
     0
102
RTVSPropertyOp52
 70
     0
102
RTVSPropertyOp53
 70
     1
102
RTVSPropertyOp54
 70
     1
102
RTVSPropertyOp55
 70
     1
102
RTVSPropertyOp56
 70
     1
102
RTVSPropertyOp57
 70
     1
102
RTVSPropertyOp58
 70
     1
102
RTVSPropertyOp59
 70
     1
102
RTVSPropertyOp60
 70
     1
102
RTVSPropertyOp61
 70
     1
102
RTVSPropertyOp62
 70
     1
  0
XRECORD
  5
2BB9B
102
{ACAD_REACTORS
330
2BB9A
102
}
330
2BB9A
100
AcDbXrecord
280
     1
102
RTVSPost2010Prop28
280
     0
102
RTVSPost2010PropOp28
 70
     1
102
RTVSPost2010Prop29
280
     1
102
RTVSPost2010PropOp29
 70
     1
102
RTVSPost2010Prop30
280
     1
102
RTVSPost2010PropOp30
 70
     1
102
RTVSPost2010Prop31
280
     0
102
RTVSPost2010PropOp31
 70
     1
102
RTVSPost2010Prop32
280
     0
102
RTVSPost2010PropOp32
 70
     1
102
RTVSPost2010Prop33
280
     0
102
RTVSPost2010PropOp33
 70
     1
102
RTVSPost2010Prop34
280
     0
102
RTVSPost2010PropOp34
 70
     1
102
RTVSPost2010Prop35
280
     0
102
RTVSPost2010PropOp35
 70
     1
102
RTVSPost2010Prop36
280
     0
102
RTVSPost2010PropOp36
 70
     1
102
RTVSPost2010Prop37
 90
       50
102
RTVSPost2010PropOp37
 70
     1
102
RTVSPost2010Prop38
140
0.0
102
RTVSPost2010PropOp38
 70
     1
102
RTVSPost2010Prop39
140
1.0
102
RTVSPost2010PropOp39
 70
     1
102
RTVSPost2010Prop40
 90
        0
102
RTVSPost2010PropOp40
 70
     1
102
RTVSPost2010Prop41ColorIndex
 90
       18
102
RTVSPost2010Prop41ColorRGB
 90
        0
102
RTVSPost2010PropOp41
 70
     1
102
RTVSPost2010Prop42
 90
       50
102
RTVSPost2010PropOp42
 70
     1
102
RTVSPost2010Prop43
 90
        3
102
RTVSPost2010PropOp43
 70
     1
102
RTVSPost2010Prop44ColorIndex
 90
        5
102
RTVSPost2010Prop44ColorRGB
 90
      255
102
RTVSPost2010PropOp44
 70
     1
102
RTVSPost2010Prop45
280
     0
102
RTVSPost2010PropOp45
 70
     1
102
RTVSPost2010Prop46
 90
       50
102
RTVSPost2010PropOp46
 70
     1
102
RTVSPost2010Prop47
 90
       50
102
RTVSPost2010PropOp47
 70
     1
102
RTVSPost2010Prop48
 90
       50
102
RTVSPost2010PropOp48
 70
     1
102
RTVSPost2010Prop49
280
     0
102
RTVSPost2010PropOp49
 70
     1
102
RTVSPost2010Prop50
 90
       50
102
RTVSPost2010PropOp50
 70
     1
102
RTVSPost2010Prop51ColorIndex
 90
      256
102
RTVSPost2010Prop51ColorRGB
 90
-16777216
102
RTVSPost2010PropOp51
 70
     0
102
RTVSPost2010Prop52
140
1.0
102
RTVSPost2010PropOp52
 70
     0
102
RTVSPost2010Prop53
 90
        2
102
RTVSPost2010PropOp53
 70
     1
102
RTVSPost2010Prop54
  1
strokes_ogs.tif
102
RTVSPost2010PropOp54
 70
     1
102
RTVSPost2010Prop55
280
     0
102
RTVSPost2010PropOp55
 70
     1
102
RTVSPost2010Prop56
140
1.0
102
RTVSPost2010PropOp56
 70
     1
102
RTVSPost2010Prop57
140
1.0
102
RTVSPost2010PropOp57
 70
     1
102
RTVSPropertyOp0
 70
     1
102
RTVSPropertyOp1
 70
     1
102
RTVSPropertyOp2
 70
     1
102
RTVSPropertyOp3
 70
     1
102
RTVSPropertyOp4
 70
     1
102
RTVSPropertyOp5
 70
     1
102
RTVSPropertyOp6
 70
     1
102
RTVSPropertyOp7
 70
     1
102
RTVSPropertyOp8
 70
     1
102
RTVSPropertyOp9
 70
     1
102
RTVSPropertyOp10
 70
     1
102
RTVSPropertyOp11
 70
     1
102
RTVSPropertyOp12
 70
     1
102
RTVSPropertyOp13
 70
     1
102
RTVSPropertyOp14
 70
     1
102
RTVSPropertyOp15
 70
     1
102
RTVSPropertyOp16
 70
     1
102
RTVSPropertyOp17
 70
     1
102
RTVSPropertyOp18
 70
     1
102
RTVSPropertyOp19
 70
     1
102
RTVSPropertyOp20
 70
     1
102
RTVSPropertyOp21
 70
     1
102
RTVSPropertyOp22
 70
     1
102
RTVSPropertyOp23
 70
     1
102
RTVSPropertyOp24
 70
     1
102
RTVSPropertyOp25
 70
     1
102
RTVSPropertyOp26
 70
     1
102
RTVSPropertyOp27
 70
     1
102
RTVSPropertyOp28
 70
     1
102
RTVSPropertyOp29
 70
     1
102
RTVSPropertyOp30
 70
     1
102
RTVSPropertyOp31
 70
     1
102
RTVSPropertyOp32
 70
     1
102
RTVSPropertyOp33
 70
     1
102
RTVSPropertyOp34
 70
     1
102
RTVSPropertyOp35
 70
     1
102
RTVSPropertyOp36
 70
     1
102
RTVSPropertyOp37
 70
     1
102
RTVSPropertyOp38
 70
     1
102
RTVSPropertyOp39
 70
     1
102
RTVSPropertyOp40
 70
     1
102
RTVSPropertyOp41
 70
     1
102
RTVSPropertyOp42
 70
     1
102
RTVSPropertyOp43
 70
     1
102
RTVSPropertyOp44
 70
     1
102
RTVSPropertyOp45
 70
     1
102
RTVSPropertyOp46
 70
     1
102
RTVSPropertyOp47
 70
     1
102
RTVSPropertyOp48
 70
     1
102
RTVSPropertyOp49
 70
     1
102
RTVSPropertyOp50
 70
     1
102
RTVSPropertyOp51
 70
     0
102
RTVSPropertyOp52
 70
     0
102
RTVSPropertyOp53
 70
     1
102
RTVSPropertyOp54
 70
     1
102
RTVSPropertyOp55
 70
     1
102
RTVSPropertyOp56
 70
     1
102
RTVSPropertyOp57
 70
     1
102
RTVSPropertyOp58
 70
     1
102
RTVSPropertyOp59
 70
     1
102
RTVSPropertyOp60
 70
     1
102
RTVSPropertyOp61
 70
     1
102
RTVSPropertyOp62
 70
     1
  0
XRECORD
  5
2BB99
102
{ACAD_REACTORS
330
2BB98
102
}
330
2BB98
100
AcDbXrecord
280
     1
102
RTVSPost2010Prop28
280
     0
102
RTVSPost2010PropOp28
 70
     1
102
RTVSPost2010Prop29
280
     1
102
RTVSPost2010PropOp29
 70
     1
102
RTVSPost2010Prop30
280
     1
102
RTVSPost2010PropOp30
 70
     1
102
RTVSPost2010Prop31
280
     0
102
RTVSPost2010PropOp31
 70
     1
102
RTVSPost2010Prop32
280
     0
102
RTVSPost2010PropOp32
 70
     1
102
RTVSPost2010Prop33
280
     0
102
RTVSPost2010PropOp33
 70
     1
102
RTVSPost2010Prop34
280
     0
102
RTVSPost2010PropOp34
 70
     1
102
RTVSPost2010Prop35
280
     0
102
RTVSPost2010PropOp35
 70
     1
102
RTVSPost2010Prop36
280
     0
102
RTVSPost2010PropOp36
 70
     1
102
RTVSPost2010Prop37
 90
       50
102
RTVSPost2010PropOp37
 70
     1
102
RTVSPost2010Prop38
140
0.0
102
RTVSPost2010PropOp38
 70
     1
102
RTVSPost2010Prop39
140
1.0
102
RTVSPost2010PropOp39
 70
     1
102
RTVSPost2010Prop40
 90
        0
102
RTVSPost2010PropOp40
 70
     1
102
RTVSPost2010Prop41ColorIndex
 90
       18
102
RTVSPost2010Prop41ColorRGB
 90
        0
102
RTVSPost2010PropOp41
 70
     1
102
RTVSPost2010Prop42
 90
       50
102
RTVSPost2010PropOp42
 70
     1
102
RTVSPost2010Prop43
 90
        3
102
RTVSPost2010PropOp43
 70
     1
102
RTVSPost2010Prop44ColorIndex
 90
        5
102
RTVSPost2010Prop44ColorRGB
 90
      255
102
RTVSPost2010PropOp44
 70
     1
102
RTVSPost2010Prop45
280
     0
102
RTVSPost2010PropOp45
 70
     1
102
RTVSPost2010Prop46
 90
       50
102
RTVSPost2010PropOp46
 70
     1
102
RTVSPost2010Prop47
 90
       50
102
RTVSPost2010PropOp47
 70
     1
102
RTVSPost2010Prop48
 90
       50
102
RTVSPost2010PropOp48
 70
     1
102
RTVSPost2010Prop49
280
     0
102
RTVSPost2010PropOp49
 70
     1
102
RTVSPost2010Prop50
 90
       50
102
RTVSPost2010PropOp50
 70
     1
102
RTVSPost2010Prop51ColorIndex
 90
      256
102
RTVSPost2010Prop51ColorRGB
 90
-16777216
102
RTVSPost2010PropOp51
 70
     0
102
RTVSPost2010Prop52
140
1.0
102
RTVSPost2010PropOp52
 70
     0
102
RTVSPost2010Prop53
 90
        2
102
RTVSPost2010PropOp53
 70
     1
102
RTVSPost2010Prop54
  1
strokes_ogs.tif
102
RTVSPost2010PropOp54
 70
     1
102
RTVSPost2010Prop55
280
     0
102
RTVSPost2010PropOp55
 70
     1
102
RTVSPost2010Prop56
140
1.0
102
RTVSPost2010PropOp56
 70
     1
102
RTVSPost2010Prop57
140
1.0
102
RTVSPost2010PropOp57
 70
     1
102
RTVSPropertyOp0
 70
     1
102
RTVSPropertyOp1
 70
     1
102
RTVSPropertyOp2
 70
     1
102
RTVSPropertyOp3
 70
     1
102
RTVSPropertyOp4
 70
     1
102
RTVSPropertyOp5
 70
     1
102
RTVSPropertyOp6
 70
     1
102
RTVSPropertyOp7
 70
     1
102
RTVSPropertyOp8
 70
     1
102
RTVSPropertyOp9
 70
     1
102
RTVSPropertyOp10
 70
     1
102
RTVSPropertyOp11
 70
     1
102
RTVSPropertyOp12
 70
     1
102
RTVSPropertyOp13
 70
     1
102
RTVSPropertyOp14
 70
     1
102
RTVSPropertyOp15
 70
     1
102
RTVSPropertyOp16
 70
     1
102
RTVSPropertyOp17
 70
     1
102
RTVSPropertyOp18
 70
     1
102
RTVSPropertyOp19
 70
     1
102
RTVSPropertyOp20
 70
     1
102
RTVSPropertyOp21
 70
     1
102
RTVSPropertyOp22
 70
     1
102
RTVSPropertyOp23
 70
     1
102
RTVSPropertyOp24
 70
     1
102
RTVSPropertyOp25
 70
     1
102
RTVSPropertyOp26
 70
     1
102
RTVSPropertyOp27
 70
     1
102
RTVSPropertyOp28
 70
     1
102
RTVSPropertyOp29
 70
     1
102
RTVSPropertyOp30
 70
     1
102
RTVSPropertyOp31
 70
     1
102
RTVSPropertyOp32
 70
     1
102
RTVSPropertyOp33
 70
     1
102
RTVSPropertyOp34
 70
     1
102
RTVSPropertyOp35
 70
     1
102
RTVSPropertyOp36
 70
     1
102
RTVSPropertyOp37
 70
     1
102
RTVSPropertyOp38
 70
     1
102
RTVSPropertyOp39
 70
     1
102
RTVSPropertyOp40
 70
     1
102
RTVSPropertyOp41
 70
     1
102
RTVSPropertyOp42
 70
     1
102
RTVSPropertyOp43
 70
     1
102
RTVSPropertyOp44
 70
     1
102
RTVSPropertyOp45
 70
     1
102
RTVSPropertyOp46
 70
     1
102
RTVSPropertyOp47
 70
     1
102
RTVSPropertyOp48
 70
     1
102
RTVSPropertyOp49
 70
     1
102
RTVSPropertyOp50
 70
     1
102
RTVSPropertyOp51
 70
     0
102
RTVSPropertyOp52
 70
     0
102
RTVSPropertyOp53
 70
     1
102
RTVSPropertyOp54
 70
     1
102
RTVSPropertyOp55
 70
     1
102
RTVSPropertyOp56
 70
     1
102
RTVSPropertyOp57
 70
     1
102
RTVSPropertyOp58
 70
     1
102
RTVSPropertyOp59
 70
     1
102
RTVSPropertyOp60
 70
     1
102
RTVSPropertyOp61
 70
     1
102
RTVSPropertyOp62
 70
     1
  0
XRECORD
  5
2BB93
102
{ACAD_REACTORS
330
2BB92
102
}
330
2BB92
100
AcDbXrecord
280
     1
102
RTVSPost2010Prop28
280
     0
102
RTVSPost2010PropOp28
 70
     1
102
RTVSPost2010Prop29
280
     1
102
RTVSPost2010PropOp29
 70
     1
102
RTVSPost2010Prop30
280
     1
102
RTVSPost2010PropOp30
 70
     1
102
RTVSPost2010Prop31
280
     0
102
RTVSPost2010PropOp31
 70
     1
102
RTVSPost2010Prop32
280
     0
102
RTVSPost2010PropOp32
 70
     1
102
RTVSPost2010Prop33
280
     0
102
RTVSPost2010PropOp33
 70
     1
102
RTVSPost2010Prop34
280
     0
102
RTVSPost2010PropOp34
 70
     1
102
RTVSPost2010Prop35
280
     0
102
RTVSPost2010PropOp35
 70
     1
102
RTVSPost2010Prop36
280
     0
102
RTVSPost2010PropOp36
 70
     1
102
RTVSPost2010Prop37
 90
       50
102
RTVSPost2010PropOp37
 70
     1
102
RTVSPost2010Prop38
140
0.0
102
RTVSPost2010PropOp38
 70
     1
102
RTVSPost2010Prop39
140
1.0
102
RTVSPost2010PropOp39
 70
     1
102
RTVSPost2010Prop40
 90
        0
102
RTVSPost2010PropOp40
 70
     1
102
RTVSPost2010Prop41ColorIndex
 90
       18
102
RTVSPost2010Prop41ColorRGB
 90
        0
102
RTVSPost2010PropOp41
 70
     1
102
RTVSPost2010Prop42
 90
       50
102
RTVSPost2010PropOp42
 70
     1
102
RTVSPost2010Prop43
 90
        3
102
RTVSPost2010PropOp43
 70
     1
102
RTVSPost2010Prop44ColorIndex
 90
        5
102
RTVSPost2010Prop44ColorRGB
 90
      255
102
RTVSPost2010PropOp44
 70
     1
102
RTVSPost2010Prop45
280
     0
102
RTVSPost2010PropOp45
 70
     1
102
RTVSPost2010Prop46
 90
       50
102
RTVSPost2010PropOp46
 70
     1
102
RTVSPost2010Prop47
 90
       50
102
RTVSPost2010PropOp47
 70
     1
102
RTVSPost2010Prop48
 90
       50
102
RTVSPost2010PropOp48
 70
     1
102
RTVSPost2010Prop49
280
     0
102
RTVSPost2010PropOp49
 70
     1
102
RTVSPost2010Prop50
 90
       50
102
RTVSPost2010PropOp50
 70
     1
102
RTVSPost2010Prop51ColorIndex
 90
      256
102
RTVSPost2010Prop51ColorRGB
 90
-16777216
102
RTVSPost2010PropOp51
 70
     0
102
RTVSPost2010Prop52
140
1.0
102
RTVSPost2010PropOp52
 70
     0
102
RTVSPost2010Prop53
 90
        2
102
RTVSPost2010PropOp53
 70
     1
102
RTVSPost2010Prop54
  1
strokes_ogs.tif
102
RTVSPost2010PropOp54
 70
     1
102
RTVSPost2010Prop55
280
     0
102
RTVSPost2010PropOp55
 70
     1
102
RTVSPost2010Prop56
140
1.0
102
RTVSPost2010PropOp56
 70
     1
102
RTVSPost2010Prop57
140
1.0
102
RTVSPost2010PropOp57
 70
     1
102
RTVSPropertyOp0
 70
     1
102
RTVSPropertyOp1
 70
     1
102
RTVSPropertyOp2
 70
     1
102
RTVSPropertyOp3
 70
     1
102
RTVSPropertyOp4
 70
     1
102
RTVSPropertyOp5
 70
     1
102
RTVSPropertyOp6
 70
     1
102
RTVSPropertyOp7
 70
     1
102
RTVSPropertyOp8
 70
     1
102
RTVSPropertyOp9
 70
     1
102
RTVSPropertyOp10
 70
     1
102
RTVSPropertyOp11
 70
     1
102
RTVSPropertyOp12
 70
     1
102
RTVSPropertyOp13
 70
     1
102
RTVSPropertyOp14
 70
     1
102
RTVSPropertyOp15
 70
     1
102
RTVSPropertyOp16
 70
     1
102
RTVSPropertyOp17
 70
     1
102
RTVSPropertyOp18
 70
     1
102
RTVSPropertyOp19
 70
     1
102
RTVSPropertyOp20
 70
     1
102
RTVSPropertyOp21
 70
     1
102
RTVSPropertyOp22
 70
     1
102
RTVSPropertyOp23
 70
     1
102
RTVSPropertyOp24
 70
     1
102
RTVSPropertyOp25
 70
     1
102
RTVSPropertyOp26
 70
     1
102
RTVSPropertyOp27
 70
     1
102
RTVSPropertyOp28
 70
     1
102
RTVSPropertyOp29
 70
     1
102
RTVSPropertyOp30
 70
     1
102
RTVSPropertyOp31
 70
     1
102
RTVSPropertyOp32
 70
     1
102
RTVSPropertyOp33
 70
     1
102
RTVSPropertyOp34
 70
     1
102
RTVSPropertyOp35
 70
     1
102
RTVSPropertyOp36
 70
     1
102
RTVSPropertyOp37
 70
     1
102
RTVSPropertyOp38
 70
     1
102
RTVSPropertyOp39
 70
     1
102
RTVSPropertyOp40
 70
     1
102
RTVSPropertyOp41
 70
     1
102
RTVSPropertyOp42
 70
     1
102
RTVSPropertyOp43
 70
     1
102
RTVSPropertyOp44
 70
     1
102
RTVSPropertyOp45
 70
     1
102
RTVSPropertyOp46
 70
     1
102
RTVSPropertyOp47
 70
     1
102
RTVSPropertyOp48
 70
     1
102
RTVSPropertyOp49
 70
     1
102
RTVSPropertyOp50
 70
     1
102
RTVSPropertyOp51
 70
     0
102
RTVSPropertyOp52
 70
     0
102
RTVSPropertyOp53
 70
     1
102
RTVSPropertyOp54
 70
     1
102
RTVSPropertyOp55
 70
     1
102
RTVSPropertyOp56
 70
     1
102
RTVSPropertyOp57
 70
     1
102
RTVSPropertyOp58
 70
     1
102
RTVSPropertyOp59
 70
     1
102
RTVSPropertyOp60
 70
     1
102
RTVSPropertyOp61
 70
     1
102
RTVSPropertyOp62
 70
     1
  0
XRECORD
  5
2BB95
102
{ACAD_REACTORS
330
2BB94
102
}
330
2BB94
100
AcDbXrecord
280
     1
102
RTVSPost2010Prop28
280
     0
102
RTVSPost2010PropOp28
 70
     1
102
RTVSPost2010Prop29
280
     1
102
RTVSPost2010PropOp29
 70
     1
102
RTVSPost2010Prop30
280
     1
102
RTVSPost2010PropOp30
 70
     1
102
RTVSPost2010Prop31
280
     0
102
RTVSPost2010PropOp31
 70
     1
102
RTVSPost2010Prop32
280
     0
102
RTVSPost2010PropOp32
 70
     1
102
RTVSPost2010Prop33
280
     0
102
RTVSPost2010PropOp33
 70
     1
102
RTVSPost2010Prop34
280
     0
102
RTVSPost2010PropOp34
 70
     1
102
RTVSPost2010Prop35
280
     0
102
RTVSPost2010PropOp35
 70
     1
102
RTVSPost2010Prop36
280
     0
102
RTVSPost2010PropOp36
 70
     1
102
RTVSPost2010Prop37
 90
       50
102
RTVSPost2010PropOp37
 70
     1
102
RTVSPost2010Prop38
140
0.0
102
RTVSPost2010PropOp38
 70
     1
102
RTVSPost2010Prop39
140
1.0
102
RTVSPost2010PropOp39
 70
     1
102
RTVSPost2010Prop40
 90
        0
102
RTVSPost2010PropOp40
 70
     1
102
RTVSPost2010Prop41ColorIndex
 90
       18
102
RTVSPost2010Prop41ColorRGB
 90
        0
102
RTVSPost2010PropOp41
 70
     1
102
RTVSPost2010Prop42
 90
       50
102
RTVSPost2010PropOp42
 70
     1
102
RTVSPost2010Prop43
 90
        3
102
RTVSPost2010PropOp43
 70
     1
102
RTVSPost2010Prop44ColorIndex
 90
        5
102
RTVSPost2010Prop44ColorRGB
 90
      255
102
RTVSPost2010PropOp44
 70
     1
102
RTVSPost2010Prop45
280
     0
102
RTVSPost2010PropOp45
 70
     1
102
RTVSPost2010Prop46
 90
       50
102
RTVSPost2010PropOp46
 70
     1
102
RTVSPost2010Prop47
 90
       50
102
RTVSPost2010PropOp47
 70
     1
102
RTVSPost2010Prop48
 90
       50
102
RTVSPost2010PropOp48
 70
     1
102
RTVSPost2010Prop49
280
     0
102
RTVSPost2010PropOp49
 70
     1
102
RTVSPost2010Prop50
 90
       50
102
RTVSPost2010PropOp50
 70
     1
102
RTVSPost2010Prop51ColorIndex
 90
      256
102
RTVSPost2010Prop51ColorRGB
 90
-16777216
102
RTVSPost2010PropOp51
 70
     0
102
RTVSPost2010Prop52
140
1.0
102
RTVSPost2010PropOp52
 70
     0
102
RTVSPost2010Prop53
 90
        2
102
RTVSPost2010PropOp53
 70
     1
102
RTVSPost2010Prop54
  1
strokes_ogs.tif
102
RTVSPost2010PropOp54
 70
     1
102
RTVSPost2010Prop55
280
     0
102
RTVSPost2010PropOp55
 70
     1
102
RTVSPost2010Prop56
140
1.0
102
RTVSPost2010PropOp56
 70
     1
102
RTVSPost2010Prop57
140
1.0
102
RTVSPost2010PropOp57
 70
     1
102
RTVSPropertyOp0
 70
     1
102
RTVSPropertyOp1
 70
     1
102
RTVSPropertyOp2
 70
     1
102
RTVSPropertyOp3
 70
     1
102
RTVSPropertyOp4
 70
     1
102
RTVSPropertyOp5
 70
     1
102
RTVSPropertyOp6
 70
     1
102
RTVSPropertyOp7
 70
     1
102
RTVSPropertyOp8
 70
     1
102
RTVSPropertyOp9
 70
     1
102
RTVSPropertyOp10
 70
     1
102
RTVSPropertyOp11
 70
     1
102
RTVSPropertyOp12
 70
     1
102
RTVSPropertyOp13
 70
     1
102
RTVSPropertyOp14
 70
     1
102
RTVSPropertyOp15
 70
     1
102
RTVSPropertyOp16
 70
     1
102
RTVSPropertyOp17
 70
     1
102
RTVSPropertyOp18
 70
     1
102
RTVSPropertyOp19
 70
     1
102
RTVSPropertyOp20
 70
     1
102
RTVSPropertyOp21
 70
     1
102
RTVSPropertyOp22
 70
     1
102
RTVSPropertyOp23
 70
     1
102
RTVSPropertyOp24
 70
     1
102
RTVSPropertyOp25
 70
     1
102
RTVSPropertyOp26
 70
     1
102
RTVSPropertyOp27
 70
     1
102
RTVSPropertyOp28
 70
     1
102
RTVSPropertyOp29
 70
     1
102
RTVSPropertyOp30
 70
     1
102
RTVSPropertyOp31
 70
     1
102
RTVSPropertyOp32
 70
     1
102
RTVSPropertyOp33
 70
     1
102
RTVSPropertyOp34
 70
     1
102
RTVSPropertyOp35
 70
     1
102
RTVSPropertyOp36
 70
     1
102
RTVSPropertyOp37
 70
     1
102
RTVSPropertyOp38
 70
     1
102
RTVSPropertyOp39
 70
     1
102
RTVSPropertyOp40
 70
     1
102
RTVSPropertyOp41
 70
     1
102
RTVSPropertyOp42
 70
     1
102
RTVSPropertyOp43
 70
     1
102
RTVSPropertyOp44
 70
     1
102
RTVSPropertyOp45
 70
     1
102
RTVSPropertyOp46
 70
     1
102
RTVSPropertyOp47
 70
     1
102
RTVSPropertyOp48
 70
     1
102
RTVSPropertyOp49
 70
     1
102
RTVSPropertyOp50
 70
     1
102
RTVSPropertyOp51
 70
     0
102
RTVSPropertyOp52
 70
     0
102
RTVSPropertyOp53
 70
     1
102
RTVSPropertyOp54
 70
     1
102
RTVSPropertyOp55
 70
     1
102
RTVSPropertyOp56
 70
     1
102
RTVSPropertyOp57
 70
     1
102
RTVSPropertyOp58
 70
     1
102
RTVSPropertyOp59
 70
     1
102
RTVSPropertyOp60
 70
     1
102
RTVSPropertyOp61
 70
     1
102
RTVSPropertyOp62
 70
     1
  0
XRECORD
  5
2BB83
102
{ACAD_REACTORS
330
2BB82
102
}
330
2BB82
100
AcDbXrecord
280
     1
102
RTVSPost2010Prop28
280
     0
102
RTVSPost2010PropOp28
 70
     1
102
RTVSPost2010Prop29
280
     1
102
RTVSPost2010PropOp29
 70
     1
102
RTVSPost2010Prop30
280
     1
102
RTVSPost2010PropOp30
 70
     1
102
RTVSPost2010Prop31
280
     0
102
RTVSPost2010PropOp31
 70
     1
102
RTVSPost2010Prop32
280
     0
102
RTVSPost2010PropOp32
 70
     1
102
RTVSPost2010Prop33
280
     0
102
RTVSPost2010PropOp33
 70
     1
102
RTVSPost2010Prop34
280
     0
102
RTVSPost2010PropOp34
 70
     1
102
RTVSPost2010Prop35
280
     0
102
RTVSPost2010PropOp35
 70
     1
102
RTVSPost2010Prop36
280
     0
102
RTVSPost2010PropOp36
 70
     1
102
RTVSPost2010Prop37
 90
       50
102
RTVSPost2010PropOp37
 70
     1
102
RTVSPost2010Prop38
140
0.0
102
RTVSPost2010PropOp38
 70
     1
102
RTVSPost2010Prop39
140
1.0
102
RTVSPost2010PropOp39
 70
     1
102
RTVSPost2010Prop40
 90
        0
102
RTVSPost2010PropOp40
 70
     1
102
RTVSPost2010Prop41ColorIndex
 90
       18
102
RTVSPost2010Prop41ColorRGB
 90
        0
102
RTVSPost2010PropOp41
 70
     1
102
RTVSPost2010Prop42
 90
       50
102
RTVSPost2010PropOp42
 70
     1
102
RTVSPost2010Prop43
 90
        3
102
RTVSPost2010PropOp43
 70
     1
102
RTVSPost2010Prop44ColorIndex
 90
        5
102
RTVSPost2010Prop44ColorRGB
 90
      255
102
RTVSPost2010PropOp44
 70
     1
102
RTVSPost2010Prop45
280
     0
102
RTVSPost2010PropOp45
 70
     1
102
RTVSPost2010Prop46
 90
       50
102
RTVSPost2010PropOp46
 70
     1
102
RTVSPost2010Prop47
 90
       50
102
RTVSPost2010PropOp47
 70
     1
102
RTVSPost2010Prop48
 90
       50
102
RTVSPost2010PropOp48
 70
     1
102
RTVSPost2010Prop49
280
     0
102
RTVSPost2010PropOp49
 70
     1
102
RTVSPost2010Prop50
 90
       50
102
RTVSPost2010PropOp50
 70
     1
102
RTVSPost2010Prop51ColorIndex
 90
      256
102
RTVSPost2010Prop51ColorRGB
 90
-16777216
102
RTVSPost2010PropOp51
 70
     0
102
RTVSPost2010Prop52
140
1.0
102
RTVSPost2010PropOp52
 70
     0
102
RTVSPost2010Prop53
 90
        2
102
RTVSPost2010PropOp53
 70
     1
102
RTVSPost2010Prop54
  1
strokes_ogs.tif
102
RTVSPost2010PropOp54
 70
     1
102
RTVSPost2010Prop55
280
     0
102
RTVSPost2010PropOp55
 70
     1
102
RTVSPost2010Prop56
140
1.0
102
RTVSPost2010PropOp56
 70
     1
102
RTVSPost2010Prop57
140
1.0
102
RTVSPost2010PropOp57
 70
     1
102
RTVSPropertyOp0
 70
     1
102
RTVSPropertyOp1
 70
     1
102
RTVSPropertyOp2
 70
     1
102
RTVSPropertyOp3
 70
     1
102
RTVSPropertyOp4
 70
     1
102
RTVSPropertyOp5
 70
     1
102
RTVSPropertyOp6
 70
     1
102
RTVSPropertyOp7
 70
     1
102
RTVSPropertyOp8
 70
     1
102
RTVSPropertyOp9
 70
     1
102
RTVSPropertyOp10
 70
     1
102
RTVSPropertyOp11
 70
     1
102
RTVSPropertyOp12
 70
     1
102
RTVSPropertyOp13
 70
     1
102
RTVSPropertyOp14
 70
     1
102
RTVSPropertyOp15
 70
     1
102
RTVSPropertyOp16
 70
     1
102
RTVSPropertyOp17
 70
     1
102
RTVSPropertyOp18
 70
     1
102
RTVSPropertyOp19
 70
     1
102
RTVSPropertyOp20
 70
     1
102
RTVSPropertyOp21
 70
     1
102
RTVSPropertyOp22
 70
     1
102
RTVSPropertyOp23
 70
     1
102
RTVSPropertyOp24
 70
     1
102
RTVSPropertyOp25
 70
     1
102
RTVSPropertyOp26
 70
     1
102
RTVSPropertyOp27
 70
     1
102
RTVSPropertyOp28
 70
     1
102
RTVSPropertyOp29
 70
     1
102
RTVSPropertyOp30
 70
     1
102
RTVSPropertyOp31
 70
     1
102
RTVSPropertyOp32
 70
     1
102
RTVSPropertyOp33
 70
     1
102
RTVSPropertyOp34
 70
     1
102
RTVSPropertyOp35
 70
     1
102
RTVSPropertyOp36
 70
     1
102
RTVSPropertyOp37
 70
     1
102
RTVSPropertyOp38
 70
     1
102
RTVSPropertyOp39
 70
     1
102
RTVSPropertyOp40
 70
     1
102
RTVSPropertyOp41
 70
     1
102
RTVSPropertyOp42
 70
     1
102
RTVSPropertyOp43
 70
     1
102
RTVSPropertyOp44
 70
     1
102
RTVSPropertyOp45
 70
     1
102
RTVSPropertyOp46
 70
     1
102
RTVSPropertyOp47
 70
     1
102
RTVSPropertyOp48
 70
     1
102
RTVSPropertyOp49
 70
     1
102
RTVSPropertyOp50
 70
     1
102
RTVSPropertyOp51
 70
     0
102
RTVSPropertyOp52
 70
     0
102
RTVSPropertyOp53
 70
     1
102
RTVSPropertyOp54
 70
     1
102
RTVSPropertyOp55
 70
     1
102
RTVSPropertyOp56
 70
     1
102
RTVSPropertyOp57
 70
     1
102
RTVSPropertyOp58
 70
     1
102
RTVSPropertyOp59
 70
     1
102
RTVSPropertyOp60
 70
     1
102
RTVSPropertyOp61
 70
     1
102
RTVSPropertyOp62
 70
     1
  0
XRECORD
  5
2BB77
102
{ACAD_REACTORS
330
2BB76
102
}
330
2BB76
100
AcDbXrecord
280
     1
102
RTVSPost2010Prop28
280
     0
102
RTVSPost2010PropOp28
 70
     1
102
RTVSPost2010Prop29
280
     1
102
RTVSPost2010PropOp29
 70
     1
102
RTVSPost2010Prop30
280
     1
102
RTVSPost2010PropOp30
 70
     1
102
RTVSPost2010Prop31
280
     0
102
RTVSPost2010PropOp31
 70
     1
102
RTVSPost2010Prop32
280
     0
102
RTVSPost2010PropOp32
 70
     1
102
RTVSPost2010Prop33
280
     0
102
RTVSPost2010PropOp33
 70
     1
102
RTVSPost2010Prop34
280
     0
102
RTVSPost2010PropOp34
 70
     1
102
RTVSPost2010Prop35
280
     0
102
RTVSPost2010PropOp35
 70
     1
102
RTVSPost2010Prop36
280
     0
102
RTVSPost2010PropOp36
 70
     1
102
RTVSPost2010Prop37
 90
       50
102
RTVSPost2010PropOp37
 70
     1
102
RTVSPost2010Prop38
140
0.0
102
RTVSPost2010PropOp38
 70
     1
102
RTVSPost2010Prop39
140
1.0
102
RTVSPost2010PropOp39
 70
     1
102
RTVSPost2010Prop40
 90
        0
102
RTVSPost2010PropOp40
 70
     1
102
RTVSPost2010Prop41ColorIndex
 90
       18
102
RTVSPost2010Prop41ColorRGB
 90
        0
102
RTVSPost2010PropOp41
 70
     1
102
RTVSPost2010Prop42
 90
       50
102
RTVSPost2010PropOp42
 70
     1
102
RTVSPost2010Prop43
 90
        3
102
RTVSPost2010PropOp43
 70
     1
102
RTVSPost2010Prop44ColorIndex
 90
        5
102
RTVSPost2010Prop44ColorRGB
 90
      255
102
RTVSPost2010PropOp44
 70
     1
102
RTVSPost2010Prop45
280
     0
102
RTVSPost2010PropOp45
 70
     1
102
RTVSPost2010Prop46
 90
       50
102
RTVSPost2010PropOp46
 70
     1
102
RTVSPost2010Prop47
 90
       50
102
RTVSPost2010PropOp47
 70
     1
102
RTVSPost2010Prop48
 90
       50
102
RTVSPost2010PropOp48
 70
     1
102
RTVSPost2010Prop49
280
     0
102
RTVSPost2010PropOp49
 70
     1
102
RTVSPost2010Prop50
 90
       50
102
RTVSPost2010PropOp50
 70
     1
102
RTVSPost2010Prop51ColorIndex
 90
      256
102
RTVSPost2010Prop51ColorRGB
 90
-16777216
102
RTVSPost2010PropOp51
 70
     0
102
RTVSPost2010Prop52
140
1.0
102
RTVSPost2010PropOp52
 70
     0
102
RTVSPost2010Prop53
 90
        2
102
RTVSPost2010PropOp53
 70
     1
102
RTVSPost2010Prop54
  1
strokes_ogs.tif
102
RTVSPost2010PropOp54
 70
     1
102
RTVSPost2010Prop55
280
     0
102
RTVSPost2010PropOp55
 70
     1
102
RTVSPost2010Prop56
140
1.0
102
RTVSPost2010PropOp56
 70
     1
102
RTVSPost2010Prop57
140
1.0
102
RTVSPost2010PropOp57
 70
     1
102
RTVSPropertyOp0
 70
     1
102
RTVSPropertyOp1
 70
     1
102
RTVSPropertyOp2
 70
     1
102
RTVSPropertyOp3
 70
     1
102
RTVSPropertyOp4
 70
     1
102
RTVSPropertyOp5
 70
     1
102
RTVSPropertyOp6
 70
     1
102
RTVSPropertyOp7
 70
     1
102
RTVSPropertyOp8
 70
     1
102
RTVSPropertyOp9
 70
     1
102
RTVSPropertyOp10
 70
     1
102
RTVSPropertyOp11
 70
     1
102
RTVSPropertyOp12
 70
     1
102
RTVSPropertyOp13
 70
     1
102
RTVSPropertyOp14
 70
     1
102
RTVSPropertyOp15
 70
     1
102
RTVSPropertyOp16
 70
     1
102
RTVSPropertyOp17
 70
     1
102
RTVSPropertyOp18
 70
     1
102
RTVSPropertyOp19
 70
     1
102
RTVSPropertyOp20
 70
     1
102
RTVSPropertyOp21
 70
     1
102
RTVSPropertyOp22
 70
     1
102
RTVSPropertyOp23
 70
     1
102
RTVSPropertyOp24
 70
     1
102
RTVSPropertyOp25
 70
     1
102
RTVSPropertyOp26
 70
     1
102
RTVSPropertyOp27
 70
     1
102
RTVSPropertyOp28
 70
     1
102
RTVSPropertyOp29
 70
     1
102
RTVSPropertyOp30
 70
     1
102
RTVSPropertyOp31
 70
     1
102
RTVSPropertyOp32
 70
     1
102
RTVSPropertyOp33
 70
     1
102
RTVSPropertyOp34
 70
     1
102
RTVSPropertyOp35
 70
     1
102
RTVSPropertyOp36
 70
     1
102
RTVSPropertyOp37
 70
     1
102
RTVSPropertyOp38
 70
     1
102
RTVSPropertyOp39
 70
     1
102
RTVSPropertyOp40
 70
     1
102
RTVSPropertyOp41
 70
     1
102
RTVSPropertyOp42
 70
     1
102
RTVSPropertyOp43
 70
     1
102
RTVSPropertyOp44
 70
     1
102
RTVSPropertyOp45
 70
     1
102
RTVSPropertyOp46
 70
     1
102
RTVSPropertyOp47
 70
     1
102
RTVSPropertyOp48
 70
     1
102
RTVSPropertyOp49
 70
     1
102
RTVSPropertyOp50
 70
     1
102
RTVSPropertyOp51
 70
     0
102
RTVSPropertyOp52
 70
     0
102
RTVSPropertyOp53
 70
     1
102
RTVSPropertyOp54
 70
     1
102
RTVSPropertyOp55
 70
     1
102
RTVSPropertyOp56
 70
     1
102
RTVSPropertyOp57
 70
     1
102
RTVSPropertyOp58
 70
     1
102
RTVSPropertyOp59
 70
     1
102
RTVSPropertyOp60
 70
     1
102
RTVSPropertyOp61
 70
     1
102
RTVSPropertyOp62
 70
     1
  0
XRECORD
  5
2BB97
102
{ACAD_REACTORS
330
2BB96
102
}
330
2BB96
100
AcDbXrecord
280
     1
102
RTVSPost2010Prop28
280
     0
102
RTVSPost2010PropOp28
 70
     1
102
RTVSPost2010Prop29
280
     1
102
RTVSPost2010PropOp29
 70
     1
102
RTVSPost2010Prop30
280
     1
102
RTVSPost2010PropOp30
 70
     1
102
RTVSPost2010Prop31
280
     0
102
RTVSPost2010PropOp31
 70
     1
102
RTVSPost2010Prop32
280
     0
102
RTVSPost2010PropOp32
 70
     1
102
RTVSPost2010Prop33
280
     0
102
RTVSPost2010PropOp33
 70
     1
102
RTVSPost2010Prop34
280
     0
102
RTVSPost2010PropOp34
 70
     1
102
RTVSPost2010Prop35
280
     0
102
RTVSPost2010PropOp35
 70
     1
102
RTVSPost2010Prop36
280
     0
102
RTVSPost2010PropOp36
 70
     1
102
RTVSPost2010Prop37
 90
       50
102
RTVSPost2010PropOp37
 70
     1
102
RTVSPost2010Prop38
140
0.0
102
RTVSPost2010PropOp38
 70
     1
102
RTVSPost2010Prop39
140
1.0
102
RTVSPost2010PropOp39
 70
     1
102
RTVSPost2010Prop40
 90
        0
102
RTVSPost2010PropOp40
 70
     1
102
RTVSPost2010Prop41ColorIndex
 90
       18
102
RTVSPost2010Prop41ColorRGB
 90
        0
102
RTVSPost2010PropOp41
 70
     1
102
RTVSPost2010Prop42
 90
       50
102
RTVSPost2010PropOp42
 70
     1
102
RTVSPost2010Prop43
 90
        3
102
RTVSPost2010PropOp43
 70
     1
102
RTVSPost2010Prop44ColorIndex
 90
        5
102
RTVSPost2010Prop44ColorRGB
 90
      255
102
RTVSPost2010PropOp44
 70
     1
102
RTVSPost2010Prop45
280
     0
102
RTVSPost2010PropOp45
 70
     1
102
RTVSPost2010Prop46
 90
       50
102
RTVSPost2010PropOp46
 70
     1
102
RTVSPost2010Prop47
 90
       50
102
RTVSPost2010PropOp47
 70
     1
102
RTVSPost2010Prop48
 90
       50
102
RTVSPost2010PropOp48
 70
     1
102
RTVSPost2010Prop49
280
     0
102
RTVSPost2010PropOp49
 70
     1
102
RTVSPost2010Prop50
 90
       50
102
RTVSPost2010PropOp50
 70
     1
102
RTVSPost2010Prop51ColorIndex
 90
      256
102
RTVSPost2010Prop51ColorRGB
 90
-16777216
102
RTVSPost2010PropOp51
 70
     0
102
RTVSPost2010Prop52
140
1.0
102
RTVSPost2010PropOp52
 70
     0
102
RTVSPost2010Prop53
 90
        2
102
RTVSPost2010PropOp53
 70
     1
102
RTVSPost2010Prop54
  1
strokes_ogs.tif
102
RTVSPost2010PropOp54
 70
     1
102
RTVSPost2010Prop55
280
     0
102
RTVSPost2010PropOp55
 70
     1
102
RTVSPost2010Prop56
140
1.0
102
RTVSPost2010PropOp56
 70
     1
102
RTVSPost2010Prop57
140
1.0
102
RTVSPost2010PropOp57
 70
     1
102
RTVSPropertyOp0
 70
     1
102
RTVSPropertyOp1
 70
     1
102
RTVSPropertyOp2
 70
     1
102
RTVSPropertyOp3
 70
     1
102
RTVSPropertyOp4
 70
     1
102
RTVSPropertyOp5
 70
     1
102
RTVSPropertyOp6
 70
     1
102
RTVSPropertyOp7
 70
     1
102
RTVSPropertyOp8
 70
     1
102
RTVSPropertyOp9
 70
     1
102
RTVSPropertyOp10
 70
     1
102
RTVSPropertyOp11
 70
     1
102
RTVSPropertyOp12
 70
     1
102
RTVSPropertyOp13
 70
     1
102
RTVSPropertyOp14
 70
     1
102
RTVSPropertyOp15
 70
     1
102
RTVSPropertyOp16
 70
     1
102
RTVSPropertyOp17
 70
     1
102
RTVSPropertyOp18
 70
     1
102
RTVSPropertyOp19
 70
     1
102
RTVSPropertyOp20
 70
     1
102
RTVSPropertyOp21
 70
     1
102
RTVSPropertyOp22
 70
     1
102
RTVSPropertyOp23
 70
     1
102
RTVSPropertyOp24
 70
     1
102
RTVSPropertyOp25
 70
     1
102
RTVSPropertyOp26
 70
     1
102
RTVSPropertyOp27
 70
     1
102
RTVSPropertyOp28
 70
     1
102
RTVSPropertyOp29
 70
     1
102
RTVSPropertyOp30
 70
     1
102
RTVSPropertyOp31
 70
     1
102
RTVSPropertyOp32
 70
     1
102
RTVSPropertyOp33
 70
     1
102
RTVSPropertyOp34
 70
     1
102
RTVSPropertyOp35
 70
     1
102
RTVSPropertyOp36
 70
     1
102
RTVSPropertyOp37
 70
     1
102
RTVSPropertyOp38
 70
     1
102
RTVSPropertyOp39
 70
     1
102
RTVSPropertyOp40
 70
     1
102
RTVSPropertyOp41
 70
     1
102
RTVSPropertyOp42
 70
     1
102
RTVSPropertyOp43
 70
     1
102
RTVSPropertyOp44
 70
     1
102
RTVSPropertyOp45
 70
     1
102
RTVSPropertyOp46
 70
     1
102
RTVSPropertyOp47
 70
     1
102
RTVSPropertyOp48
 70
     1
102
RTVSPropertyOp49
 70
     1
102
RTVSPropertyOp50
 70
     1
102
RTVSPropertyOp51
 70
     0
102
RTVSPropertyOp52
 70
     0
102
RTVSPropertyOp53
 70
     1
102
RTVSPropertyOp54
 70
     1
102
RTVSPropertyOp55
 70
     1
102
RTVSPropertyOp56
 70
     1
102
RTVSPropertyOp57
 70
     1
102
RTVSPropertyOp58
 70
     1
102
RTVSPropertyOp59
 70
     1
102
RTVSPropertyOp60
 70
     1
102
RTVSPropertyOp61
 70
     1
102
RTVSPropertyOp62
 70
     1
  0
ENDSEC
  0
EOF
