  0
SECTION
  2
HEADER
  9
$ACADVER
  1
AC1015
  9
$ACADMAINTVER
 70
    18
  9
$DWGCODEPAGE
  3
ANSI_1252
  9
$INSBASE
 10
0.0
 20
0.0
 30
0.0
  9
$EXTMIN
 10
-211.5316765144603
 20
-270.6517635395887
 30
-0.0015258207003583
  9
$EXTMAX
 10
242.0434578019701
 20
334.0117042258053
 30
0.0000000349246037
  9
$LIMMIN
 10
0.0
 20
0.0
  9
$LIMMAX
 10
420.0
 20
297.0
  9
$ORTHOMODE
 70
     0
  9
$REGENMODE
 70
     1
  9
$FILLMODE
 70
     1
  9
$QTEXTMODE
 70
     0
  9
$MIRRTEXT
 70
     0
  9
$LTSCALE
 40
1.0
  9
$ATTMODE
 70
     1
  9
$TEXTSIZE
 40
2.5
  9
$TRACEWID
 40
1.0
  9
$TEXTSTYLE
  7
Standard
  9
$CLAYER
  8
0
  9
$CELTYPE
  6
ByLayer
  9
$CECOLOR
 62
   256
  9
$CELTSCALE
 40
1.0
  9
$DISPSILH
 70
     0
  9
$DIMSCALE
 40
1.0
  9
$DIMASZ
 40
2.5
  9
$DIMEXO
 40
0.625
  9
$DIMDLI
 40
3.75
  9
$DIMRND
 40
0.0
  9
$DIMDLE
 40
0.0
  9
$DIMEXE
 40
1.25
  9
$DIMTP
 40
0.0
  9
$DIMTM
 40
0.0
  9
$DIMTXT
 40
2.5
  9
$DIMCEN
 40
2.5
  9
$DIMTSZ
 40
0.0
  9
$DIMTOL
 70
     0
  9
$DIMLIM
 70
     0
  9
$DIMTIH
 70
     0
  9
$DIMTOH
 70
     0
  9
$DIMSE1
 70
     0
  9
$DIMSE2
 70
     0
  9
$DIMTAD
 70
     1
  9
$DIMZIN
 70
     8
  9
$DIMBLK
  1

  9
$DIMASO
 70
     1
  9
$DIMSHO
 70
     1
  9
$DIMPOST
  1

  9
$DIMAPOST
  1

  9
$DIMALT
 70
     0
  9
$DIMALTD
 70
     3
  9
$DIMALTF
 40
0.03937007874016
  9
$DIMLFAC
 40
1.0
  9
$DIMTOFL
 70
     1
  9
$DIMTVP
 40
0.0
  9
$DIMTIX
 70
     0
  9
$DIMSOXD
 70
     0
  9
$DIMSAH
 70
     0
  9
$DIMBLK1
  1

  9
$DIMBLK2
  1

  9
$DIMSTYLE
  2
ISO-25
  9
$DIMCLRD
 70
     0
  9
$DIMCLRE
 70
     0
  9
$DIMCLRT
 70
     0
  9
$DIMTFAC
 40
1.0
  9
$DIMGAP
 40
0.625
  9
$DIMJUST
 70
     0
  9
$DIMSD1
 70
     0
  9
$DIMSD2
 70
     0
  9
$DIMTOLJ
 70
     0
  9
$DIMTZIN
 70
     8
  9
$DIMALTZ
 70
     0
  9
$DIMALTTZ
 70
     0
  9
$DIMUPT
 70
     0
  9
$DIMDEC
 70
     2
  9
$DIMTDEC
 70
     2
  9
$DIMALTU
 70
     2
  9
$DIMALTTD
 70
     3
  9
$DIMTXSTY
  7
Standard
  9
$DIMAUNIT
 70
     0
  9
$DIMADEC
 70
     0
  9
$DIMALTRND
 40
0.0
  9
$DIMAZIN
 70
     0
  9
$DIMDSEP
 70
    44
  9
$DIMATFIT
 70
     3
  9
$DIMFRAC
 70
     0
  9
$DIMLDRBLK
  1

  9
$DIMLUNIT
 70
     2
  9
$DIMLWD
 70
    -2
  9
$DIMLWE
 70
    -2
  9
$DIMTMOVE
 70
     0
  9
$LUNITS
 70
     2
  9
$LUPREC
 70
     4
  9
$SKETCHINC
 40
1.0
  9
$FILLETRAD
 40
0.0
  9
$AUNITS
 70
     0
  9
$AUPREC
 70
     0
  9
$MENU
  1
.
  9
$ELEVATION
 40
0.0
  9
$PELEVATION
 40
0.0
  9
$THICKNESS
 40
0.0
  9
$LIMCHECK
 70
     0
  9
$CHAMFERA
 40
0.0
  9
$CHAMFERB
 40
0.0
  9
$CHAMFERC
 40
0.0
  9
$CHAMFERD
 40
0.0
  9
$SKPOLY
 70
     0
  9
$TDCREATE
 40
2460367.705740741
  9
$TDUCREATE
 40
2460367.414074074
  9
$TDUPDATE
 40
2460367.712719908
  9
$TDUUPDATE
 40
2460367.421053241
  9
$TDINDWG
 40
0.0036458333
  9
$TDUSRTIMER
 40
0.0036458333
  9
$USRTIMER
 70
     1
  9
$ANGBASE
 50
0.0
  9
$ANGDIR
 70
     0
  9
$PDMODE
 70
     0
  9
$PDSIZE
 40
0.0
  9
$PLINEWID
 40
0.0
  9
$SPLFRAME
 70
     0
  9
$SPLINETYPE
 70
     6
  9
$SPLINESEGS
 70
     8
  9
$HANDSEED
  5
4AF1
  9
$SURFTAB1
 70
     6
  9
$SURFTAB2
 70
     6
  9
$SURFTYPE
 70
     6
  9
$SURFU
 70
     6
  9
$SURFV
 70
     6
  9
$UCSBASE
  2

  9
$UCSNAME
  2

  9
$UCSORG
 10
0.0
 20
0.0
 30
0.0
  9
$UCSXDIR
 10
1.0
 20
0.0
 30
0.0
  9
$UCSYDIR
 10
0.0
 20
1.0
 30
0.0
  9
$UCSORTHOREF
  2

  9
$UCSORTHOVIEW
 70
     0
  9
$UCSORGTOP
 10
0.0
 20
0.0
 30
0.0
  9
$UCSORGBOTTOM
 10
0.0
 20
0.0
 30
0.0
  9
$UCSORGLEFT
 10
0.0
 20
0.0
 30
0.0
  9
$UCSORGRIGHT
 10
0.0
 20
0.0
 30
0.0
  9
$UCSORGFRONT
 10
0.0
 20
0.0
 30
0.0
  9
$UCSORGBACK
 10
0.0
 20
0.0
 30
0.0
  9
$PUCSBASE
  2

  9
$PUCSNAME
  2

  9
$PUCSORG
 10
0.0
 20
0.0
 30
0.0
  9
$PUCSXDIR
 10
1.0
 20
0.0
 30
0.0
  9
$PUCSYDIR
 10
0.0
 20
1.0
 30
0.0
  9
$PUCSORTHOREF
  2

  9
$PUCSORTHOVIEW
 70
     0
  9
$PUCSORGTOP
 10
0.0
 20
0.0
 30
0.0
  9
$PUCSORGBOTTOM
 10
0.0
 20
0.0
 30
0.0
  9
$PUCSORGLEFT
 10
0.0
 20
0.0
 30
0.0
  9
$PUCSORGRIGHT
 10
0.0
 20
0.0
 30
0.0
  9
$PUCSORGFRONT
 10
0.0
 20
0.0
 30
0.0
  9
$PUCSORGBACK
 10
0.0
 20
0.0
 30
0.0
  9
$USERI1
 70
     0
  9
$USERI2
 70
     0
  9
$USERI3
 70
     0
  9
$USERI4
 70
     0
  9
$USERI5
 70
     0
  9
$USERR1
 40
0.0
  9
$USERR2
 40
0.0
  9
$USERR3
 40
0.0
  9
$USERR4
 40
0.0
  9
$USERR5
 40
0.0
  9
$WORLDVIEW
 70
     1
  9
$SHADEDGE
 70
     3
  9
$SHADEDIF
 70
    70
  9
$TILEMODE
 70
     1
  9
$MAXACTVP
 70
    48
  9
$PINSBASE
 10
0.0
 20
0.0
 30
0.0
  9
$PLIMCHECK
 70
     0
  9
$PEXTMIN
 10
0.0
 20
0.0
 30
0.0
  9
$PEXTMAX
 10
0.0
 20
0.0
 30
0.0
  9
$PLIMMIN
 10
0.0
 20
0.0
  9
$PLIMMAX
 10
12.0
 20
9.0
  9
$UNITMODE
 70
     0
  9
$VISRETAIN
 70
     1
  9
$PLINEGEN
 70
     0
  9
$PSLTSCALE
 70
     1
  9
$TREEDEPTH
 70
  3020
  9
$CMLSTYLE
  2
Standard
  9
$CMLJUST
 70
     0
  9
$CMLSCALE
 40
20.0
  9
$PROXYGRAPHICS
 70
     1
  9
$MEASUREMENT
 70
     1
  9
$CELWEIGHT
370
    -1
  9
$ENDCAPS
280
     0
  9
$JOINSTYLE
280
     0
  9
$LWDISPLAY
290
     0
  9
$INSUNITS
 70
     4
  9
$HYPERLINKBASE
  1

  9
$STYLESHEET
  1

  9
$XEDIT
290
     1
  9
$CEPSNTYPE
380
     0
  9
$PSTYLEMODE
290
     1
  9
$FINGERPRINTGUID
  2
{09ACAAAA-6FF3-F94C-B944-1C0D1F37C415}
  9
$VERSIONGUID
  2
{391F5A36-6FDC-6244-A2CD-801FFBEE3A7A}
  9
$EXTNAMES
290
     1
  9
$PSVPSCALE
 40
0.0
  9
$OLESTARTUP
290
     0
  0
ENDSEC
  0
SECTION
  2
CLASSES
  0
CLASS
  1
ACDBDICTIONARYWDFLT
  2
AcDbDictionaryWithDefault
  3
ObjectDBX Classes
 90
        0
280
     0
281
     0
  0
CLASS
  1
ACDBPLACEHOLDER
  2
AcDbPlaceHolder
  3
ObjectDBX Classes
 90
        0
280
     0
281
     0
  0
CLASS
  1
LAYOUT
  2
AcDbLayout
  3
ObjectDBX Classes
 90
        0
280
     0
281
     0
  0
CLASS
  1
DICTIONARYVAR
  2
AcDbDictionaryVar
  3
ObjectDBX Classes
 90
        0
280
     0
281
     0
  0
CLASS
  1
TABLESTYLE
  2
AcDbTableStyle
  3
ObjectDBX Classes
 90
     4095
280
     0
281
     0
  0
CLASS
  1
MATERIAL
  2
AcDbMaterial
  3
ObjectDBX Classes
 90
     1153
280
     0
281
     0
  0
CLASS
  1
VISUALSTYLE
  2
AcDbVisualStyle
  3
ObjectDBX Classes
 90
     4095
280
     0
281
     0
  0
CLASS
  1
SCALE
  2
AcDbScale
  3
ObjectDBX Classes
 90
     1153
280
     0
281
     0
  0
CLASS
  1
MLEADERSTYLE
  2
AcDbMLeaderStyle
  3
ACDB_MLEADERSTYLE_CLASS
 90
     4095
280
     0
281
     0
  0
CLASS
  1
CELLSTYLEMAP
  2
AcDbCellStyleMap
  3
ObjectDBX Classes
 90
     1152
280
     0
281
     0
  0
CLASS
  1
EXACXREFPANELOBJECT
  2
ExAcXREFPanelObject
  3
EXAC_ESW
 90
    33793
280
     0
281
     0
  0
CLASS
  1
NPOCOLLECTION
  2
AcDbImpNonPersistentObjectsCollection
  3
ObjectDBX Classes
 90
    33921
280
     0
281
     0
  0
CLASS
  1
LAYER_INDEX
  2
AcDbLayerIndex
  3
ObjectDBX Classes
 90
    32768
280
     0
281
     0
  0
CLASS
  1
SPATIAL_INDEX
  2
AcDbSpatialIndex
  3
ObjectDBX Classes
 90
    32768
280
     0
281
     0
  0
CLASS
  1
IDBUFFER
  2
AcDbIdBuffer
  3
ObjectDBX Classes
 90
    32768
280
     0
281
     0
  0
CLASS
  1
ACDBSECTIONVIEWSTYLE
  2
AcDbSectionViewStyle
  3
ObjectDBX Classes
 90
     1025
280
     0
281
     0
  0
CLASS
  1
ACDBDETAILVIEWSTYLE
  2
AcDbDetailViewStyle
  3
ObjectDBX Classes
 90
     1025
280
     0
281
     0
  0
CLASS
  1
XRECORD
  2
AcDbXrecord
  3
ObjectDBX Classes
 90
        0
280
     0
281
     0
  0
ENDSEC
  0
SECTION
  2
TABLES
  0
TABLE
  2
VPORT
  5
8
102
{ACAD_XDICTIONARY
360
49FF
102
}
330
0
100
AcDbSymbolTable
 70
     1
  0
VPORT
  5
EA
330
8
100
AcDbSymbolTableRecord
100
AcDbViewportTableRecord
  2
*Active
 70
     0
 10
0.0
 20
0.0
 11
1.0
 21
1.0
 12
15.25589064375492
 22
31.67997034310827
 13
0.0
 23
0.0
 14
10.0
 24
10.0
 15
10.0
 25
10.0
 16
0.0
 26
0.0
 36
1.0
 17
0.0
 27
0.0
 37
0.0
 40
643.0048013600022
 41
0.9846153846153846
 42
50.0
 43
0.0
 44
0.0
 50
0.0
 51
0.0
 71
     0
 72
  1000
 73
     1
 74
     3
 75
     0
 76
     1
 77
     0
 78
     0
281
     0
 65
     1
110
0.0
120
0.0
130
0.0
111
1.0
121
0.0
131
0.0
112
0.0
122
1.0
132
0.0
 79
     0
146
0.0
1001
ACAD_NAV_VCDISPLAY
1070
     3
  0
ENDTAB
  0
TABLE
  2
LTYPE
  5
5
330
0
100
AcDbSymbolTable
 70
     1
  0
LTYPE
  5
14
330
5
100
AcDbSymbolTableRecord
100
AcDbLinetypeTableRecord
  2
ByBlock
 70
     0
  3

 72
    65
 73
     0
 40
0.0
  0
LTYPE
  5
15
330
5
100
AcDbSymbolTableRecord
100
AcDbLinetypeTableRecord
  2
ByLayer
 70
     0
  3

 72
    65
 73
     0
 40
0.0
  0
LTYPE
  5
16
330
5
100
AcDbSymbolTableRecord
100
AcDbLinetypeTableRecord
  2
Continuous
 70
     0
  3
Solid line
 72
    65
 73
     0
 40
0.0
  0
ENDTAB
  0
TABLE
  2
LAYER
  5
2
102
{ACAD_XDICTIONARY
360
1FF
102
}
330
0
100
AcDbSymbolTable
 70
     1
  0
LAYER
  5
10
102
{ACAD_XDICTIONARY
360
13C
102
}
330
2
100
AcDbSymbolTableRecord
100
AcDbLayerTableRecord
  2
0
 70
     0
 62
     7
  6
Continuous
370
    -3
390
F
  0
ENDTAB
  0
TABLE
  2
STYLE
  5
3
330
0
100
AcDbSymbolTable
 70
     1
  0
STYLE
  5
11
330
3
100
AcDbSymbolTableRecord
100
AcDbTextStyleTableRecord
  2
Standard
 70
     0
 40
0.0
 41
1.0
 50
0.0
 71
     0
 42
2.5
  3
arial.ttf
  4

1001
ACAD
1000
Arial
1071
       34
  0
ENDTAB
  0
TABLE
  2
VIEW
  5
6
330
0
100
AcDbSymbolTable
 70
     0
  0
ENDTAB
  0
TABLE
  2
UCS
  5
7
330
0
100
AcDbSymbolTable
 70
     0
  0
ENDTAB
  0
TABLE
  2
APPID
  5
9
330
0
100
AcDbSymbolTable
 70
     8
  0
APPID
  5
12
330
9
100
AcDbSymbolTableRecord
100
AcDbRegAppTableRecord
  2
ACAD
 70
     0
  0
APPID
  5
9E
330
9
100
AcDbSymbolTableRecord
100
AcDbRegAppTableRecord
  2
ACAD_PSEXT
 70
     0
  0
APPID
  5
133
330
9
100
AcDbSymbolTableRecord
100
AcDbRegAppTableRecord
  2
AcadAnnoPO
 70
     0
  0
APPID
  5
134
330
9
100
AcDbSymbolTableRecord
100
AcDbRegAppTableRecord
  2
AcadAnnotative
 70
     0
  0
APPID
  5
135
330
9
100
AcDbSymbolTableRecord
100
AcDbRegAppTableRecord
  2
ACAD_DSTYLE_DIMJAG
 70
     0
  0
APPID
  5
136
330
9
100
AcDbSymbolTableRecord
100
AcDbRegAppTableRecord
  2
ACAD_DSTYLE_DIMTALN
 70
     0
  0
APPID
  5
165
330
9
100
AcDbSymbolTableRecord
100
AcDbRegAppTableRecord
  2
ACAD_MLEADERVER
 70
     0
  0
APPID
  5
217
330
9
100
AcDbSymbolTableRecord
100
AcDbRegAppTableRecord
  2
ACAD_NAV_VCDISPLAY
 70
     0
  0
ENDTAB
  0
TABLE
  2
DIMSTYLE
  5
A
330
0
100
AcDbSymbolTable
 70
     1
100
AcDbDimStyleTable
 71
     0
  0
DIMSTYLE
105
27
330
A
100
AcDbSymbolTableRecord
100
AcDbDimStyleTableRecord
  2
ISO-25
 70
     0
 41
2.5
 42
0.625
 43
3.75
 44
1.25
 73
     0
 74
     0
 77
     1
 78
     8
140
2.5
141
2.5
143
0.03937007874016
147
0.625
171
     3
172
     1
271
     2
272
     2
274
     3
278
    44
283
     0
284
     8
340
11
  0
ENDTAB
  0
TABLE
  2
BLOCK_RECORD
  5
1
330
0
100
AcDbSymbolTable
 70
     7
  0
BLOCK_RECORD
  5
1F
102
{ACAD_XDICTIONARY
360
1CE
102
}
330
1
100
AcDbSymbolTableRecord
100
AcDbBlockTableRecord
  2
*Model_Space
340
22
  0
BLOCK_RECORD
  5
D2
102
{ACAD_XDICTIONARY
360
49B2
102
}
330
1
100
AcDbSymbolTableRecord
100
AcDbBlockTableRecord
  2
*Paper_Space
340
D3
  0
BLOCK_RECORD
  5
D6
102
{ACAD_XDICTIONARY
360
49B4
102
}
330
1
100
AcDbSymbolTableRecord
100
AcDbBlockTableRecord
  2
*Paper_Space0
340
D7
  0
BLOCK_RECORD
  5
47CD
330
1
100
AcDbSymbolTableRecord
100
AcDbBlockTableRecord
  2
E20_3-Front
340
0
102
{BLKREFS
331
49A8
102
}
  0
BLOCK_RECORD
  5
4812
330
1
100
AcDbSymbolTableRecord
100
AcDbBlockTableRecord
  2
E20_3-Left
340
0
102
{BLKREFS
331
49A9
102
}
  0
BLOCK_RECORD
  5
483C
330
1
100
AcDbSymbolTableRecord
100
AcDbBlockTableRecord
  2
E20_3-Right
340
0
102
{BLKREFS
331
49AA
102
}
  0
BLOCK_RECORD
  5
4866
330
1
100
AcDbSymbolTableRecord
100
AcDbBlockTableRecord
  2
E20_3-Top
340
0
102
{BLKREFS
331
49AB
102
}
  0
BLOCK_RECORD
  5
48A4
330
1
100
AcDbSymbolTableRecord
100
AcDbBlockTableRecord
  2
E20_3-Bottom
340
0
102
{BLKREFS
331
49AC
102
}
  0
BLOCK_RECORD
  5
48E7
330
1
100
AcDbSymbolTableRecord
100
AcDbBlockTableRecord
  2
E20_3-ISO
340
0
102
{BLKREFS
331
49AD
102
}
  0
ENDTAB
  0
ENDSEC
  0
SECTION
  2
BLOCKS
  0
BLOCK
  5
20
330
1F
100
AcDbEntity
  8
0
100
AcDbBlockBegin
  2
*Model_Space
 70
     0
 10
0.0
 20
0.0
 30
0.0
  3
*Model_Space
  1

  0
ENDBLK
  5
21
330
1F
100
AcDbEntity
  8
0
100
AcDbBlockEnd
  0
BLOCK
  5
D4
330
D2
100
AcDbEntity
 67
     1
  8
0
100
AcDbBlockBegin
  2
*Paper_Space
 70
     0
 10
0.0
 20
0.0
 30
0.0
  3
*Paper_Space
  1

  0
ENDBLK
  5
D5
330
D2
100
AcDbEntity
 67
     1
  8
0
100
AcDbBlockEnd
  0
BLOCK
  5
D8
330
D6
100
AcDbEntity
 67
     1
  8
0
100
AcDbBlockBegin
  2
*Paper_Space0
 70
     0
 10
0.0
 20
0.0
 30
0.0
  3
*Paper_Space0
  1

  0
ENDBLK
  5
D9
330
D6
100
AcDbEntity
 67
     1
  8
0
100
AcDbBlockEnd
  0
BLOCK
  5
47CE
330
47CD
100
AcDbEntity
  8
0
100
AcDbBlockBegin
  2
E20_3-Front
 70
     0
 10
0.0
 20
0.0
 30
0.0
  3
E20_3-Front
  1

  0
SPLINE
  5
47D0
330
47CD
100
AcDbEntity
  8
0
100
AcDbSpline
210
0.0
220
0.0
230
1.0
 70
     8
 71
     3
 72
    14
 73
    10
 74
     0
 42
0.000000001
 43
0.0000000001
 40
-2.81676436140549
 40
-2.81676436140549
 40
-2.81676436140549
 40
-2.81676436140549
 40
-1.712606700607647
 40
-1.712606700607647
 40
-1.712606700607647
 40
-0.5818330811360239
 40
-0.5818330811360239
 40
-0.5818330811360239
 40
0.0000000000000009
 40
0.0000000000000009
 40
0.0000000000000009
 40
0.0000000000000009
 10
-1.6002289541106
 20
3.665960623687366
 30
0.0
 10
-1.501243540497069
 20
3.664212606953207
 30
0.0
 10
-1.04901571332623
 20
3.66796876015168
 30
0.0
 10
-0.4872815041009408
 20
3.666146138786785
 30
0.0
 10
0.0879934294513316
 20
3.664279582740594
 30
0.0
 10
0.7834473522310701
 20
3.663443537059229
 30
0.0
 10
1.194366538050311
 20
3.665528698727503
 30
0.0
 10
1.40580264857333
 20
3.666601606705923
 30
0.0
 10
1.549736982940923
 20
3.665068968974423
 30
0.0
 10
1.600228954110817
 20
3.665960623687291
 30
0.0
  0
ARC
  5
47D1
330
47CD
100
AcDbEntity
  8
0
100
AcDbCircle
 10
-0.0000000000000023
 20
0.0000000000000213
 30
0.0
 40
4.000000000000001
100
AcDbArc
 50
66.41824321674048
 51
113.5817567832595
  0
LINE
  5
47D2
330
47CD
100
AcDbEntity
  8
0
100
AcDbLine
 10
-3.754781567430736
 20
2.725476579011059
 30
0.0
 11
-1.6002289541106
 21
3.665960623687365
 31
0.0
  0
LINE
  5
47D3
330
47CD
100
AcDbEntity
  8
0
100
AcDbLine
 10
-3.394672316408431
 20
2.725476579011063
 30
0.0
 11
3.394672316408569
 21
2.725476579011063
 31
0.0
  0
LINE
  5
47D4
330
47CD
100
AcDbEntity
  8
0
100
AcDbLine
 10
1.600228954110596
 20
3.665960623687368
 30
0.0
 11
3.75478156743073
 21
2.725476579011063
 31
0.0
  0
LINE
  5
47D5
330
47CD
100
AcDbEntity
  8
0
100
AcDbLine
 10
-5.36882888800259
 20
14.24335103611338
 30
0.0
 11
-10.67299462585855
 21
4.04341920077366
 31
0.0
  0
ELLIPSE
  5
47D6
330
47CD
100
AcDbEntity
  8
0
100
AcDbEllipse
 10
-0.0000000000000131
 20
11.6731714822767
 30
0.0
 11
-6.0
 21
-0.0000000000000061
 31
0.0
210
0.0
220
0.0
230
1.0
 40
0.9594714196205504
 41
5.278824161496224
 42
5.820382804674047
  0
ELLIPSE
  5
47D7
330
47CD
100
AcDbEntity
  8
0
100
AcDbEllipse
 10
-0.0000000000000131
 20
11.6731714822767
 30
0.0
 11
-6.0
 21
-0.000000000000607
 31
0.0
210
0.0
220
0.0
230
1.0
 40
0.9594714196205504
 41
3.604395156095215
 42
4.145953799272533
  0
ELLIPSE
  5
47D8
330
47CD
100
AcDbEntity
  8
0
100
AcDbEllipse
 10
-0.0000000000000131
 20
11.6731714822767
 30
0.0
 11
-6.0
 21
-0.000000000000599
 31
0.0
210
0.0
220
0.0
230
1.0
 40
0.9594714196205508
 41
4.145953799272541
 42
5.278824161496126
  0
LINE
  5
47D9
330
47CD
100
AcDbEntity
  8
0
100
AcDbLine
 10
10.67299462585853
 20
4.043419200773657
 30
0.0
 11
5.368828888002566
 21
14.24335103611338
 31
0.0
  0
ARC
  5
47DA
330
47CD
100
AcDbEntity
  8
0
100
AcDbCircle
 10
-0.0000000000000175
 20
65.27757794513791
 30
0.0
 40
3.804854250307983
100
AcDbArc
 50
26.84960854921254
 51
153.1503914507827
  0
LINE
  5
47DB
330
47CD
100
AcDbEntity
  8
0
100
AcDbLine
 10
-3.75478156743075
 20
65.89282687603426
 30
0.0
 11
-1.600228954110614
 21
65.89282687603426
 31
0.0
  0
SPLINE
  5
47DC
330
47CD
100
AcDbEntity
  8
0
100
AcDbSpline
210
0.0
220
0.0
230
1.0
 70
     8
 71
     3
 72
    14
 73
    10
 74
     0
 42
0.000000001
 43
0.0000000001
 40
-2.81676436140549
 40
-2.81676436140549
 40
-2.81676436140549
 40
-2.81676436140549
 40
-1.712606700607647
 40
-1.712606700607647
 40
-1.712606700607647
 40
-0.5818330811360239
 40
-0.5818330811360239
 40
-0.5818330811360239
 40
0.0000000000000009
 40
0.0000000000000009
 40
0.0000000000000009
 40
0.0000000000000009
 10
-1.600228954110614
 20
65.89282687603422
 30
0.0
 10
-1.501243540497083
 20
66.49218429514899
 30
0.0
 10
-1.049015713326244
 20
66.99411074794655
 30
0.0
 10
-0.4872815041009549
 20
67.17667656006542
 30
0.0
 10
0.0879934294513174
 20
67.36364316048028
 30
0.0
 10
0.7834473522310561
 20
67.18416823118658
 30
0.0
 10
1.194366538050297
 20
66.7291040636467
 30
0.0
 10
1.405802648573316
 20
66.49495340594208
 30
0.0
 10
1.549736982940909
 20
66.19855613877726
 30
0.0
 10
1.600228954110803
 20
65.89282687603419
 30
0.0
  0
LINE
  5
47DD
330
47CD
100
AcDbEntity
  8
0
100
AcDbLine
 10
1.600228954110582
 20
65.89282687603426
 30
0.0
 11
3.754781567430716
 21
65.89282687603426
 31
0.0
  0
LINE
  5
47DE
330
47CD
100
AcDbEntity
  8
0
100
AcDbLine
 10
1.600228954110582
 20
65.89282687603426
 30
0.0
 11
-1.600228954110614
 21
65.89282687603426
 31
0.0
  0
LINE
  5
47DF
330
47CD
100
AcDbEntity
  8
0
100
AcDbLine
 10
-5.36882888800259
 20
18.23152507533717
 30
0.0
 11
-10.67299462585761
 21
15.23570732744017
 31
0.0
  0
ELLIPSE
  5
47E0
330
47CD
100
AcDbEntity
  8
0
100
AcDbEllipse
 10
-0.0000000000000144
 20
17.47663870482243
 30
0.0
 11
-6.0
 21
0.0000000000000003
 31
0.0
210
0.0
220
0.0
230
1.0
 40
0.2818059526186763
 41
5.278824161496189
 42
5.820382804674048
  0
ELLIPSE
  5
47E1
330
47CD
100
AcDbEntity
  8
0
100
AcDbEllipse
 10
-0.0000000000000144
 20
17.47663870482243
 30
0.0
 11
-6.0
 21
-0.0000000000001747
 31
0.0
210
0.0
220
0.0
230
1.0
 40
0.2818059526186761
 41
4.145953799272017
 42
5.278824161495528
  0
ELLIPSE
  5
47E2
330
47CD
100
AcDbEntity
  8
0
100
AcDbEllipse
 10
-0.0000000000000144
 20
17.47663870482243
 30
0.0
 11
-6.000000000000001
 21
-0.000000000000175
 31
0.0
210
0.0
220
0.0
230
1.0
 40
0.2818059526186763
 41
3.604395156093346
 42
4.145953799271357
  0
LINE
  5
47E3
330
47CD
100
AcDbEntity
  8
0
100
AcDbLine
 10
10.67299462585758
 20
15.23570732744017
 30
0.0
 11
5.368828888002563
 21
18.23152507533717
 31
0.0
  0
LINE
  5
47E4
330
47CD
100
AcDbEntity
  8
0
100
AcDbLine
 10
42.5
 20
0.0
 30
0.0
 11
47.5
 21
0.0
 31
0.0
  0
LINE
  5
47E5
330
47CD
100
AcDbEntity
  8
0
100
AcDbLine
 10
-47.49999999999999
 20
0.0
 30
0.0
 11
-42.49999999999999
 21
0.0
 31
0.0
  0
LINE
  5
47E6
330
47CD
100
AcDbEntity
  8
0
100
AcDbLine
 10
-42.49999999999999
 20
2.499999999999985
 30
0.0
 11
-47.49999999999999
 21
2.499999999999985
 31
0.0
  0
LINE
  5
47E7
330
47CD
100
AcDbEntity
  8
0
100
AcDbLine
 10
47.5
 20
2.499999999999985
 30
0.0
 11
42.5
 21
2.499999999999985
 31
0.0
  0
LINE
  5
47E8
330
47CD
100
AcDbEntity
  8
0
100
AcDbLine
 10
42.49999999999999
 20
170.0
 30
0.0
 11
47.49999999999999
 21
165.0
 31
0.0
  0
LINE
  5
47E9
330
47CD
100
AcDbEntity
  8
0
100
AcDbLine
 10
-47.50000000000001
 20
165.0
 30
0.0
 11
-42.50000000000001
 21
170.0
 31
0.0
  0
LINE
  5
47EA
330
47CD
100
AcDbEntity
  8
0
100
AcDbLine
 10
-47.49999999999999
 20
2.499999999999985
 30
0.0
 11
-47.49999999999999
 21
0.0
 31
0.0
  0
LINE
  5
47EB
330
47CD
100
AcDbEntity
  8
0
100
AcDbLine
 10
47.5
 20
0.0
 30
0.0
 11
47.5
 21
2.499999999999985
 31
0.0
  0
LINE
  5
47EC
330
47CD
100
AcDbEntity
  8
0
100
AcDbLine
 10
42.5
 20
2.499999999999985
 30
0.0
 11
42.5
 21
0.0
 31
0.0
  0
LINE
  5
47ED
330
47CD
100
AcDbEntity
  8
0
100
AcDbLine
 10
-42.49999999999999
 20
0.0
 30
0.0
 11
-42.49999999999999
 21
2.499999999999985
 31
0.0
  0
LINE
  5
47EE
330
47CD
100
AcDbEntity
  8
0
100
AcDbLine
 10
-42.49999999999999
 20
0.0
 30
0.0
 11
42.5
 21
0.0
 31
0.0
  0
LINE
  5
47EF
330
47CD
100
AcDbEntity
  8
0
100
AcDbLine
 10
-42.49999999999999
 20
2.499999999999985
 30
0.0
 11
42.5
 21
2.499999999999985
 31
0.0
  0
LINE
  5
47F0
330
47CD
100
AcDbEntity
  8
0
100
AcDbLine
 10
-42.50000000000001
 20
170.0
 30
0.0
 11
42.49999999999999
 21
170.0
 31
0.0
  0
CIRCLE
  5
47F1
330
47CD
100
AcDbEntity
  8
0
100
AcDbCircle
 10
-31.50000000000002
 20
60.0
 30
0.0
 40
5.5
  0
CIRCLE
  5
47F2
330
47CD
100
AcDbEntity
  8
0
100
AcDbCircle
 10
-0.0000000000000164
 20
100.0
 30
0.0
 40
5.5
  0
CIRCLE
  5
47F3
330
47CD
100
AcDbEntity
  8
0
100
AcDbCircle
 10
31.49999999999999
 20
140.0
 30
0.0
 40
5.5
  0
CIRCLE
  5
47F4
330
47CD
100
AcDbEntity
  8
0
100
AcDbCircle
 10
31.49999999999999
 20
60.0
 30
0.0
 40
5.5
  0
CIRCLE
  5
47F5
330
47CD
100
AcDbEntity
  8
0
100
AcDbCircle
 10
-31.50000000000002
 20
140.0
 30
0.0
 40
5.5
  0
CIRCLE
  5
47F6
330
47CD
100
AcDbEntity
  8
0
100
AcDbCircle
 10
39.99999999999999
 20
40.0
 30
0.0
 40
2.5
  0
CIRCLE
  5
47F7
330
47CD
100
AcDbEntity
  8
0
100
AcDbCircle
 10
19.99999999999998
 20
50.0
 30
0.0
 40
2.5
  0
CIRCLE
  5
47F8
330
47CD
100
AcDbEntity
  8
0
100
AcDbCircle
 10
39.99999999999999
 20
80.0
 30
0.0
 40
2.5
  0
CIRCLE
  5
47F9
330
47CD
100
AcDbEntity
  8
0
100
AcDbCircle
 10
19.99999999999998
 20
110.0
 30
0.0
 40
2.5
  0
CIRCLE
  5
47FA
330
47CD
100
AcDbEntity
  8
0
100
AcDbCircle
 10
19.99999999999998
 20
130.0
 30
0.0
 40
2.5
  0
CIRCLE
  5
47FB
330
47CD
100
AcDbEntity
  8
0
100
AcDbCircle
 10
19.99999999999998
 20
150.0
 30
0.0
 40
2.5
  0
CIRCLE
  5
47FC
330
47CD
100
AcDbEntity
  8
0
100
AcDbCircle
 10
-0.0000000000000164
 20
160.0
 30
0.0
 40
2.5
  0
CIRCLE
  5
47FD
330
47CD
100
AcDbEntity
  8
0
100
AcDbCircle
 10
-40.00000000000001
 20
160.0
 30
0.0
 40
2.5
  0
CIRCLE
  5
47FE
330
47CD
100
AcDbEntity
  8
0
100
AcDbCircle
 10
-40.00000000000001
 20
120.0
 30
0.0
 40
2.5
  0
CIRCLE
  5
47FF
330
47CD
100
AcDbEntity
  8
0
100
AcDbCircle
 10
-40.00000000000001
 20
100.0
 30
0.0
 40
2.5
  0
CIRCLE
  5
4800
330
47CD
100
AcDbEntity
  8
0
100
AcDbCircle
 10
-20.00000000000002
 20
70.0
 30
0.0
 40
2.5
  0
CIRCLE
  5
4801
330
47CD
100
AcDbEntity
  8
0
100
AcDbCircle
 10
-20.00000000000002
 20
30.0
 30
0.0
 40
2.5
  0
CIRCLE
  5
4802
330
47CD
100
AcDbEntity
  8
0
100
AcDbCircle
 10
-40.00000000000001
 20
40.0
 30
0.0
 40
2.5
  0
CIRCLE
  5
4803
330
47CD
100
AcDbEntity
  8
0
100
AcDbCircle
 10
-20.00000000000002
 20
50.0
 30
0.0
 40
2.5
  0
CIRCLE
  5
4804
330
47CD
100
AcDbEntity
  8
0
100
AcDbCircle
 10
-40.00000000000001
 20
80.0
 30
0.0
 40
2.5
  0
CIRCLE
  5
4805
330
47CD
100
AcDbEntity
  8
0
100
AcDbCircle
 10
-20.00000000000002
 20
110.0
 30
0.0
 40
2.5
  0
CIRCLE
  5
4806
330
47CD
100
AcDbEntity
  8
0
100
AcDbCircle
 10
-20.00000000000002
 20
130.0
 30
0.0
 40
2.5
  0
CIRCLE
  5
4807
330
47CD
100
AcDbEntity
  8
0
100
AcDbCircle
 10
-20.00000000000002
 20
150.0
 30
0.0
 40
2.5
  0
CIRCLE
  5
4808
330
47CD
100
AcDbEntity
  8
0
100
AcDbCircle
 10
-0.0000000000000164
 20
140.0
 30
0.0
 40
2.5
  0
CIRCLE
  5
4809
330
47CD
100
AcDbEntity
  8
0
100
AcDbCircle
 10
39.99999999999999
 20
160.0
 30
0.0
 40
2.5
  0
CIRCLE
  5
480A
330
47CD
100
AcDbEntity
  8
0
100
AcDbCircle
 10
39.99999999999999
 20
120.0
 30
0.0
 40
2.5
  0
CIRCLE
  5
480B
330
47CD
100
AcDbEntity
  8
0
100
AcDbCircle
 10
39.99999999999999
 20
100.0
 30
0.0
 40
2.5
  0
CIRCLE
  5
480C
330
47CD
100
AcDbEntity
  8
0
100
AcDbCircle
 10
19.99999999999998
 20
70.0
 30
0.0
 40
2.5
  0
CIRCLE
  5
480D
330
47CD
100
AcDbEntity
  8
0
100
AcDbCircle
 10
19.99999999999998
 20
30.0
 30
0.0
 40
2.5
  0
LINE
  5
480E
330
47CD
100
AcDbEntity
  8
0
100
AcDbLine
 10
45.03745134702119
 20
7.49999999963208
 30
0.0
 11
47.49999999999999
 21
165.0
 31
0.0
  0
LINE
  5
480F
330
47CD
100
AcDbEntity
  8
0
100
AcDbLine
 10
-47.50000000000001
 20
165.0
 30
0.0
 11
-45.03745134702122
 21
7.49999999963208
 31
0.0
  0
SPLINE
  5
4810
330
47CD
100
AcDbEntity
  8
0
100
AcDbSpline
210
0.0
220
0.0
230
1.0
 70
     8
 71
     3
 72
    11
 73
     7
 74
     0
 42
0.000000001
 43
0.0000000001
 40
-1.0
 40
-1.0
 40
-1.0
 40
-1.0
 40
-0.9237014399096555
 40
-0.9237014399096555
 40
-0.9237014399096555
 40
0.0
 40
0.0
 40
0.0
 40
0.0
 10
-45.03745134702117
 20
7.499999999632086
 30
0.0
 10
-45.03364144615598
 20
7.300267110958662
 30
0.0
 10
-45.0301222116948
 20
7.100531159362422
 30
0.0
 10
-45.02689365365269
 20
6.902224011316176
 30
0.0
 10
-44.9878074152125
 20
4.501436919426154
 30
0.0
 10
-44.99132713562834
 20
2.5
 30
0.0
 10
-45.0374513470368
 20
2.5
 30
0.0
  0
SPLINE
  5
4811
330
47CD
100
AcDbEntity
  8
0
100
AcDbSpline
210
0.0
220
0.0
230
1.0
 70
     8
 71
     3
 72
    11
 73
     7
 74
     0
 42
0.000000001
 43
0.0000000001
 40
-1.0
 40
-1.0
 40
-1.0
 40
-1.0
 40
-0.9237014399511954
 40
-0.9237014399511954
 40
-0.9237014399511954
 40
0.0
 40
0.0
 40
0.0
 40
0.0
 10
45.03745134703677
 20
2.5
 30
0.0
 10
45.03364144617292
 20
2.5
 30
0.0
 10
45.03012221171267
 20
2.511982295370319
 30
0.0
 10
45.02689365367124
 20
2.535862223086765
 30
0.0
 10
44.98780741521648
 20
2.824962352938523
 30
0.0
 10
44.99132713561778
 20
5.08195231098055
 30
0.0
 10
45.03745134702118
 20
7.49999999963205
 30
0.0
  0
ENDBLK
  5
47CF
330
47CD
100
AcDbEntity
  8
0
100
AcDbBlockEnd
  0
BLOCK
  5
4813
330
4812
100
AcDbEntity
  8
0
100
AcDbBlockBegin
  2
E20_3-Left
 70
     0
 10
0.0
 20
0.0
 30
0.0
  3
E20_3-Left
  1

  0
SPLINE
  5
4815
330
4812
100
AcDbEntity
  8
0
100
AcDbSpline
210
0.0
220
0.0
230
1.0
 70
     8
 71
     3
 72
    11
 73
     7
 74
     0
 42
0.000000001
 43
0.0000000001
 40
-2.81676436140549
 40
-2.81676436140549
 40
-2.81676436140549
 40
-2.81676436140549
 40
-1.712606700607647
 40
-1.712606700607647
 40
-1.712606700607647
 40
-1.405869557959201
 40
-1.405869557959201
 40
-1.405869557959201
 40
-1.405869557959201
 10
65.89282687603422
 20
3.665960623687366
 30
0.0
 10
66.49218429514899
 20
3.664212606953207
 30
0.0
 10
66.99411074794655
 20
3.66796876015168
 30
0.0
 10
67.17667656006542
 20
3.666146138786785
 30
0.0
 10
67.22739369724866
 20
3.665639811031748
 30
0.0
 10
67.25114672464385
 20
3.665209312003431
 30
0.0
 10
67.24974910226684
 20
3.664892381018355
 30
0.0
  0
LINE
  5
4816
330
4812
100
AcDbEntity
  8
0
100
AcDbLine
 10
65.89282687603426
 20
4.000000000000022
 30
0.0
 11
65.89282687603426
 21
3.665960623687366
 31
0.0
  0
LINE
  5
4817
330
4812
100
AcDbEntity
  8
0
100
AcDbLine
 10
65.89282687603426
 20
2.725476579011059
 30
0.0
 11
65.89282687603426
 21
3.665960623687365
 31
0.0
  0
LINE
  5
4818
330
4812
100
AcDbEntity
  8
0
100
AcDbLine
 10
66.9960411336575
 20
2.725476579011063
 30
0.0
 11
69.08243219544589
 21
2.725476579011064
 31
0.0
  0
LINE
  5
4819
330
4812
100
AcDbEntity
  8
0
100
AcDbLine
 10
18.23152507533711
 20
14.24335103611338
 30
0.0
 11
15.23570732743624
 21
4.04341920077366
 31
0.0
  0
LINE
  5
481A
330
4812
100
AcDbEntity
  8
0
100
AcDbLine
 10
18.23152507533711
 20
14.24335103611338
 30
0.0
 11
18.90339853550253
 21
16.53089456257166
 31
0.0
  0
LINE
  5
481B
330
4812
100
AcDbEntity
  8
0
100
AcDbLine
 10
18.90339853550253
 20
16.53089456257167
 30
0.0
 11
19.16747442053445
 21
17.43000000000001
 31
0.0
  0
SPLINE
  5
481C
330
4812
100
AcDbEntity
  8
0
100
AcDbSpline
210
0.0
220
0.0
230
1.0
 70
     8
 71
     3
 72
     8
 73
     4
 74
     0
 42
0.000000001
 43
0.0000000001
 40
0.0
 40
0.0
 40
0.0
 40
0.0
 40
0.1399974892053067
 40
0.1399974892053067
 40
0.1399974892053067
 40
0.1399974892053067
 10
65.89282687603425
 20
3.999999999999437
 30
0.0
 10
66.35662543538623
 20
3.948416448070712
 30
0.0
 10
66.81041070099809
 20
3.815762471198544
 30
0.0
 10
67.25235246025886
 20
3.665904378630779
 30
0.0
  0
LINE
  5
481D
330
4812
100
AcDbEntity
  8
0
100
AcDbLine
 10
67.2538806195803
 20
3.665090133361
 30
0.0
 11
69.08243219544589
 21
2.725476579011063
 31
0.0
  0
SPLINE
  5
481E
330
4812
100
AcDbEntity
  8
0
100
AcDbSpline
210
0.0
220
0.0
230
1.0
 70
     8
 71
     3
 72
    12
 73
     8
 74
     0
 42
0.000000001
 43
0.0000000001
 40
0.0
 40
0.0
 40
0.0
 40
0.0
 40
0.0303144737201363
 40
0.0303144737201363
 40
0.0743567960099954
 40
0.0743567960099954
 40
0.0952376511593965
 40
0.0952376511593965
 40
0.0952376511593965
 40
0.0952376511593965
 10
69.08243219544589
 20
2.725476579011063
 30
0.0
 10
69.16967230816682
 20
2.67448725955772
 30
0.0
 10
69.26475732984084
 20
2.636690356247541
 30
0.0
 10
69.5008522575699
 20
2.561246501337937
 30
0.0
 10
69.64584922687098
 20
2.530858059642734
 30
0.0
 10
69.86074546530929
 20
2.505301244447071
 30
0.0
 10
69.9305432223873
 20
2.500000000000022
 30
0.0
 10
70.00000000000001
 20
2.500000000000022
 30
0.0
  0
SPLINE
  5
481F
330
4812
100
AcDbEntity
  8
0
100
AcDbSpline
210
0.0
220
0.0
230
1.0
 70
     8
 71
     3
 72
     8
 73
     4
 74
     0
 42
0.000000001
 43
0.0000000001
 40
0.0
 40
0.0
 40
0.0
 40
0.0
 40
4.861711079538436
 40
4.861711079538436
 40
4.861711079538436
 40
4.861711079538436
 10
19.16747442053448
 20
17.43000000000001
 30
0.0
 10
34.79383705870612
 20
13.13562928689895
 30
0.0
 10
50.26646423786264
 20
8.294370713101065
 30
0.0
 10
65.89282687603428
 20
4.00000000000002
 30
0.0
  0
LINE
  5
4820
330
4812
100
AcDbEntity
  8
0
100
AcDbLine
 10
2.725476579011049
 20
66.9960411336575
 30
0.0
 11
2.725476579011049
 21
69.08243219544589
 31
0.0
  0
LINE
  5
4821
330
4812
100
AcDbEntity
  8
0
100
AcDbLine
 10
2.725476579011046
 20
65.89282687603426
 30
0.0
 11
3.665960623687352
 21
65.89282687603426
 31
0.0
  0
SPLINE
  5
4822
330
4812
100
AcDbEntity
  8
0
100
AcDbSpline
210
0.0
220
0.0
230
1.0
 70
     8
 71
     3
 72
    11
 73
     7
 74
     0
 42
0.000000001
 43
0.0000000001
 40
-2.81676436140549
 40
-2.81676436140549
 40
-2.81676436140549
 40
-2.81676436140549
 40
-1.712606700607647
 40
-1.712606700607647
 40
-1.712606700607647
 40
-1.405869557959201
 40
-1.405869557959201
 40
-1.405869557959201
 40
-1.405869557959201
 10
3.665960623687352
 20
65.89282687603422
 30
0.0
 10
3.664212606953193
 20
66.49218429514899
 30
0.0
 10
3.667968760151665
 20
66.99411074794655
 30
0.0
 10
3.666146138786769
 20
67.17667656006542
 30
0.0
 10
3.665639811031733
 20
67.22739369724867
 30
0.0
 10
3.665209312003416
 20
67.25114672464385
 30
0.0
 10
3.664892381018339
 20
67.24974910226684
 30
0.0
  0
LINE
  5
4823
330
4812
100
AcDbEntity
  8
0
100
AcDbLine
 10
4.000000000000007
 20
65.89282687603426
 30
0.0
 11
3.665960623687352
 21
65.89282687603426
 31
0.0
  0
SPLINE
  5
4824
330
4812
100
AcDbEntity
  8
0
100
AcDbSpline
210
0.0
220
0.0
230
1.0
 70
     8
 71
     3
 72
    10
 73
     6
 74
     0
 42
0.000000001
 43
0.0000000001
 40
0.0
 40
0.0
 40
0.0
 40
0.0
 40
0.0310445870030604
 40
0.0310445870030604
 40
0.0950132860021398
 40
0.0950132860021398
 40
0.0950132860021398
 40
0.0950132860021398
 10
2.500000000000006
 20
70.00000000000003
 30
0.0
 10
2.500000000000006
 20
69.89693270100791
 30
0.0
 10
2.511104466325289
 20
69.79293029206518
 30
0.0
 10
2.562090878405359
 20
69.48035036028928
 30
0.0
 10
2.617880436706515
 20
69.26652368134177
 30
0.0
 10
2.725476579011049
 20
69.08243219544591
 30
0.0
  0
LINE
  5
4825
330
4812
100
AcDbEntity
  8
0
100
AcDbLine
 10
2.725476579011048
 20
69.08243219544589
 30
0.0
 11
3.665090133360997
 21
67.25388061958027
 31
0.0
  0
SPLINE
  5
4826
330
4812
100
AcDbEntity
  8
0
100
AcDbSpline
210
0.0
220
0.0
230
1.0
 70
     8
 71
     3
 72
     8
 73
     4
 74
     0
 42
0.000000001
 43
0.0000000001
 40
0.0
 40
0.0
 40
0.0
 40
0.0
 40
0.1399974892053075
 40
0.1399974892053075
 40
0.1399974892053075
 40
0.1399974892053075
 10
3.665904378630763
 20
67.25235246025883
 30
0.0
 10
3.815762471198522
 20
66.81041070099806
 30
0.0
 10
3.948416448070731
 20
66.35662543538619
 30
0.0
 10
3.999999999999424
 20
65.89282687603421
 30
0.0
  0
LINE
  5
4827
330
4812
100
AcDbEntity
  8
0
100
AcDbLine
 10
14.24335103611336
 20
18.23152507533717
 30
0.0
 11
4.043419200774474
 21
15.23570732744017
 31
0.0
  0
LINE
  5
4828
330
4812
100
AcDbEntity
  8
0
100
AcDbLine
 10
14.24335103611336
 20
18.23152507533717
 30
0.0
 11
16.53089456257177
 21
18.9033985355026
 31
0.0
  0
LINE
  5
4829
330
4812
100
AcDbEntity
  8
0
100
AcDbLine
 10
16.53089456257177
 20
18.9033985355026
 30
0.0
 11
17.43
 21
19.16747442053448
 31
0.0
  0
SPLINE
  5
482A
330
4812
100
AcDbEntity
  8
0
100
AcDbSpline
210
0.0
220
0.0
230
1.0
 70
     8
 71
     3
 72
     8
 73
     4
 74
     0
 42
0.000000001
 43
0.0000000001
 40
0.0
 40
0.0
 40
0.0
 40
0.0
 40
4.861711079538436
 40
4.861711079538436
 40
4.861711079538436
 40
4.861711079538436
 10
4.000000000000006
 20
65.89282687603428
 30
0.0
 10
8.294370713101058
 20
50.26646423786264
 30
0.0
 10
13.13562928689895
 20
34.79383705870613
 30
0.0
 10
17.43000000000001
 20
19.16747442053449
 30
0.0
  0
LINE
  5
482B
330
4812
100
AcDbEntity
  8
0
100
AcDbLine
 10
108.0
 20
0.0
 30
0.0
 11
113.0
 21
0.0
 31
0.0
  0
LINE
  5
482C
330
4812
100
AcDbEntity
  8
0
100
AcDbLine
 10
0.0
 20
170.0
 30
0.0
 11
0.0
 21
165.0
 31
0.0
  0
LINE
  5
482D
330
4812
100
AcDbEntity
  8
0
100
AcDbLine
 10
113.0
 20
2.499999999999985
 30
0.0
 11
108.0
 21
2.499999999999985
 31
0.0
  0
LINE
  5
482E
330
4812
100
AcDbEntity
  8
0
100
AcDbLine
 10
2.500000000000022
 20
165.0
 30
0.0
 11
2.500000000000021
 21
170.0
 31
0.0
  0
LINE
  5
482F
330
4812
100
AcDbEntity
  8
0
100
AcDbLine
 10
0.0
 20
165.0
 30
0.0
 11
2.500000000000022
 21
165.0
 31
0.0
  0
LINE
  5
4830
330
4812
100
AcDbEntity
  8
0
100
AcDbLine
 10
108.0
 20
2.499999999999985
 30
0.0
 11
108.0
 21
0.0
 31
0.0
  0
LINE
  5
4831
330
4812
100
AcDbEntity
  8
0
100
AcDbLine
 10
113.0
 20
0.0
 30
0.0
 11
113.0
 21
2.499999999999985
 31
0.0
  0
LINE
  5
4832
330
4812
100
AcDbEntity
  8
0
100
AcDbLine
 10
2.500000000000021
 20
170.0
 30
0.0
 11
0.0
 21
170.0
 31
0.0
  0
LINE
  5
4833
330
4812
100
AcDbEntity
  8
0
100
AcDbLine
 10
108.0
 20
0.0
 30
0.0
 11
10.25362385709494
 21
0.0
 31
0.0
  0
LINE
  5
4834
330
4812
100
AcDbEntity
  8
0
100
AcDbLine
 10
10.25362385709493
 20
0.0
 30
0.0
 11
7.500000000000001
 21
0.0
 31
0.0
  0
LINE
  5
4835
330
4812
100
AcDbEntity
  8
0
100
AcDbLine
 10
0.0
 20
7.49999999944813
 30
0.0
 11
0.0
 21
165.0
 31
0.0
  0
LINE
  5
4836
330
4812
100
AcDbEntity
  8
0
100
AcDbLine
 10
7.5
 20
2.500000000000003
 30
0.0
 11
10.25362385709493
 21
2.500000000000003
 31
0.0
  0
LINE
  5
4837
330
4812
100
AcDbEntity
  8
0
100
AcDbLine
 10
10.25362385709493
 20
2.499999999999998
 30
0.0
 11
108.0
 21
2.499999999999985
 31
0.0
  0
LINE
  5
4838
330
4812
100
AcDbEntity
  8
0
100
AcDbLine
 10
2.500000000000022
 20
165.0
 30
0.0
 11
2.500000000000009
 21
7.49999999963208
 31
0.0
  0
SPLINE
  5
4839
330
4812
100
AcDbEntity
  8
0
100
AcDbSpline
210
0.0
220
0.0
230
1.0
 70
     8
 71
     3
 72
    11
 73
     7
 74
     0
 42
0.000000001
 43
0.0000000001
 40
0.0
 40
0.0
 40
0.0
 40
0.0
 40
0.9237014399096555
 40
0.9237014399096555
 40
0.9237014399096555
 40
0.9999999999999998
 40
0.9999999999999998
 40
0.9999999999999998
 40
0.9999999999999998
 10
7.500000000000008
 20
0.0
 30
0.0
 10
3.872928467198679
 20
0.0000000000000006
 30
0.0
 10
0.4874435300128095
 20
3.002155379139282
 30
0.0
 10
0.0537933347546494
 20
6.603336016974267
 30
0.0
 10
0.0179734431191763
 20
6.900796739043632
 30
0.0
 10
0.0000000000220553
 20
7.200400666437993
 30
0.0
 10
0.0000000000000098
 20
7.49999999944813
 30
0.0
  0
SPLINE
  5
483A
330
4812
100
AcDbEntity
  8
0
100
AcDbSpline
210
0.0
220
0.0
230
1.0
 70
     8
 71
     3
 72
    11
 73
     7
 74
     0
 42
0.000000001
 43
0.0000000001
 40
-1.0
 40
-1.0
 40
-1.0
 40
-1.0
 40
-0.9237014399096555
 40
-0.9237014399096555
 40
-0.9237014399096555
 40
0.0
 40
0.0
 40
0.0
 40
0.0
 10
2.500000000000009
 20
7.499999999632086
 30
0.0
 10
2.500000000014707
 20
7.300267110958662
 30
0.0
 10
2.511982295412788
 20
7.100531159362422
 30
0.0
 10
2.53586222316977
 20
6.902224011316176
 30
0.0
 10
2.824962353341882
 20
4.501436919426154
 30
0.0
 10
5.08195231146579
 20
2.5
 30
0.0
 10
7.500000000000008
 20
2.5
 30
0.0
  0
ARC
  5
483B
330
4812
100
AcDbEntity
  8
0
100
AcDbCircle
 10
19.89
 20
19.89
 30
0.0
 40
2.563911701479197
100
AcDbArc
 50
196.3680192154318
 51
253.6319807845675
  0
ENDBLK
  5
4814
330
4812
100
AcDbEntity
  8
0
100
AcDbBlockEnd
  0
BLOCK
  5
483D
330
483C
100
AcDbEntity
  8
0
100
AcDbBlockBegin
  2
E20_3-Right
 70
     0
 10
0.0
 20
0.0
 30
0.0
  3
E20_3-Right
  1

  0
SPLINE
  5
483F
330
483C
100
AcDbEntity
  8
0
100
AcDbSpline
210
0.0
220
0.0
230
1.0
 70
     8
 71
     3
 72
    11
 73
     7
 74
     0
 42
0.000000001
 43
0.0000000001
 40
-1.405869557959201
 40
-1.405869557959201
 40
-1.405869557959201
 40
-1.405869557959201
 40
-0.5818330811360239
 40
-0.5818330811360239
 40
-0.5818330811360239
 40
0.0000000000000009
 40
0.0000000000000009
 40
0.0000000000000009
 40
0.0000000000000009
 10
-67.24974910226684
 20
3.664892381018355
 30
0.0
 10
-67.24599444833247
 20
3.664040959211124
 30
0.0
 10
-67.06072612034382
 20
3.664009164450134
 30
0.0
 10
-66.7291040636467
 20
3.665528698727503
 30
0.0
 10
-66.49495340594208
 20
3.666601606705923
 30
0.0
 10
-66.19855613877726
 20
3.665068968974423
 30
0.0
 10
-65.89282687603419
 20
3.665960623687291
 30
0.0
  0
LINE
  5
4840
330
483C
100
AcDbEntity
  8
0
100
AcDbLine
 10
-65.89282687603426
 20
3.665960623687367
 30
0.0
 11
-65.89282687603426
 21
4.000000000000022
 31
0.0
  0
LINE
  5
4841
330
483C
100
AcDbEntity
  8
0
100
AcDbLine
 10
-69.08243219544589
 20
2.725476579011064
 30
0.0
 11
-66.99604113365722
 21
2.725476579011063
 31
0.0
  0
LINE
  5
4842
330
483C
100
AcDbEntity
  8
0
100
AcDbLine
 10
-65.89282687603426
 20
3.665960623687368
 30
0.0
 11
-65.89282687603426
 21
2.725476579011063
 31
0.0
  0
LINE
  5
4843
330
483C
100
AcDbEntity
  8
0
100
AcDbLine
 10
-18.90339853550206
 20
16.53089456257008
 30
0.0
 11
-18.23152507533711
 21
14.24335103611338
 31
0.0
  0
LINE
  5
4844
330
483C
100
AcDbEntity
  8
0
100
AcDbLine
 10
-19.16747442053445
 20
17.43000000000001
 30
0.0
 11
-18.90339853550206
 21
16.53089456257008
 31
0.0
  0
LINE
  5
4845
330
483C
100
AcDbEntity
  8
0
100
AcDbLine
 10
-15.23570732743623
 20
4.043419200773657
 30
0.0
 11
-18.2315250753371
 21
14.24335103611338
 31
0.0
  0
SPLINE
  5
4846
330
483C
100
AcDbEntity
  8
0
100
AcDbSpline
210
0.0
220
0.0
230
1.0
 70
     8
 71
     3
 72
     8
 73
     4
 74
     0
 42
0.000000001
 43
0.0000000001
 40
0.0
 40
0.0
 40
0.0
 40
0.0
 40
0.1399974892053058
 40
0.1399974892053058
 40
0.1399974892053058
 40
0.1399974892053058
 10
-67.25235246025886
 20
3.665904378630779
 30
0.0
 10
-66.81041070099808
 20
3.815762471198524
 30
0.0
 10
-66.35662543538622
 20
3.948416448070712
 30
0.0
 10
-65.89282687603425
 20
3.999999999999437
 30
0.0
  0
LINE
  5
4847
330
483C
100
AcDbEntity
  8
0
100
AcDbLine
 10
-69.08243219544589
 20
2.725476579011063
 30
0.0
 11
-67.2538806195803
 21
3.665090133361
 31
0.0
  0
SPLINE
  5
4848
330
483C
100
AcDbEntity
  8
0
100
AcDbSpline
210
0.0
220
0.0
230
1.0
 70
     8
 71
     3
 72
    10
 73
     6
 74
     0
 42
0.000000001
 43
0.0000000001
 40
0.0
 40
0.0
 40
0.0
 40
0.0
 40
0.0310445870030578
 40
0.0310445870030578
 40
0.0950132860021397
 40
0.0950132860021397
 40
0.0950132860021397
 40
0.0950132860021397
 10
-70.00000000000001
 20
2.500000000000022
 30
0.0
 10
-69.8969327010079
 20
2.500000000000022
 30
0.0
 10
-69.7929302920652
 20
2.511104466325307
 30
0.0
 10
-69.4803503602893
 20
2.562090878405375
 30
0.0
 10
-69.26652368134177
 20
2.617880436706526
 30
0.0
 10
-69.08243219544589
 20
2.725476579011063
 30
0.0
  0
SPLINE
  5
4849
330
483C
100
AcDbEntity
  8
0
100
AcDbSpline
210
0.0
220
0.0
230
1.0
 70
     8
 71
     3
 72
     8
 73
     4
 74
     0
 42
0.000000001
 43
0.0000000001
 40
0.0
 40
0.0
 40
0.0
 40
0.0
 40
4.861711079538436
 40
4.861711079538436
 40
4.861711079538436
 40
4.861711079538436
 10
-65.89282687603428
 20
4.000000000000019
 30
0.0
 10
-50.26646423786264
 20
8.294370713101068
 30
0.0
 10
-34.79383705870612
 20
13.13562928689895
 30
0.0
 10
-19.16747442053448
 20
17.43000000000001
 30
0.0
  0
LINE
  5
484A
330
483C
100
AcDbEntity
  8
0
100
AcDbLine
 10
-2.725476579011049
 20
69.08243219544589
 30
0.0
 11
-2.725476579011048
 21
66.99604113365722
 31
0.0
  0
SPLINE
  5
484B
330
483C
100
AcDbEntity
  8
0
100
AcDbSpline
210
0.0
220
0.0
230
1.0
 70
     8
 71
     3
 72
    11
 73
     7
 74
     0
 42
0.000000001
 43
0.0000000001
 40
-1.405866934771311
 40
-1.405866934771311
 40
-1.405866934771311
 40
-1.405866934771311
 40
-0.5818330811360239
 40
-0.5818330811360239
 40
-0.5818330811360239
 40
0.0000000000000009
 40
0.0000000000000009
 40
0.0000000000000009
 40
0.0000000000000009
 10
-3.66489237288727
 20
67.24974906640432
 30
0.0
 10
-3.664040959008698
 20
67.245993268787
 30
0.0
 10
-3.664009169287312
 20
67.06072506467823
 30
0.0
 10
-3.665528698727488
 20
66.7291040636467
 30
0.0
 10
-3.666601606705908
 20
66.49495340594208
 30
0.0
 10
-3.665068968974408
 20
66.19855613877726
 30
0.0
 10
-3.665960623687276
 20
65.89282687603419
 30
0.0
  0
LINE
  5
484C
330
483C
100
AcDbEntity
  8
0
100
AcDbLine
 10
-3.665960623687353
 20
65.89282687603426
 30
0.0
 11
-2.725476579011049
 21
65.89282687603426
 31
0.0
  0
LINE
  5
484D
330
483C
100
AcDbEntity
  8
0
100
AcDbLine
 10
-3.665960623687351
 20
65.89282687603426
 30
0.0
 11
-4.000000000000007
 21
65.89282687603426
 31
0.0
  0
SPLINE
  5
484E
330
483C
100
AcDbEntity
  8
0
100
AcDbSpline
210
0.0
220
0.0
230
1.0
 70
     8
 71
     3
 72
    12
 73
     8
 74
     0
 42
0.000000001
 43
0.0000000001
 40
0.0
 40
0.0
 40
0.0
 40
0.0
 40
0.0303144737201364
 40
0.0303144737201364
 40
0.0743567960099963
 40
0.0743567960099963
 40
0.0952376511593965
 40
0.0952376511593965
 40
0.0952376511593965
 40
0.0952376511593965
 10
-2.725476579011048
 20
69.08243219544589
 30
0.0
 10
-2.674487259557705
 20
69.16967230816682
 30
0.0
 10
-2.636690356247525
 20
69.26475732984084
 30
0.0
 10
-2.561246501337919
 20
69.50085225756992
 30
0.0
 10
-2.530858059642717
 20
69.64584922687098
 30
0.0
 10
-2.505301244447056
 20
69.86074546530928
 30
0.0
 10
-2.500000000000006
 20
69.9305432223873
 30
0.0
 10
-2.500000000000006
 20
70.00000000000001
 30
0.0
  0
LINE
  5
484F
330
483C
100
AcDbEntity
  8
0
100
AcDbLine
 10
-3.665090133360997
 20
67.25388061958027
 30
0.0
 11
-2.725476579011048
 21
69.08243219544589
 31
0.0
  0
SPLINE
  5
4850
330
483C
100
AcDbEntity
  8
0
100
AcDbSpline
210
0.0
220
0.0
230
1.0
 70
     8
 71
     3
 72
     8
 73
     4
 74
     0
 42
0.000000001
 43
0.0000000001
 40
0.0
 40
0.0
 40
0.0
 40
0.0
 40
0.1399974892053076
 40
0.1399974892053076
 40
0.1399974892053076
 40
0.1399974892053076
 10
-3.999999999999424
 20
65.89282687603421
 30
0.0
 10
-3.948416448070731
 20
66.35662543538619
 30
0.0
 10
-3.815762471198494
 20
66.81041070099806
 30
0.0
 10
-3.665904378630762
 20
67.25235246025883
 30
0.0
  0
LINE
  5
4851
330
483C
100
AcDbEntity
  8
0
100
AcDbLine
 10
-17.43
 20
19.16747442053448
 30
0.0
 11
-16.53089456257019
 21
18.90339853550213
 31
0.0
  0
LINE
  5
4852
330
483C
100
AcDbEntity
  8
0
100
AcDbLine
 10
-16.53089456257019
 20
18.90339853550214
 30
0.0
 11
-14.24335103611336
 21
18.23152507533717
 31
0.0
  0
LINE
  5
4853
330
483C
100
AcDbEntity
  8
0
100
AcDbLine
 10
-4.043419200774463
 20
15.23570732744017
 30
0.0
 11
-14.24335103611336
 21
18.23152507533717
 31
0.0
  0
SPLINE
  5
4854
330
483C
100
AcDbEntity
  8
0
100
AcDbSpline
210
0.0
220
0.0
230
1.0
 70
     8
 71
     3
 72
     8
 73
     4
 74
     0
 42
0.000000001
 43
0.0000000001
 40
0.0
 40
0.0
 40
0.0
 40
0.0
 40
4.861711079538436
 40
4.861711079538436
 40
4.861711079538436
 40
4.861711079538436
 10
-17.43000000000001
 20
19.16747442053449
 30
0.0
 10
-13.13562928689895
 20
34.79383705870613
 30
0.0
 10
-8.294370713101058
 20
50.26646423786264
 30
0.0
 10
-4.000000000000006
 20
65.89282687603428
 30
0.0
  0
LINE
  5
4855
330
483C
100
AcDbEntity
  8
0
100
AcDbLine
 10
-10.25362385709504
 20
0.0
 30
0.0
 11
-108.0
 21
0.0
 31
0.0
  0
LINE
  5
4856
330
483C
100
AcDbEntity
  8
0
100
AcDbLine
 10
-7.499999999999957
 20
0.0
 30
0.0
 11
-10.25362385709498
 21
0.0
 31
0.0
  0
LINE
  5
4857
330
483C
100
AcDbEntity
  8
0
100
AcDbLine
 10
0.0
 20
165.0
 30
0.0
 11
0.0
 21
7.499999999448121
 31
0.0
  0
LINE
  5
4858
330
483C
100
AcDbEntity
  8
0
100
AcDbLine
 10
-108.0
 20
2.499999999999985
 30
0.0
 11
-10.25362385709504
 21
2.499999999999998
 31
0.0
  0
LINE
  5
4859
330
483C
100
AcDbEntity
  8
0
100
AcDbLine
 10
-10.25362385709498
 20
2.500000000000001
 30
0.0
 11
-7.499999999999955
 21
2.500000000000002
 31
0.0
  0
LINE
  5
485A
330
483C
100
AcDbEntity
  8
0
100
AcDbLine
 10
-2.49999999999999
 20
7.49999999963208
 30
0.0
 11
-2.5
 21
165.0
 31
0.0
  0
SPLINE
  5
485B
330
483C
100
AcDbEntity
  8
0
100
AcDbSpline
210
0.0
220
0.0
230
1.0
 70
     8
 71
     3
 72
    11
 73
     7
 74
     0
 42
0.000000001
 43
0.0000000001
 40
0.0
 40
0.0
 40
0.0
 40
0.0
 40
0.9237014399511952
 40
0.9237014399511952
 40
0.9237014399511952
 40
1.0
 40
1.0
 40
1.0
 40
1.0
 10
0.0000000000000098
 20
7.499999999448077
 30
0.0
 10
-0.0000000002669054
 20
3.872928466470825
 30
0.0
 10
-3.002155379951303
 20
0.4874435294077849
 30
0.0
 10
-6.603336018008074
 20
0.0537933346301484
 30
0.0
 10
-6.900796739920432
 20
0.0179734430554796
 30
0.0
 10
-7.200400667152968
 20
0.0000000000000016
 30
0.0
 10
-7.499999999999948
 20
0.0
 30
0.0
  0
SPLINE
  5
485C
330
483C
100
AcDbEntity
  8
0
100
AcDbSpline
210
0.0
220
0.0
230
1.0
 70
     8
 71
     3
 72
    11
 73
     7
 74
     0
 42
0.000000001
 43
0.0000000001
 40
-1.0
 40
-1.0
 40
-1.0
 40
-1.0
 40
-0.9237014399511954
 40
-0.9237014399511954
 40
-0.9237014399511954
 40
0.0
 40
0.0
 40
0.0
 40
0.0
 10
-7.499999999999962
 20
2.5
 30
0.0
 10
-7.300267111435308
 20
2.5
 30
0.0
 10
-7.100531159946951
 20
2.511982295370319
 30
0.0
 10
-6.90222401200538
 20
2.535862223086765
 30
0.0
 10
-4.501436919967531
 20
2.824962352938523
 30
0.0
 10
-2.500000000177933
 20
5.08195231098055
 30
0.0
 10
-2.49999999999999
 20
7.49999999963205
 30
0.0
  0
LINE
  5
485D
330
483C
100
AcDbEntity
  8
0
100
AcDbLine
 10
-113.0
 20
0.0
 30
0.0
 11
-108.0
 21
0.0
 31
0.0
  0
LINE
  5
485E
330
483C
100
AcDbEntity
  8
0
100
AcDbLine
 10
0.0
 20
165.0
 30
0.0
 11
0.0
 21
170.0
 31
0.0
  0
LINE
  5
485F
330
483C
100
AcDbEntity
  8
0
100
AcDbLine
 10
-108.0
 20
2.499999999999985
 30
0.0
 11
-113.0
 21
2.499999999999985
 31
0.0
  0
LINE
  5
4860
330
483C
100
AcDbEntity
  8
0
100
AcDbLine
 10
-2.500000000000002
 20
170.0
 30
0.0
 11
-2.5
 21
165.0
 31
0.0
  0
LINE
  5
4861
330
483C
100
AcDbEntity
  8
0
100
AcDbLine
 10
-2.5
 20
165.0
 30
0.0
 11
0.0
 21
165.0
 31
0.0
  0
LINE
  5
4862
330
483C
100
AcDbEntity
  8
0
100
AcDbLine
 10
-108.0
 20
0.0
 30
0.0
 11
-108.0
 21
2.499999999999985
 31
0.0
  0
LINE
  5
4863
330
483C
100
AcDbEntity
  8
0
100
AcDbLine
 10
-113.0
 20
2.499999999999985
 30
0.0
 11
-113.0
 21
0.0
 31
0.0
  0
LINE
  5
4864
330
483C
100
AcDbEntity
  8
0
100
AcDbLine
 10
0.0
 20
170.0
 30
0.0
 11
-2.500000000000002
 21
170.0
 31
0.0
  0
ARC
  5
4865
330
483C
100
AcDbEntity
  8
0
100
AcDbCircle
 10
-19.89
 20
19.89
 30
0.0
 40
2.563911701479197
100
AcDbArc
 50
286.3680192154325
 51
343.6319807845681
  0
ENDBLK
  5
483E
330
483C
100
AcDbEntity
  8
0
100
AcDbBlockEnd
  0
BLOCK
  5
4867
330
4866
100
AcDbEntity
  8
0
100
AcDbBlockBegin
  2
E20_3-Top
 70
     0
 10
0.0
 20
0.0
 30
0.0
  3
E20_3-Top
  1

  0
SPLINE
  5
4869
330
4866
100
AcDbEntity
  8
0
100
AcDbSpline
210
0.0
220
0.0
230
1.0
 70
     8
 71
     3
 72
    14
 73
    10
 74
     0
 42
0.000000001
 43
0.0000000001
 40
-2.81676436140549
 40
-2.81676436140549
 40
-2.81676436140549
 40
-2.81676436140549
 40
-1.712606700607647
 40
-1.712606700607647
 40
-1.712606700607647
 40
-0.5818330811360239
 40
-0.5818330811360239
 40
-0.5818330811360239
 40
0.0000000000000009
 40
0.0000000000000009
 40
0.0000000000000009
 40
0.0000000000000009
 10
-1.6002289541106
 20
-65.89282687603422
 30
0.0
 10
-1.501243540497069
 20
-66.49218429514899
 30
0.0
 10
-1.04901571332623
 20
-66.99411074794655
 30
0.0
 10
-0.4872815041009408
 20
-67.17667656006542
 30
0.0
 10
0.0879934294513316
 20
-67.36364316048028
 30
0.0
 10
0.7834473522310701
 20
-67.18416823118658
 30
0.0
 10
1.194366538050311
 20
-66.7291040636467
 30
0.0
 10
1.40580264857333
 20
-66.49495340594208
 30
0.0
 10
1.549736982940923
 20
-66.19855613877726
 30
0.0
 10
1.600228954110817
 20
-65.89282687603419
 30
0.0
  0
LINE
  5
486A
330
4866
100
AcDbEntity
  8
0
100
AcDbLine
 10
1.600228954110596
 20
-65.89282687603426
 30
0.0
 11
-1.6002289541106
 21
-65.89282687603426
 31
0.0
  0
LINE
  5
486B
330
4866
100
AcDbEntity
  8
0
100
AcDbLine
 10
-3.754781567430736
 20
-65.89282687603426
 30
0.0
 11
-1.6002289541106
 21
-65.89282687603426
 31
0.0
  0
ARC
  5
486C
330
4866
100
AcDbEntity
  8
0
100
AcDbCircle
 10
-0.0000000000000036
 20
-65.27757794513791
 30
0.0
 40
3.804854250307983
100
AcDbArc
 50
206.8496085492173
 51
333.1503914507875
  0
LINE
  5
486D
330
4866
100
AcDbEntity
  8
0
100
AcDbLine
 10
1.600228954110596
 20
-65.89282687603426
 30
0.0
 11
3.75478156743073
 21
-65.89282687603426
 31
0.0
  0
LINE
  5
486E
330
4866
100
AcDbEntity
  8
0
100
AcDbLine
 10
-5.36882888800259
 20
-18.23152507533711
 30
0.0
 11
-10.67299462585855
 21
-15.23570732743624
 31
0.0
  0
ELLIPSE
  5
486F
330
4866
100
AcDbEntity
  8
0
100
AcDbEllipse
 10
-0.0000000000000131
 20
-17.47663870482233
 30
0.0
 11
-6.0
 21
-0.0000000000000011
 31
0.0
210
0.0
220
0.0
230
1.0
 40
0.2818059526186863
 41
0.4628025025055358
 42
1.00436114568336
  0
ELLIPSE
  5
4870
330
4866
100
AcDbEntity
  8
0
100
AcDbEllipse
 10
-0.0000000000000131
 20
-17.47663870482233
 30
0.0
 11
-6.0
 21
0.0000000000001724
 31
0.0
210
0.0
220
0.0
230
1.0
 40
0.2818059526186863
 41
2.137231507908264
 42
2.678790151086236
  0
ELLIPSE
  5
4871
330
4866
100
AcDbEntity
  8
0
100
AcDbEllipse
 10
-0.0000000000000131
 20
-17.47663870482233
 30
0.0
 11
-6.0
 21
0.0000000000001736
 31
0.0
210
0.0
220
0.0
230
1.0
 40
0.2818059526186864
 41
1.004361145684019
 42
2.137231507907603
  0
LINE
  5
4872
330
4866
100
AcDbEntity
  8
0
100
AcDbLine
 10
10.67299462585853
 20
-15.23570732743623
 30
0.0
 11
5.368828888002566
 21
-18.2315250753371
 31
0.0
  0
LINE
  5
4873
330
4866
100
AcDbEntity
  8
0
100
AcDbLine
 10
-3.394672316408446
 20
-2.72547657901105
 30
0.0
 11
3.394672316408554
 21
-2.725476579011048
 31
0.0
  0
LINE
  5
4874
330
4866
100
AcDbEntity
  8
0
100
AcDbLine
 10
-3.75478156743075
 20
-2.725476579011046
 30
0.0
 11
-1.600228954110614
 21
-3.665960623687352
 31
0.0
  0
SPLINE
  5
4875
330
4866
100
AcDbEntity
  8
0
100
AcDbSpline
210
0.0
220
0.0
230
1.0
 70
     8
 71
     3
 72
    14
 73
    10
 74
     0
 42
0.000000001
 43
0.0000000001
 40
-2.81676436140549
 40
-2.81676436140549
 40
-2.81676436140549
 40
-2.81676436140549
 40
-1.712606700607647
 40
-1.712606700607647
 40
-1.712606700607647
 40
-0.5818330811360239
 40
-0.5818330811360239
 40
-0.5818330811360239
 40
0.0000000000000009
 40
0.0000000000000009
 40
0.0000000000000009
 40
0.0000000000000009
 10
-1.600228954110614
 20
-3.665960623687352
 30
0.0
 10
-1.501243540497083
 20
-3.664212606953193
 30
0.0
 10
-1.049015713326244
 20
-3.667968760151665
 30
0.0
 10
-0.4872815041009549
 20
-3.666146138786769
 30
0.0
 10
0.0879934294513174
 20
-3.664279582740579
 30
0.0
 10
0.7834473522310561
 20
-3.663443537059213
 30
0.0
 10
1.194366538050297
 20
-3.665528698727488
 30
0.0
 10
1.405802648573316
 20
-3.666601606705908
 30
0.0
 10
1.549736982940909
 20
-3.665068968974408
 30
0.0
 10
1.600228954110803
 20
-3.665960623687276
 30
0.0
  0
LINE
  5
4876
330
4866
100
AcDbEntity
  8
0
100
AcDbLine
 10
1.600228954110582
 20
-3.665960623687353
 30
0.0
 11
3.754781567430716
 21
-2.725476579011048
 31
0.0
  0
ARC
  5
4877
330
4866
100
AcDbEntity
  8
0
100
AcDbCircle
 10
-0.000000000000017
 20
-0.0000000000000067
 30
0.0
 40
4.000000000000001
100
AcDbArc
 50
246.4182432167405
 51
293.5817567832596
  0
LINE
  5
4878
330
4866
100
AcDbEntity
  8
0
100
AcDbLine
 10
-5.36882888800259
 20
-14.24335103611336
 30
0.0
 11
-10.67299462585761
 21
-4.043419200774474
 31
0.0
  0
ELLIPSE
  5
4879
330
4866
100
AcDbEntity
  8
0
100
AcDbEllipse
 10
-0.0000000000000144
 20
-11.67317148227668
 30
0.0
 11
-6.0
 21
-0.0000000000000078
 31
0.0
210
0.0
220
0.0
230
1.0
 40
0.9594714196205536
 41
0.4628025025055358
 42
1.004361145683395
  0
ELLIPSE
  5
487A
330
4866
100
AcDbEntity
  8
0
100
AcDbEllipse
 10
-0.0000000000000144
 20
-11.67317148227668
 30
0.0
 11
-6.0
 21
0.0000000000005984
 31
0.0
210
0.0
220
0.0
230
1.0
 40
0.9594714196205536
 41
1.004361145683494
 42
2.137231507907005
  0
ELLIPSE
  5
487B
330
4866
100
AcDbEntity
  8
0
100
AcDbEllipse
 10
-0.0000000000000144
 20
-11.67317148227668
 30
0.0
 11
-6.0
 21
0.0000000000005759
 31
0.0
210
0.0
220
0.0
230
1.0
 40
0.9594714196205536
 41
2.13723150790701
 42
2.678790151084365
  0
LINE
  5
487C
330
4866
100
AcDbEntity
  8
0
100
AcDbLine
 10
10.67299462585758
 20
-4.043419200774463
 30
0.0
 11
5.368828888002563
 21
-14.24335103611336
 31
0.0
  0
LINE
  5
487D
330
4866
100
AcDbEntity
  8
0
100
AcDbLine
 10
-42.50000000000001
 20
0.0
 30
0.0
 11
-47.50000000000001
 21
0.0
 31
0.0
  0
LINE
  5
487E
330
4866
100
AcDbEntity
  8
0
100
AcDbLine
 10
47.49999999999999
 20
0.0
 30
0.0
 11
42.49999999999999
 21
0.0
 31
0.0
  0
LINE
  5
487F
330
4866
100
AcDbEntity
  8
0
100
AcDbLine
 10
-42.49999999999999
 20
-113.0
 30
0.0
 11
-47.49999999999999
 21
-108.0
 31
0.0
  0
LINE
  5
4880
330
4866
100
AcDbEntity
  8
0
100
AcDbLine
 10
47.5
 20
-108.0
 30
0.0
 11
42.5
 21
-113.0
 31
0.0
  0
LINE
  5
4881
330
4866
100
AcDbEntity
  8
0
100
AcDbLine
 10
42.49999999999999
 20
-2.500000000000002
 30
0.0
 11
47.49999999999999
 21
-2.5
 31
0.0
  0
LINE
  5
4882
330
4866
100
AcDbEntity
  8
0
100
AcDbLine
 10
-47.50000000000001
 20
-2.500000000000022
 30
0.0
 11
-42.50000000000001
 21
-2.500000000000021
 31
0.0
  0
LINE
  5
4883
330
4866
100
AcDbEntity
  8
0
100
AcDbLine
 10
-47.50000000000001
 20
0.0
 30
0.0
 11
-47.50000000000001
 21
-2.500000000000022
 31
0.0
  0
LINE
  5
4884
330
4866
100
AcDbEntity
  8
0
100
AcDbLine
 10
47.49999999999999
 20
-2.5
 30
0.0
 11
47.49999999999999
 21
0.0
 31
0.0
  0
LINE
  5
4885
330
4866
100
AcDbEntity
  8
0
100
AcDbLine
 10
-42.50000000000001
 20
-2.500000000000021
 30
0.0
 11
-42.50000000000001
 21
0.0
 31
0.0
  0
LINE
  5
4886
330
4866
100
AcDbEntity
  8
0
100
AcDbLine
 10
42.49999999999999
 20
0.0
 30
0.0
 11
42.49999999999999
 21
-2.500000000000002
 31
0.0
  0
LINE
  5
4887
330
4866
100
AcDbEntity
  8
0
100
AcDbLine
 10
42.49999999999999
 20
0.0
 30
0.0
 11
-42.50000000000001
 21
0.0
 31
0.0
  0
LINE
  5
4888
330
4866
100
AcDbEntity
  8
0
100
AcDbLine
 10
-42.49999999999999
 20
-113.0
 30
0.0
 11
42.5
 21
-113.0
 31
0.0
  0
LINE
  5
4889
330
4866
100
AcDbEntity
  8
0
100
AcDbLine
 10
-42.50000000000001
 20
-2.500000000000021
 30
0.0
 11
42.49999999999999
 21
-2.500000000000002
 31
0.0
  0
CIRCLE
  5
488A
330
4866
100
AcDbEntity
  8
0
100
AcDbCircle
 10
-40.0
 20
-44.00000000000001
 30
0.0
 40
2.5
  0
CIRCLE
  5
488B
330
4866
100
AcDbEntity
  8
0
100
AcDbCircle
 10
-20.00000000000001
 20
-33.00000000000002
 30
0.0
 40
2.5
  0
CIRCLE
  5
488C
330
4866
100
AcDbEntity
  8
0
100
AcDbCircle
 10
20.0
 20
-53.0
 30
0.0
 40
2.5
  0
CIRCLE
  5
488D
330
4866
100
AcDbEntity
  8
0
100
AcDbCircle
 10
39.99999999999999
 20
-13.0
 30
0.0
 40
2.5
  0
CIRCLE
  5
488E
330
4866
100
AcDbEntity
  8
0
100
AcDbCircle
 10
40.0
 20
-63.99999999999999
 30
0.0
 40
2.5
  0
CIRCLE
  5
488F
330
4866
100
AcDbEntity
  8
0
100
AcDbCircle
 10
0.0000000000000017
 20
-84.0
 30
0.0
 40
2.5
  0
CIRCLE
  5
4890
330
4866
100
AcDbEntity
  8
0
100
AcDbCircle
 10
-40.0
 20
-104.0
 30
0.0
 40
2.5
  0
CIRCLE
  5
4891
330
4866
100
AcDbEntity
  8
0
100
AcDbCircle
 10
40.0
 20
-104.0
 30
0.0
 40
2.5
  0
CIRCLE
  5
4892
330
4866
100
AcDbEntity
  8
0
100
AcDbCircle
 10
0.0000000000000061
 20
-104.0
 30
0.0
 40
2.5
  0
CIRCLE
  5
4893
330
4866
100
AcDbEntity
  8
0
100
AcDbCircle
 10
-40.0
 20
-84.0
 30
0.0
 40
2.5
  0
CIRCLE
  5
4894
330
4866
100
AcDbEntity
  8
0
100
AcDbCircle
 10
40.0
 20
-84.0
 30
0.0
 40
2.5
  0
CIRCLE
  5
4895
330
4866
100
AcDbEntity
  8
0
100
AcDbCircle
 10
40.0
 20
-43.99999999999999
 30
0.0
 40
2.5
  0
CIRCLE
  5
4896
330
4866
100
AcDbEntity
  8
0
100
AcDbCircle
 10
19.99999999999999
 20
-33.0
 30
0.0
 40
2.5
  0
CIRCLE
  5
4897
330
4866
100
AcDbEntity
  8
0
100
AcDbCircle
 10
-20.0
 20
-53.0
 30
0.0
 40
2.5
  0
CIRCLE
  5
4898
330
4866
100
AcDbEntity
  8
0
100
AcDbCircle
 10
-40.0
 20
-64.00000000000002
 30
0.0
 40
2.5
  0
CIRCLE
  5
4899
330
4866
100
AcDbEntity
  8
0
100
AcDbCircle
 10
-40.0
 20
-13.00000000000001
 30
0.0
 40
2.5
  0
CIRCLE
  5
489A
330
4866
100
AcDbEntity
  8
0
100
AcDbCircle
 10
31.50000000000001
 20
-94.0
 30
0.0
 40
5.5
  0
CIRCLE
  5
489B
330
4866
100
AcDbEntity
  8
0
100
AcDbCircle
 10
-31.50000000000002
 20
-23.00000000000002
 30
0.0
 40
5.5
  0
CIRCLE
  5
489C
330
4866
100
AcDbEntity
  8
0
100
AcDbCircle
 10
-31.5
 20
-94.0
 30
0.0
 40
5.5
  0
CIRCLE
  5
489D
330
4866
100
AcDbEntity
  8
0
100
AcDbCircle
 10
31.49999999999999
 20
-23.0
 30
0.0
 40
5.5
  0
ARC
  5
489E
330
4866
100
AcDbEntity
  8
0
100
AcDbCircle
 10
-351.4562847200147
 20
-2.709071203000067
 30
0.0
 40
306.4562847200146
100
AcDbArc
 50
358.5893103715058
 51
359.1042403231298
  0
LINE
  5
489F
330
4866
100
AcDbEntity
  8
0
100
AcDbLine
 10
-45.0928825818933
 20
-10.25362385709493
 30
0.0
 11
-47.49999999999999
 21
-108.0
 31
0.0
  0
LINE
  5
48A0
330
4866
100
AcDbEntity
  8
0
100
AcDbLine
 10
47.5
 20
-108.0
 30
0.0
 11
45.09288258189314
 21
-10.25362385709504
 31
0.0
  0
ARC
  5
48A1
330
4866
100
AcDbEntity
  8
0
100
AcDbCircle
 10
351.4562847200207
 20
-2.70907120299991
 30
0.0
 40
306.4562847200207
100
AcDbArc
 50
180.8957596768701
 51
181.4106896284942
  0
SPLINE
  5
48A2
330
4866
100
AcDbEntity
  8
0
100
AcDbSpline
210
0.0
220
0.0
230
1.0
 70
     8
 71
     3
 72
    11
 73
     7
 74
     0
 42
0.000000001
 43
0.0000000001
 40
-1.0
 40
-1.0
 40
-1.0
 40
-1.0
 40
-0.9237014399096555
 40
-0.9237014399096555
 40
-0.9237014399096555
 40
0.0
 40
0.0
 40
0.0
 40
0.0
 10
-45.03745134702117
 20
-2.500000000000009
 30
0.0
 10
-45.03364144615598
 20
-2.500000000014707
 30
0.0
 10
-45.0301222116948
 20
-2.511982295412788
 30
0.0
 10
-45.02689365365269
 20
-2.53586222316977
 30
0.0
 10
-44.9878074152125
 20
-2.824962353341882
 30
0.0
 10
-44.99132713562834
 20
-5.08195231146579
 30
0.0
 10
-45.0374513470368
 20
-7.500000000000008
 30
0.0
  0
SPLINE
  5
48A3
330
4866
100
AcDbEntity
  8
0
100
AcDbSpline
210
0.0
220
0.0
230
1.0
 70
     8
 71
     3
 72
    11
 73
     7
 74
     0
 42
0.000000001
 43
0.0000000001
 40
-1.0
 40
-1.0
 40
-1.0
 40
-1.0
 40
-0.9237014399511954
 40
-0.9237014399511954
 40
-0.9237014399511954
 40
0.0
 40
0.0
 40
0.0
 40
0.0
 10
45.03745134703677
 20
-7.499999999999962
 30
0.0
 10
45.03364144617292
 20
-7.300267111435308
 30
0.0
 10
45.03012221171267
 20
-7.100531159946951
 30
0.0
 10
45.02689365367124
 20
-6.90222401200538
 30
0.0
 10
44.98780741521648
 20
-4.501436919967531
 30
0.0
 10
44.99132713561778
 20
-2.500000000177933
 30
0.0
 10
45.03745134702118
 20
-2.49999999999999
 30
0.0
  0
ENDBLK
  5
4868
330
4866
100
AcDbEntity
  8
0
100
AcDbBlockEnd
  0
BLOCK
  5
48A5
330
48A4
100
AcDbEntity
  8
0
100
AcDbBlockBegin
  2
E20_3-Bottom
 70
     0
 10
0.0
 20
0.0
 30
0.0
  3
E20_3-Bottom
  1

  0
LINE
  5
48A7
330
48A4
100
AcDbEntity
  8
0
100
AcDbLine
 10
0.6000858577914721
 20
65.89282687603426
 30
0.0
 11
-0.6000858577914768
 21
65.89282687603426
 31
0.0
  0
ARC
  5
48A8
330
48A4
100
AcDbEntity
  8
0
100
AcDbCircle
 10
-0.0000000000000025
 20
65.79449833792309
 30
0.0
 40
0.6080884295301217
100
AcDbArc
 50
9.305645104300889
 51
170.6943548956982
  0
LINE
  5
48A9
330
48A4
100
AcDbEntity
  8
0
100
AcDbLine
 10
2.754638471111598
 20
65.89282687603426
 30
0.0
 11
0.6000858577914725
 21
65.89282687603426
 31
0.0
  0
ARC
  5
48AA
330
48A4
100
AcDbEntity
  8
0
100
AcDbCircle
 10
-0.0000000000000113
 20
65.44145884198984
 30
0.0
 40
2.791373534424439
100
AcDbArc
 50
26.84960854923761
 51
153.1503914507652
  0
LINE
  5
48AB
330
48A4
100
AcDbEntity
  8
0
100
AcDbLine
 10
-0.6000858577914771
 20
65.89282687603426
 30
0.0
 11
-2.754638471111614
 21
65.89282687603426
 31
0.0
  0
LINE
  5
48AC
330
48A4
100
AcDbEntity
  8
0
100
AcDbLine
 10
3.131816851334838
 20
17.91698908762262
 30
0.0
 11
7.84444917660187
 21
15.2552721924269
 31
0.0
  0
ELLIPSE
  5
48AD
330
48A4
100
AcDbEntity
  8
0
100
AcDbEllipse
 10
-0.0000000000000131
 20
17.47663870482233
 30
0.0
 11
3.500000000000001
 21
-0.0000000000000013
 31
0.0
210
0.0
220
0.0
230
1.0
 40
0.2818059526186864
 41
0.4628025025055358
 42
0.9958652899956543
  0
ELLIPSE
  5
48AE
330
48A4
100
AcDbEntity
  8
0
100
AcDbEllipse
 10
-0.0000000000000131
 20
17.47663870482233
 30
0.0
 11
3.5
 21
-0.0000000000001033
 31
0.0
210
0.0
220
0.0
230
1.0
 40
0.2818059526186864
 41
2.145727156985746
 42
2.678790151086243
  0
LINE
  5
48AF
330
48A4
100
AcDbEntity
  8
0
100
AcDbLine
 10
-7.844444371862322
 20
15.25527490616641
 30
0.0
 11
-3.131816851334865
 21
17.91698908762262
 31
0.0
  0
ARC
  5
48B0
330
48A4
100
AcDbEntity
  8
0
100
AcDbCircle
 10
-0.000000000000017
 20
0.0000000000000067
 30
0.0
 40
1.5
100
AcDbArc
 50
66.41824321674043
 51
113.5817567832595
  0
LINE
  5
48B1
330
48A4
100
AcDbEntity
  8
0
100
AcDbLine
 10
-0.6000858577914912
 20
1.374735233882761
 30
0.0
 11
0.6000858577914583
 21
1.374735233882761
 31
0.0
  0
LINE
  5
48B2
330
48A4
100
AcDbEntity
  8
0
100
AcDbLine
 10
2.754638471111583
 20
0.4342511892064599
 30
0.0
 11
0.6000858577914581
 21
1.374735233882761
 31
0.0
  0
LINE
  5
48B3
330
48A4
100
AcDbEntity
  8
0
100
AcDbLine
 10
-0.6000858577914915
 20
1.374735233882762
 30
0.0
 11
-2.754638471111629
 21
0.4342511892064599
 31
0.0
  0
LINE
  5
48B4
330
48A4
100
AcDbEntity
  8
0
100
AcDbLine
 10
2.490449788266391
 20
0.4342511892064439
 30
0.0
 11
-2.490449788266507
 21
0.434251189206445
 31
0.0
  0
LINE
  5
48B5
330
48A4
100
AcDbEntity
  8
0
100
AcDbLine
 10
4.83493611145538
 20
0.0
 30
0.0
 11
-4.834936111455414
 21
0.0
 31
0.0
  0
LINE
  5
48B6
330
48A4
100
AcDbEntity
  8
0
100
AcDbLine
 10
13.33007814570744
 20
0.0
 30
0.0
 11
4.834936111455371
 21
0.0
 31
0.0
  0
LINE
  5
48B7
330
48A4
100
AcDbEntity
  8
0
100
AcDbLine
 10
7.84444917660193
 20
4.110032161264674
 30
0.0
 11
3.131816851334838
 21
13.17244288868141
 31
0.0
  0
ELLIPSE
  5
48B8
330
48A4
100
AcDbEntity
  8
0
100
AcDbEllipse
 10
-0.0000000000000144
 20
11.67317148227667
 30
0.0
 11
-3.5
 21
-0.0000000000003414
 31
0.0
210
0.0
220
0.0
230
1.0
 40
0.9594714196205538
 41
3.604395156095216
 42
4.13745794358536
  0
ELLIPSE
  5
48B9
330
48A4
100
AcDbEntity
  8
0
100
AcDbEllipse
 10
-0.0000000000000144
 20
11.67317148227667
 30
0.0
 11
-3.5
 21
-0.0000000000000089
 31
0.0
210
0.0
220
0.0
230
1.0
 40
0.9594714196205533
 41
5.287319810574162
 42
5.820382804674046
  0
LINE
  5
48BA
330
48A4
100
AcDbEntity
  8
0
100
AcDbLine
 10
-3.131816851334867
 20
13.17244288868141
 30
0.0
 11
-7.844444371862328
 21
4.110041400798126
 31
0.0
  0
LINE
  5
48BB
330
48A4
100
AcDbEntity
  8
0
100
AcDbLine
 10
-4.834936111455407
 20
0.0
 30
0.0
 11
-13.33007814570748
 21
0.0
 31
0.0
  0
LINE
  5
48BC
330
48A4
100
AcDbEntity
  8
0
100
AcDbLine
 10
-15.03828210164941
 20
0.0
 30
0.0
 11
-13.33767231650498
 21
0.0
 31
0.0
  0
SPLINE
  5
48BD
330
48A4
100
AcDbEntity
  8
0
100
AcDbSpline
210
0.0
220
0.0
230
1.0
 70
     8
 71
     3
 72
     8
 73
     4
 74
     0
 42
0.000000001
 43
0.0000000001
 40
-0.0007594432120341
 40
-0.0007594432120341
 40
-0.0007594432120341
 40
-0.0007594432120341
 40
0.0
 40
0.0
 40
0.0
 40
0.0
 10
-13.33007815392636
 20
0.0000053626357884
 30
0.0
 10
-13.33260945098782
 20
0.0000017877960774
 30
0.0
 10
-13.33514083913369
 20
0.0000000000000041
 30
0.0
 10
-13.33767231650713
 20
0.0000000000000041
 30
0.0
  0
SPLINE
  5
48BE
330
48A4
100
AcDbEntity
  8
0
100
AcDbSpline
210
0.0
220
0.0
230
1.0
 70
     8
 71
     3
 72
     8
 73
     4
 74
     0
 42
0.000000001
 43
0.0000000001
 40
-0.6122204545173798
 40
-0.6122204545173798
 40
-0.6122204545173798
 40
-0.6122204545173798
 40
-0.6114599152240886
 40
-0.6114599152240886
 40
-0.6114599152240886
 40
-0.6114599152240886
 10
13.33767231650709
 20
-0.0000000000000019
 30
0.0
 10
13.33514084269419
 20
-0.0000000000000019
 30
0.0
 10
13.33260945454581
 20
0.0000017877910468
 30
0.0
 10
13.33007815392723
 20
0.0000053626357809
 30
0.0
  0
LINE
  5
48BF
330
48A4
100
AcDbEntity
  8
0
100
AcDbLine
 10
13.33767231650623
 20
0.0
 30
0.0
 11
15.03828210164937
 21
0.0
 31
0.0
  0
LINE
  5
48C0
330
48A4
100
AcDbEntity
  8
0
100
AcDbLine
 10
45.09288258189314
 20
10.25362385709504
 30
0.0
 11
47.5
 21
108.0
 31
0.0
  0
LINE
  5
48C1
330
48A4
100
AcDbEntity
  8
0
100
AcDbLine
 10
-47.49999999999999
 20
108.0
 30
0.0
 11
-45.0928825818933
 21
10.25362385709494
 31
0.0
  0
ARC
  5
48C2
330
48A4
100
AcDbEntity
  8
0
100
AcDbCircle
 10
-351.4562847200147
 20
2.709071203000067
 30
0.0
 40
306.4562847200146
100
AcDbArc
 50
0.8957596768702122
 51
1.410689628494224
  0
ARC
  5
48C3
330
48A4
100
AcDbEntity
  8
0
100
AcDbCircle
 10
351.4562847200207
 20
2.70907120299991
 30
0.0
 40
306.4562847200207
100
AcDbArc
 50
178.5893103715058
 51
179.1042403231298
  0
LINE
  5
48C4
330
48A4
100
AcDbEntity
  8
0
100
AcDbLine
 10
-45.03745134702122
 20
0.0
 30
0.0
 11
-47.50000000000001
 21
0.0
 31
0.0
  0
LINE
  5
48C5
330
48A4
100
AcDbEntity
  8
0
100
AcDbLine
 10
47.49999999999999
 20
0.0
 30
0.0
 11
45.03745134702119
 21
0.0
 31
0.0
  0
LINE
  5
48C6
330
48A4
100
AcDbEntity
  8
0
100
AcDbLine
 10
45.03745134702119
 20
2.49999999999999
 30
0.0
 11
47.49999999999999
 21
2.5
 31
0.0
  0
LINE
  5
48C7
330
48A4
100
AcDbEntity
  8
0
100
AcDbLine
 10
-47.50000000000001
 20
2.500000000000022
 30
0.0
 11
-45.03745134702122
 21
2.500000000000009
 31
0.0
  0
SPLINE
  5
48C8
330
48A4
100
AcDbEntity
  8
0
100
AcDbSpline
210
0.0
220
0.0
230
1.0
 70
     8
 71
     3
 72
    11
 73
     7
 74
     0
 42
0.000000001
 43
0.0000000001
 40
0.0
 40
0.0
 40
0.0
 40
0.0
 40
0.9237014399511952
 40
0.9237014399511952
 40
0.9237014399511952
 40
1.0
 40
1.0
 40
1.0
 40
1.0
 10
45.03745134702118
 20
-0.00000000000001
 30
0.0
 10
44.99132713561778
 20
0.0000000002669051
 30
0.0
 10
44.98780741521648
 20
3.002155379951303
 30
0.0
 10
45.02689365367124
 20
6.603336018008074
 30
0.0
 10
45.03012221171267
 20
6.900796739920432
 30
0.0
 10
45.03364144617292
 20
7.200400667152968
 30
0.0
 10
45.03745134703677
 20
7.499999999999948
 30
0.0
  0
SPLINE
  5
48C9
330
48A4
100
AcDbEntity
  8
0
100
AcDbSpline
210
0.0
220
0.0
230
1.0
 70
     8
 71
     3
 72
    11
 73
     7
 74
     0
 42
0.000000001
 43
0.0000000001
 40
0.0
 40
0.0
 40
0.0
 40
0.0
 40
0.9237014399096555
 40
0.9237014399096555
 40
0.9237014399096555
 40
0.9999999999999998
 40
0.9999999999999998
 40
0.9999999999999998
 40
0.9999999999999998
 10
-45.0374513470368
 20
7.500000000000008
 30
0.0
 10
-44.99132713562834
 20
3.872928467198679
 30
0.0
 10
-44.98780741521251
 20
0.4874435300128097
 30
0.0
 10
-45.02689365365269
 20
0.0537933347546496
 30
0.0
 10
-45.0301222116948
 20
0.0179734431191765
 30
0.0
 10
-45.03364144615598
 20
0.0000000000220556
 30
0.0
 10
-45.03745134702117
 20
0.00000000000001
 30
0.0
  0
SPLINE
  5
48CA
330
48A4
100
AcDbEntity
  8
0
100
AcDbSpline
210
0.0
220
0.0
230
1.0
 70
     8
 71
     3
 72
    11
 73
     7
 74
     0
 42
0.000000001
 43
0.0000000001
 40
-1.0
 40
-1.0
 40
-1.0
 40
-1.0
 40
-0.9237014399096555
 40
-0.9237014399096555
 40
-0.9237014399096555
 40
-0.6256611206194464
 40
-0.6256611206194464
 40
-0.6256611206194464
 40
-0.6256611206194464
 10
-45.03745134702117
 20
2.500000000000009
 30
0.0
 10
-45.03364144615598
 20
2.500000000014707
 30
0.0
 10
-45.0301222116948
 20
2.511982295412788
 30
0.0
 10
-45.02689365365269
 20
2.53586222316977
 30
0.0
 10
-45.01428213819841
 20
2.629142899566425
 30
0.0
 10
-45.00610627143716
 20
2.927297921659852
 30
0.0
 10
-45.00236600406114
 20
3.369632977136201
 30
0.0
  0
SPLINE
  5
48CB
330
48A4
100
AcDbEntity
  8
0
100
AcDbSpline
210
0.0
220
0.0
230
1.0
 70
     8
 71
     3
 72
     8
 73
     4
 74
     0
 42
0.000000001
 43
0.0000000001
 40
-0.3743388793809121
 40
-0.3743388793809121
 40
-0.3743388793809121
 40
-0.3743388793809121
 40
0.0
 40
0.0
 40
0.0
 40
0.0
 10
45.0023660958324
 20
3.379488445187331
 30
0.0
 10
45.00706395109702
 20
2.828706685721897
 30
0.0
 10
45.0187590673924
 20
2.500000000072103
 30
0.0
 10
45.03745134702118
 20
2.49999999999999
 30
0.0
  0
LINE
  5
48CC
330
48A4
100
AcDbEntity
  8
0
100
AcDbLine
 10
42.5
 20
113.0
 30
0.0
 11
47.5
 21
108.0
 31
0.0
  0
LINE
  5
48CD
330
48A4
100
AcDbEntity
  8
0
100
AcDbLine
 10
-47.49999999999999
 20
108.0
 30
0.0
 11
-42.49999999999999
 21
113.0
 31
0.0
  0
LINE
  5
48CE
330
48A4
100
AcDbEntity
  8
0
100
AcDbLine
 10
-47.50000000000001
 20
0.0
 30
0.0
 11
-47.50000000000001
 21
2.500000000000022
 31
0.0
  0
LINE
  5
48CF
330
48A4
100
AcDbEntity
  8
0
100
AcDbLine
 10
47.49999999999999
 20
2.5
 30
0.0
 11
47.49999999999999
 21
0.0
 31
0.0
  0
LINE
  5
48D0
330
48A4
100
AcDbEntity
  8
0
100
AcDbLine
 10
-42.49999999999999
 20
113.0
 30
0.0
 11
42.5
 21
113.0
 31
0.0
  0
CIRCLE
  5
48D1
330
48A4
100
AcDbEntity
  8
0
100
AcDbCircle
 10
39.99999999999999
 20
13.0
 30
0.0
 40
2.5
  0
CIRCLE
  5
48D2
330
48A4
100
AcDbEntity
  8
0
100
AcDbCircle
 10
19.99999999999999
 20
33.0
 30
0.0
 40
2.5
  0
CIRCLE
  5
48D3
330
48A4
100
AcDbEntity
  8
0
100
AcDbCircle
 10
40.0
 20
43.99999999999999
 30
0.0
 40
2.5
  0
CIRCLE
  5
48D4
330
48A4
100
AcDbEntity
  8
0
100
AcDbCircle
 10
40.0
 20
63.99999999999999
 30
0.0
 40
2.5
  0
CIRCLE
  5
48D5
330
48A4
100
AcDbEntity
  8
0
100
AcDbCircle
 10
40.0
 20
84.0
 30
0.0
 40
2.5
  0
CIRCLE
  5
48D6
330
48A4
100
AcDbEntity
  8
0
100
AcDbCircle
 10
-40.0
 20
44.00000000000001
 30
0.0
 40
2.5
  0
CIRCLE
  5
48D7
330
48A4
100
AcDbEntity
  8
0
100
AcDbCircle
 10
-20.00000000000001
 20
33.00000000000002
 30
0.0
 40
2.5
  0
CIRCLE
  5
48D8
330
48A4
100
AcDbEntity
  8
0
100
AcDbCircle
 10
-40.0
 20
64.00000000000002
 30
0.0
 40
2.5
  0
CIRCLE
  5
48D9
330
48A4
100
AcDbEntity
  8
0
100
AcDbCircle
 10
-40.0
 20
13.00000000000001
 30
0.0
 40
2.5
  0
CIRCLE
  5
48DA
330
48A4
100
AcDbEntity
  8
0
100
AcDbCircle
 10
-40.0
 20
84.0
 30
0.0
 40
2.5
  0
CIRCLE
  5
48DB
330
48A4
100
AcDbEntity
  8
0
100
AcDbCircle
 10
-20.0
 20
53.0
 30
0.0
 40
2.5
  0
CIRCLE
  5
48DC
330
48A4
100
AcDbEntity
  8
0
100
AcDbCircle
 10
0.0000000000000061
 20
104.0
 30
0.0
 40
2.5
  0
CIRCLE
  5
48DD
330
48A4
100
AcDbEntity
  8
0
100
AcDbCircle
 10
40.0
 20
104.0
 30
0.0
 40
2.5
  0
CIRCLE
  5
48DE
330
48A4
100
AcDbEntity
  8
0
100
AcDbCircle
 10
-40.0
 20
104.0
 30
0.0
 40
2.5
  0
CIRCLE
  5
48DF
330
48A4
100
AcDbEntity
  8
0
100
AcDbCircle
 10
0.0000000000000017
 20
84.0
 30
0.0
 40
2.5
  0
CIRCLE
  5
48E0
330
48A4
100
AcDbEntity
  8
0
100
AcDbCircle
 10
20.0
 20
53.0
 30
0.0
 40
2.5
  0
CIRCLE
  5
48E1
330
48A4
100
AcDbEntity
  8
0
100
AcDbCircle
 10
31.49999999999999
 20
23.0
 30
0.0
 40
5.5
  0
CIRCLE
  5
48E2
330
48A4
100
AcDbEntity
  8
0
100
AcDbCircle
 10
-31.50000000000002
 20
23.00000000000002
 30
0.0
 40
5.5
  0
CIRCLE
  5
48E3
330
48A4
100
AcDbEntity
  8
0
100
AcDbCircle
 10
-31.5
 20
94.0
 30
0.0
 40
5.5
  0
CIRCLE
  5
48E4
330
48A4
100
AcDbEntity
  8
0
100
AcDbCircle
 10
31.50000000000001
 20
94.0
 30
0.0
 40
5.5
  0
LINE
  5
48E5
330
48A4
100
AcDbEntity
  8
0
100
AcDbLine
 10
15.03828210164937
 20
0.0
 30
0.0
 11
45.03745134702119
 21
0.0
 31
0.0
  0
LINE
  5
48E6
330
48A4
100
AcDbEntity
  8
0
100
AcDbLine
 10
-45.03745134702122
 20
0.0
 30
0.0
 11
-15.03828210164942
 21
0.0
 31
0.0
  0
ENDBLK
  5
48A6
330
48A4
100
AcDbEntity
  8
0
100
AcDbBlockEnd
  0
BLOCK
  5
48E8
330
48E7
100
AcDbEntity
  8
0
100
AcDbBlockBegin
  2
E20_3-ISO
 70
     0
 10
0.0
 20
0.0
 30
0.0
  3
E20_3-ISO
  1

  0
SPLINE
  5
48EA
330
48E7
100
AcDbEntity
  8
0
100
AcDbSpline
210
0.0
220
0.0
230
1.0
 70
     8
 71
     3
 72
    14
 73
    10
 74
     0
 42
0.000000001
 43
0.0000000001
 40
-2.81676436140549
 40
-2.81676436140549
 40
-2.81676436140549
 40
-2.81676436140549
 40
-1.712606700607647
 40
-1.712606700607647
 40
-1.712606700607647
 40
-0.5818330811360239
 40
-0.5818330811360239
 40
-0.5818330811360239
 40
0.0000000000000009
 40
0.0000000000000009
 40
0.0000000000000009
 40
0.0000000000000009
 10
-7.802855377771527
 20
-69.57319544052412
 30
0.0
 10
-8.156671815977372
 20
-69.85971995782998
 30
0.0
 10
-8.191814051173675
 20
-70.24618492522186
 30
0.0
 10
-7.923701506368088
 20
-70.55153230064059
 30
0.0
 10
-7.649126050815384
 20
-70.86424014043306
 30
0.0
 10
-7.030457926458488
 20
-71.07557031087933
 30
0.0
 10
-6.418115224903599
 20
-71.0558456701865
 30
0.0
 10
-6.103037799482828
 20
-71.04569646943492
 30
0.0
 10
-5.791676338068532
 20
-70.98470513122892
 30
0.0
 10
-5.539789887966035
 20
-70.87977691025712
 30
0.0
  0
ELLIPSE
  5
48EB
330
48E7
100
AcDbEntity
  8
0
100
AcDbEllipse
 10
-6.671322632868896
 20
-73.21973049044695
 30
0.0
 11
-2.000000000000002
 21
3.464101615137754
 31
0.0
210
0.0
220
0.0
230
1.0
 40
0.577350269189626
 41
5.08620784450975
 42
5.909366443054523
  0
LINE
  5
48EC
330
48E7
100
AcDbEntity
  8
0
100
AcDbLine
 10
-9.326354141073425
 20
-69.46150502631701
 30
0.0
 11
-7.802855377771553
 21
-69.57319544052413
 31
0.0
  0
ELLIPSE
  5
48ED
330
48E7
100
AcDbEntity
  8
0
100
AcDbEllipse
 10
-6.23627594171431
 20
-70.74321385803769
 30
0.0
 11
-3.804854250307983
 21
0.000000000000001
 31
0.0
210
0.0
220
0.0
230
1.0
 40
0.5773502691896257
 41
5.660201289874291
 42
5.966401215837599
  0
ELLIPSE
  5
48EE
330
48E7
100
AcDbEntity
  8
0
100
AcDbEllipse
 10
-6.23627594171431
 20
-70.74321385803769
 30
0.0
 11
-3.804854250307982
 21
0.0000000000000007
 31
0.0
210
0.0
220
0.0
230
1.0
 40
0.5773502691896257
 41
5.966401215837599
 42
8.170765725316554
  0
ELLIPSE
  5
48EF
330
48E7
100
AcDbEntity
  8
0
100
AcDbEllipse
 10
-6.23627594171431
 20
-70.74321385803769
 30
0.0
 11
-3.804854250307983
 21
0.0000000000002276
 31
0.0
210
0.0
220
0.0
230
1.0
 40
0.5773502691896254
 41
1.887580418137051
 42
2.193780344100343
  0
LINE
  5
48F0
330
48E7
100
AcDbEntity
  8
0
100
AcDbLine
 10
-5.539789887966248
 20
-70.87977691025699
 30
0.0
 11
-4.016291124664377
 21
-72.52727133825466
 31
0.0
  0
ELLIPSE
  5
48F1
330
48E7
100
AcDbEntity
  8
0
100
AcDbEllipse
 10
-10.09013874388273
 20
-67.00009386761911
 30
0.0
 11
1.35
 21
-2.338268590217983
 31
0.0
210
0.0
220
0.0
230
0.9999999999999998
 40
0.577350269189626
 41
5.497787143782137
 42
5.909366443054521
  0
ELLIPSE
  5
48F2
330
48E7
100
AcDbEntity
  8
0
100
AcDbEllipse
 10
-6.111124144765689
 20
-70.85505829022162
 30
0.0
 11
-4.89941342346221
 21
0.0000000000002917
 31
0.0
210
0.0
220
0.0
230
1.0
 40
0.5773502691896259
 41
5.66020128987453
 42
8.476965651279932
  0
ELLIPSE
  5
48F3
330
48E7
100
AcDbEntity
  8
0
100
AcDbEllipse
 10
-3.252506521855078
 20
-70.94780267162644
 30
0.0
 11
1.35
 21
-2.338268590217983
 31
0.0
210
0.0
220
0.0
230
0.9999999999999998
 40
0.5773502691896259
 41
5.08620784450975
 42
5.497787143782137
  0
LINE
  5
48F4
330
48E7
100
AcDbEntity
  8
0
100
AcDbLine
 10
-10.09013874388271
 20
-69.20463463612398
 30
0.0
 11
6.703557376087401
 21
-55.70863279268002
 31
0.0
  0
LINE
  5
48F5
330
48E7
100
AcDbEntity
  8
0
100
AcDbLine
 10
-0.0519769175348683
 20
-62.09038268686919
 30
0.0
 11
-9.326354141072998
 21
-69.46150502631667
 31
0.0
  0
LINE
  5
48F6
330
48E7
100
AcDbEntity
  8
0
100
AcDbLine
 10
2.022422011122011
 20
-60.19246061309731
 30
0.0
 11
-7.802855377771553
 21
-69.57319544052413
 31
0.0
  0
ELLIPSE
  5
48F7
330
48E7
100
AcDbEntity
  8
0
100
AcDbEllipse
 10
27.56409234219896
 20
-43.92279983491103
 30
0.0
 11
-4.053939666656924
 21
4.423298902301938
 31
0.0
210
0.0
220
0.0
230
1.0
 40
0.3912503397940397
 41
5.956983588204721
 42
6.292989672749632
  0
LINE
  5
48F8
330
48E7
100
AcDbEntity
  8
0
100
AcDbLine
 10
30.82664238431121
 20
-44.32425330241745
 30
0.0
 11
-5.539789887966239
 21
-70.87977691025699
 31
0.0
  0
ELLIPSE
  5
48F9
330
48E7
100
AcDbEntity
  8
0
100
AcDbEllipse
 10
27.56409234219896
 20
-43.92279983491103
 30
0.0
 11
-4.053939666657102
 21
4.423298902301774
 31
0.0
210
0.0
220
0.0
230
0.9999999999999998
 40
0.3912503397940398
 41
4.282554582803669
 42
4.824113225981086
  0
ELLIPSE
  5
48FA
330
48E7
100
AcDbEntity
  8
0
100
AcDbEllipse
 10
27.56409234219896
 20
-43.92279983491103
 30
0.0
 11
-4.053939666656923
 21
4.42329890230194
 31
0.0
210
0.0
220
0.0
230
0.9999999999999998
 40
0.3912503397940399
 41
4.824113225981136
 42
5.956983588204721
  0
LINE
  5
48FB
330
48E7
100
AcDbEntity
  8
0
100
AcDbLine
 10
36.69561699083454
 20
-53.59484189235583
 30
0.0
 11
30.82664238431952
 21
-44.32425330241021
 31
0.0
  0
LINE
  5
48FC
330
48E7
100
AcDbEntity
  8
0
100
AcDbLine
 10
36.69561699082477
 20
-53.59484189236049
 30
0.0
 11
-4.016291124664372
 21
-72.52727133825468
 31
0.0
  0
SPLINE
  5
48FD
330
48E7
100
AcDbEntity
  8
0
100
AcDbSpline
210
0.0
220
0.0
230
1.0
 70
     8
 71
     3
 72
    12
 73
     8
 74
     0
 42
0.000000001
 43
0.0000000001
 40
0.0
 40
0.0
 40
0.0
 40
0.0
 40
0.1160399035403028
 40
0.1160399035403028
 40
0.217171614985682
 40
0.217171614985682
 40
0.3171752604702931
 40
0.3171752604702931
 40
0.3171752604702931
 40
0.3171752604702931
 10
36.69561699083521
 20
-53.59484189235573
 30
0.0
 10
36.88669531350543
 20
-53.89666778813756
 30
0.0
 10
37.11747914834113
 20
-54.2013593475308
 30
0.0
 10
37.59808929749053
 20
-54.74180534164853
 30
0.0
 10
37.83879281984012
 20
-54.97814979653274
 30
0.0
 10
38.32891768818387
 20
-55.39335580283617
 30
0.0
 10
38.57456778485536
 20
-55.56971934811777
 30
0.0
 10
38.8099258574849
 20
-55.70560339470638
 30
0.0
  0
LINE
  5
48FE
330
48E7
100
AcDbEntity
  8
0
100
AcDbLine
 10
38.80992585748399
 20
-55.70560339470675
 30
0.0
 11
-3.252506521855078
 21
-73.15234344013129
 31
0.0
  0
SPLINE
  5
48FF
330
48E7
100
AcDbEntity
  8
0
100
AcDbSpline
210
0.0
220
0.0
230
1.0
 70
     8
 71
     3
 72
    16
 73
    12
 74
     0
 42
0.000000001
 43
0.0000000001
 40
0.6143458572700052
 40
0.6143458572700052
 40
0.6143458572700052
 40
0.6143458572700052
 40
0.6184146367790097
 40
0.6184146367790097
 40
0.6621839056753731
 40
0.6621839056753731
 40
0.7505380729866867
 40
0.7505380729866867
 40
0.9253689671132349
 40
0.9253689671132349
 40
1.044216674209452
 40
1.044216674209452
 40
1.044216674209452
 40
1.044216674209452
 10
-0.3513406387808793
 20
-62.3446419117025
 30
0.0
 10
-0.3513406367097094
 20
-62.3446419099882
 30
0.0
 10
-0.3511538678656301
 20
-62.34448732257243
 30
0.0
 10
-0.3467598181984677
 20
-62.34084536169351
 30
0.0
 10
-0.3195005059715328
 20
-62.31821174731516
 30
0.0
 10
-0.1886554085391889
 20
-62.20794506741214
 30
0.0
 10
-0.0397245720658956
 20
-62.08070665222017
 30
0.0
 10
0.4334446022828598
 20
-61.66751267806539
 30
0.0
 10
0.8079137872300101
 20
-61.33044068661842
 30
0.0
 10
1.460391427591662
 20
-60.72566394133538
 30
0.0
 10
1.739587401656907
 20
-60.46249843151159
 30
0.0
 10
2.022422011122166
 20
-60.19246061309726
 30
0.0
  0
SPLINE
  5
4900
330
48E7
100
AcDbEntity
  8
0
100
AcDbSpline
210
0.0
220
0.0
230
1.0
 70
     8
 71
     3
 72
     8
 73
     4
 74
     0
 42
0.000000001
 43
0.0000000001
 40
0.0
 40
0.0
 40
0.0
 40
0.0
 40
3.336705625192593
 40
3.336705625192593
 40
3.336705625192593
 40
3.336705625192593
 10
2.022422011122193
 20
-60.19246061309726
 30
0.0
 10
9.201266168140453
 20
-53.33842171537276
 30
0.0
 10
16.38204863023392
 20
-46.3683838074969
 30
0.0
 10
23.4933801857999
 20
-39.51526403378544
 30
0.0
  0
ELLIPSE
  5
4901
330
48E7
100
AcDbEntity
  8
0
100
AcDbEllipse
 10
32.82617070954224
 20
7.333134579061422
 30
0.0
 11
2.7
 21
-0.0000000000000001
 31
0.0
210
0.0
220
0.0
230
1.0
 40
0.5773502691896259
 41
0.373818864125063
 42
0.7853981633974483
  0
ELLIPSE
  5
4902
330
48E7
100
AcDbEntity
  8
0
100
AcDbEllipse
 10
37.99473911174228
 20
5.867151484892962
 30
0.0
 11
-1.902427125153992
 21
3.295100438463907
 31
0.0
210
0.0
220
0.0
230
1.0
 40
0.5773502691896258
 41
0.3167840913419875
 42
0.622984017305297
  0
ELLIPSE
  5
4903
330
48E7
100
AcDbEntity
  8
0
100
AcDbEllipse
 10
37.99473911174228
 20
5.867151484892962
 30
0.0
 11
-1.902427125153993
 21
3.295100438463907
 31
0.0
210
0.0
220
0.0
230
0.9999999999999998
 40
0.5773502691896258
 41
4.395604889042617
 42
6.599969398521573
  0
ELLIPSE
  5
4904
330
48E7
100
AcDbEntity
  8
0
100
AcDbEllipse
 10
37.99473911174228
 20
5.867151484892962
 30
0.0
 11
-1.90242712515419
 21
3.295100438463793
 31
0.0
210
0.0
220
0.0
230
1.0
 40
0.5773502691896261
 41
4.089404963079237
 42
4.395604889042529
  0
ELLIPSE
  5
4905
330
48E7
100
AcDbEntity
  8
0
100
AcDbEllipse
 10
39.66380293156989
 20
3.3854257750541
 30
0.0
 11
2.699999999999999
 21
0.0000000000000003
 31
0.0
210
0.0
220
0.0
230
1.0
 40
0.5773502691896258
 41
0.7853981633974492
 42
1.196977462669835
  0
ELLIPSE
  5
4906
330
48E7
100
AcDbEntity
  8
0
100
AcDbEllipse
 10
38.15417512975975
 20
5.814689065498166
 30
0.0
 11
-2.449706711731105
 21
4.243016488360758
 31
0.0
210
0.0
220
0.0
230
0.9999999999999998
 40
0.5773502691896258
 41
4.089404963079393
 42
6.906169324484882
  0
LINE
  5
4907
330
48E7
100
AcDbEntity
  8
0
100
AcDbLine
 10
35.33970760353776
 20
7.902383289358105
 30
0.0
 11
36.19818372125126
 21
6.638839864808065
 31
0.0
  0
SPLINE
  5
4908
330
48E7
100
AcDbEntity
  8
0
100
AcDbSpline
210
0.0
220
0.0
230
1.0
 70
     8
 71
     3
 72
    14
 73
    10
 74
     0
 42
0.000000001
 43
0.0000000001
 40
-2.81676436140549
 40
-2.81676436140549
 40
-2.81676436140549
 40
-2.81676436140549
 40
-1.712606700607647
 40
-1.712606700607647
 40
-1.712606700607647
 40
-0.5818330811360239
 40
-0.5818330811360239
 40
-0.5818330811360239
 40
0.0000000000000009
 40
0.0000000000000009
 40
0.0000000000000009
 40
0.0000000000000009
 10
36.19818372125126
 20
6.638839864808039
 30
0.0
 10
36.26941301294229
 20
7.088516147223753
 30
0.0
 10
36.58653037477824
 20
7.312182699345468
 30
0.0
 10
36.98502523127256
 20
7.2326641121799
 30
0.0
 10
37.39312589227174
 20
7.151228712311805
 30
0.0
 10
37.88547725064275
 20
6.721111485330197
 30
0.0
 10
38.17456656149968
 20
6.180944829615251
 30
0.0
 10
38.32331580853109
 20
5.903005174666082
 30
0.0
 10
38.42617649094103
 20
5.602862570218842
 30
0.0
 10
38.46124921105679
 20
5.332258395075104
 30
0.0
  0
LINE
  5
4909
330
48E7
100
AcDbEntity
  8
0
100
AcDbLine
 10
38.46124921105658
 20
5.33225839507522
 30
0.0
 11
40.64977061994681
 21
4.836616977420469
 31
0.0
  0
ELLIPSE
  5
490A
330
48E7
100
AcDbEntity
  8
0
100
AcDbEllipse
 10
39.92194208272611
 20
7.48217128746984
 30
0.0
 11
-4.0
 21
0.0000000000000008
 31
0.0
210
0.0
220
0.0
230
1.0
 40
0.5773502691896259
 41
0.373818864125063
 42
1.196977462669834
  0
LINE
  5
490B
330
48E7
100
AcDbEntity
  8
0
100
AcDbLine
 10
33.59321610577021
 20
-3.815701210307924
 30
0.0
 11
35.33970760353767
 21
7.902383289357555
 31
0.0
  0
LINE
  5
490C
330
48E7
100
AcDbEntity
  8
0
100
AcDbLine
 10
31.44432663278689
 20
-12.85636342173847
 30
0.0
 11
34.73535901874592
 21
8.435404963313839
 31
0.0
  0
LINE
  5
490D
330
48E7
100
AcDbEntity
  8
0
100
AcDbLine
 10
32.98686774898099
 20
-6.560467366916
 30
0.0
 11
36.19818372125126
 21
6.638839864808065
 31
0.0
  0
ELLIPSE
  5
490E
330
48E7
100
AcDbEntity
  8
0
100
AcDbEllipse
 10
31.66776336965485
 20
-36.81503311780899
 30
0.0
 11
-5.857659051253772
 21
1.299165285583301
 31
0.0
210
0.0
220
0.0
230
0.9999999999999998
 40
0.3912503397940472
 41
6.273380941609537
 42
6.609387026154482
  0
ELLIPSE
  5
490F
330
48E7
100
AcDbEntity
  8
0
100
AcDbEllipse
 10
31.66776336965485
 20
-36.81503311780899
 30
0.0
 11
-5.857659051253776
 21
1.2991652855833
 31
0.0
210
0.0
220
0.0
230
1.0
 40
0.3912503397940475
 41
0.3262017189748949
 42
1.459072081198406
  0
ELLIPSE
  5
4910
330
48E7
100
AcDbEntity
  8
0
100
AcDbEllipse
 10
31.66776336965485
 20
-36.81503311780899
 30
0.0
 11
-5.857659051253724
 21
1.299165285583538
 31
0.0
210
0.0
220
0.0
230
1.0
 40
0.3912503397940474
 41
1.459072081198456
 42
2.000630724375911
  0
LINE
  5
4911
330
48E7
100
AcDbEntity
  8
0
100
AcDbLine
 10
33.64670729200888
 20
-39.43975760164306
 30
0.0
 11
38.46124921105658
 21
5.332258395075211
 31
0.0
  0
LINE
  5
4912
330
48E7
100
AcDbEntity
  8
0
100
AcDbLine
 10
44.60975982219008
 20
-39.8871444100856
 30
0.0
 11
33.64670729200677
 21
-39.43975760165381
 31
0.0
  0
LINE
  5
4913
330
48E7
100
AcDbEntity
  8
0
100
AcDbLine
 10
44.60975982219276
 20
-39.88714441007816
 30
0.0
 11
40.64977061994681
 21
4.836616977420469
 31
0.0
  0
SPLINE
  5
4914
330
48E7
100
AcDbEntity
  8
0
100
AcDbSpline
210
0.0
220
0.0
230
1.0
 70
     8
 71
     3
 72
    12
 73
     8
 74
     0
 42
0.000000001
 43
0.0000000001
 40
0.0
 40
0.0
 40
0.0
 40
0.0
 40
0.1046460235597249
 40
0.1046460235597249
 40
0.2148735671984288
 40
0.2148735671984288
 40
0.3166809242756077
 40
0.3166809242756077
 40
0.3166809242756077
 40
0.3166809242756077
 10
47.49488733788227
 20
-40.6628088488793
 30
0.0
 10
47.24823429493797
 20
-40.52040364813898
 30
0.0
 10
46.9575402444055
 20
-40.39049873567079
 30
0.0
 10
46.30602837211035
 20
-40.16209702834062
 30
0.0
 10
45.94815426254064
 20
-40.06767090547366
 30
0.0
 10
45.25456360047204
 20
-39.93820073653418
 30
0.0
 10
44.92341116635221
 20
-39.89994408184492
 30
0.0
 10
44.60975982219155
 20
-39.88714441008934
 30
0.0
  0
LINE
  5
4915
330
48E7
100
AcDbEntity
  8
0
100
AcDbLine
 10
41.57299124077356
 20
4.487696159306526
 30
0.0
 11
47.49488733788084
 21
-40.66280884886843
 31
0.0
  0
SPLINE
  5
4916
330
48E7
100
AcDbEntity
  8
0
100
AcDbSpline
210
0.0
220
0.0
230
1.0
 70
     8
 71
     3
 72
    18
 73
    14
 74
     0
 42
0.000000001
 43
0.0000000001
 40
0.0
 40
0.0
 40
0.0
 40
0.0
 40
0.1285206655975685
 40
0.1285206655975685
 40
0.2705790485651133
 40
0.2705790485651133
 40
0.3559261915429075
 40
0.3559261915429075
 40
0.4025243251380941
 40
0.4025243251380941
 40
0.4257584060907334
 40
0.4257584060907334
 40
0.4304651690157552
 40
0.4304651690157552
 40
0.4304651690157552
 40
0.4304651690157552
 10
32.98686774898102
 20
-6.56046736691616
 30
0.0
 10
33.08683389040984
 20
-6.149581666199503
 30
0.0
 10
33.18194841126051
 20
-5.746400943976954
 30
0.0
 10
33.36120921661934
 20
-4.953895020237029
 30
0.0
 10
33.44610504170362
 20
-4.557198944434475
 30
0.0
 10
33.55910822465598
 20
-3.995824709891131
 30
0.0
 10
33.59724095461363
 20
-3.796810817446472
 30
0.0
 10
33.63970935262091
 20
-3.566040513729431
 30
0.0
 10
33.65156027000886
 20
-3.499292653488392
 30
0.0
 10
33.66121777545489
 20
-3.443949885661679
 30
0.0
 10
33.66312846569943
 20
-3.432761799298225
 30
0.0
 10
33.66377587607539
 20
-3.428958079371327
 30
0.0
 10
33.66383010167247
 20
-3.428637963188227
 30
0.0
 10
33.66383010217135
 20
-3.428637960243241
 30
0.0
  0
SPLINE
  5
4917
330
48E7
100
AcDbEntity
  8
0
100
AcDbSpline
210
0.0
220
0.0
230
1.0
 70
     8
 71
     3
 72
     8
 73
     4
 74
     0
 42
0.000000001
 43
0.0000000001
 40
0.0
 40
0.0
 40
0.0
 40
0.0
 40
3.336705625192597
 40
3.336705625192597
 40
3.336705625192597
 40
3.336705625192597
 10
25.81536931959115
 20
-35.49346087943616
 30
0.0
 10
28.19467936101976
 20
-25.90830721072637
 30
0.0
 10
30.64051802353404
 20
-16.20454822556571
 30
0.0
 10
32.98686774898103
 20
-6.560467366916151
 30
0.0
  0
LINE
  5
4918
330
48E7
100
AcDbEntity
  8
0
100
AcDbLine
 10
64.55701817854344
 20
-68.91421320133881
 30
0.0
 11
-2.85801817906
 21
-109.8017057316054
 31
0.0
  0
ELLIPSE
  5
4919
330
48E7
100
AcDbEntity
  8
0
100
AcDbEllipse
 10
286.5234616805242
 20
-190.9064976615734
 30
0.0
 11
-306.4562847200207
 21
-0.0000000000000178
 31
0.0
210
0.0
220
0.0
230
1.0
 40
0.5773502691896258
 41
5.513421099450128
 42
5.522408322523098
  0
LINE
  5
491A
330
48E7
100
AcDbEntity
  8
0
100
AcDbLine
 10
73.50951418908713
 20
69.01104549156658
 30
0.0
 11
71.76822933756402
 21
-58.58183472723816
 31
0.0
  0
ELLIPSE
  5
491B
330
48E7
100
AcDbEntity
  8
0
100
AcDbEllipse
 10
-210.5107827517847
 20
98.09759861020166
 30
0.0
 11
-306.4562847200146
 21
0.0000000000182609
 31
0.0
210
0.0
220
0.0
230
1.0
 40
0.5773502691896258
 41
2.331573311451613
 42
2.340560534524586
  0
LINE
  5
491C
330
48E7
100
AcDbEntity
  8
0
100
AcDbLine
 10
0.7860520647326297
 20
-30.05478729672823
 30
0.0
 11
-70.03316239178204
 21
-68.97687668521911
 31
0.0
  0
LINE
  5
491D
330
48E7
100
AcDbEntity
  8
0
100
AcDbLine
 10
-2.85801817906
 20
-107.7604642792861
 30
0.0
 11
64.55701817854344
 21
-66.87297174901949
 31
0.0
  0
ELLIPSE
  5
491E
330
48E7
100
AcDbEntity
  8
0
100
AcDbEllipse
 10
286.5234616805242
 20
-188.8652562092541
 30
0.0
 11
306.4562847200207
 21
-0.0000000000182787
 31
0.0
210
0.0
220
0.0
230
1.0
 40
0.5773502691896258
 41
2.371828445860588
 42
2.380815668933561
  0
LINE
  5
491F
330
48E7
100
AcDbEntity
  8
0
100
AcDbLine
 10
70.00046238459765
 20
-59.60245545324761
 30
0.0
 11
71.74174723612074
 21
67.99042476540691
 31
0.0
  0
LINE
  5
4920
330
48E7
100
AcDbEntity
  8
0
100
AcDbLine
 10
4.566603023398716
 20
106.7740123594739
 30
0.0
 11
6.307887874921829
 21
-22.829530414706
 31
0.0
  0
SPLINE
  5
4921
330
48E7
100
AcDbEntity
  8
0
100
AcDbSpline
210
0.0
220
0.0
230
1.0
 70
     8
 71
     3
 72
    11
 73
     7
 74
     0
 42
0.000000001
 43
0.0000000001
 40
0.0
 40
0.0
 40
0.0
 40
0.0
 40
0.9237014399511952
 40
0.9237014399511952
 40
0.9237014399511952
 40
1.0
 40
1.0
 40
1.0
 40
1.0
 10
71.76822933756401
 20
-58.58183472723819
 30
0.0
 10
71.73561459471506
 20
-61.52449610234895
 30
0.0
 10
69.6102813494009
 20
-65.51292085986955
 30
0.0
 10
67.09150024421569
 20
-67.35312749039218
 30
0.0
 10
66.88344668589936
 20
-67.50513019389403
 30
0.0
 10
66.67408319183455
 20
-67.64355496125742
 30
0.0
 10
66.46492847867597
 20
-67.76742126223083
 30
0.0
  0
SPLINE
  5
4922
330
48E7
100
AcDbEntity
  8
0
100
AcDbSpline
210
0.0
220
0.0
230
1.0
 70
     8
 71
     3
 72
    11
 73
     7
 74
     0
 42
0.000000001
 43
0.0000000001
 40
-1.0
 40
-1.0
 40
-1.0
 40
-1.0
 40
-0.9237014399096555
 40
-0.9237014399096555
 40
-0.9237014399096555
 40
0.0
 40
0.0
 40
0.0
 40
0.0
 10
6.307887874921864
 20
-22.82953041470602
 30
0.0
 10
6.310581881648902
 20
-22.99416702092774
 30
0.0
 10
6.304597593870822
 20
-23.16357921555903
 30
0.0
 10
6.289994870304647
 20
-23.33656331689686
 30
0.0
 10
6.11320835207016
 20
-25.4307792929
 30
0.0
 10
4.514786629436891
 20
-27.98492106670949
 30
0.0
 10
2.772353968978076
 20
-28.95325477135718
 30
0.0
  0
LINE
  5
4923
330
48E7
100
AcDbEntity
  8
0
100
AcDbLine
 10
70.00046238459765
 20
-59.60245545324761
 30
0.0
 11
70.77827984404087
 21
-59.15338233372381
 31
0.0
  0
LINE
  5
4924
330
48E7
100
AcDbEntity
  8
0
100
AcDbLine
 10
70.77827984404087
 20
-59.15338233372381
 30
0.0
 11
71.76822933756402
 21
-58.58183472723816
 31
0.0
  0
SPLINE
  5
4925
330
48E7
100
AcDbEntity
  8
0
100
AcDbSpline
210
0.0
220
0.0
230
1.0
 70
     8
 71
     3
 72
    11
 73
     7
 74
     0
 42
0.000000001
 43
0.0000000001
 40
-1.0
 40
-1.0
 40
-1.0
 40
-1.0
 40
-0.9237014399511954
 40
-0.9237014399511954
 40
-0.9237014399511954
 40
0.0
 40
0.0
 40
0.0
 40
0.0
 10
66.46492847867595
 20
-65.72617980991151
 30
0.0
 10
66.60346695186952
 20
-65.64308381409107
 30
0.0
 10
66.74221312306224
 20
-65.55032172869811
 30
0.0
 10
66.88015451684496
 20
-65.44854724192984
 30
0.0
 10
68.55012920554762
 20
-64.21642385823814
 30
0.0
 10
69.96784764181159
 20
-61.55795299316999
 30
0.0
 10
70.00046238459765
 20
-59.60245545324763
 30
0.0
  0
LINE
  5
4926
330
48E7
100
AcDbEntity
  8
0
100
AcDbLine
 10
66.46492847867593
 20
-65.72617980991151
 30
0.0
 11
66.46492847867593
 21
-67.76742126223083
 31
0.0
  0
LINE
  5
4927
330
48E7
100
AcDbEntity
  8
0
100
AcDbLine
 10
64.55701817854344
 20
-66.87297174901949
 30
0.0
 11
64.55701817854344
 21
-68.91421320133881
 31
0.0
  0
LINE
  5
4928
330
48E7
100
AcDbEntity
  8
0
100
AcDbLine
 10
-9.929085990925479
 20
-109.8017057316054
 30
0.0
 11
-2.85801817906
 21
-109.8017057316054
 31
0.0
  0
LINE
  5
4929
330
48E7
100
AcDbEntity
  8
0
100
AcDbLine
 10
73.50951418908713
 20
69.01104549156658
 30
0.0
 11
69.97398028315437
 21
75.13476984852452
 31
0.0
  0
LINE
  5
492A
330
48E7
100
AcDbEntity
  8
0
100
AcDbLine
 10
-70.03316239178204
 20
-73.05935958985774
 30
0.0
 11
-70.03316239178204
 21
-68.97687668521911
 31
0.0
  0
LINE
  5
492B
330
48E7
100
AcDbEntity
  8
0
100
AcDbLine
 10
-2.85801817906
 20
-107.7604642792861
 30
0.0
 11
-9.929085990925479
 21
-107.7604642792861
 31
0.0
  0
LINE
  5
492C
330
48E7
100
AcDbEntity
  8
0
100
AcDbLine
 10
68.20621333018801
 20
74.11414912236486
 30
0.0
 11
71.74174723612074
 21
67.99042476540691
 31
0.0
  0
LINE
  5
492D
330
48E7
100
AcDbEntity
  8
0
100
AcDbLine
 10
4.566603023398716
 20
106.7740123594739
 30
0.0
 11
8.102136929331456
 21
108.8152538117932
 31
0.0
  0
LINE
  5
492E
330
48E7
100
AcDbEntity
  8
0
100
AcDbLine
 10
71.74174723612074
 20
67.99042476540691
 30
0.0
 11
73.50951418908713
 21
69.01104549156658
 31
0.0
  0
LINE
  5
492F
330
48E7
100
AcDbEntity
  8
0
100
AcDbLine
 10
-2.85801817906
 20
-109.8017057316054
 30
0.0
 11
-2.85801817906
 21
-107.7604642792861
 31
0.0
  0
LINE
  5
4930
330
48E7
100
AcDbEntity
  8
0
100
AcDbLine
 10
-9.929085990925479
 20
-107.7604642792861
 30
0.0
 11
-9.929085990925479
 21
-109.8017057316054
 31
0.0
  0
LINE
  5
4931
330
48E7
100
AcDbEntity
  8
0
100
AcDbLine
 10
-70.03316239178204
 20
-75.10060104217706
 30
0.0
 11
-70.03316239178204
 21
-73.05935958985774
 31
0.0
  0
LINE
  5
4932
330
48E7
100
AcDbEntity
  8
0
100
AcDbLine
 10
8.102136929331456
 20
108.8152538117932
 30
0.0
 11
9.869903882297826
 21
109.8358745379528
 31
0.0
  0
LINE
  5
4933
330
48E7
100
AcDbEntity
  8
0
100
AcDbLine
 10
69.97398028315437
 20
75.13476984852452
 30
0.0
 11
68.20621333018801
 21
74.11414912236486
 31
0.0
  0
LINE
  5
4934
330
48E7
100
AcDbEntity
  8
0
100
AcDbLine
 10
-70.03316239178204
 20
-75.10060104217706
 30
0.0
 11
-9.929085990925479
 21
-109.8017057316054
 31
0.0
  0
LINE
  5
4935
330
48E7
100
AcDbEntity
  8
0
100
AcDbLine
 10
69.97398028315437
 20
75.13476984852452
 30
0.0
 11
9.86990388229783
 21
109.8358745379528
 31
0.0
  0
LINE
  5
4936
330
48E7
100
AcDbEntity
  8
0
100
AcDbLine
 10
-70.03316239178204
 20
-73.05935958985774
 30
0.0
 11
-9.929085990925479
 21
-107.7604642792861
 31
0.0
  0
LINE
  5
4937
330
48E7
100
AcDbEntity
  8
0
100
AcDbLine
 10
8.102136929331456
 20
108.8152538117932
 30
0.0
 11
68.20621333018801
 21
74.11414912236486
 31
0.0
  0
ELLIPSE
  5
4938
330
48E7
100
AcDbEntity
  8
0
100
AcDbEllipse
 10
59.01382517476289
 20
-67.95625595905943
 30
0.0
 11
-2.5
 21
-0.0000000000001496
 31
0.0
210
0.0
220
0.0
230
1.0
 40
0.5773502691896259
 41
3.926990816987
 42
5.497787143781897
  0
ELLIPSE
  5
4939
330
48E7
100
AcDbEntity
  8
0
100
AcDbEllipse
 10
30.72955392730099
 20
-67.95625595905945
 30
0.0
 11
-2.5
 21
-0.0000000000001496
 31
0.0
210
0.0
220
0.0
230
1.0
 40
0.5773502691896259
 41
3.926990816986998
 42
5.497787143781895
  0
ELLIPSE
  5
493A
330
48E7
100
AcDbEntity
  8
0
100
AcDbEllipse
 10
37.09351495797993
 20
-80.61195296343919
 30
0.0
 11
-2.5
 21
-0.0000000000001496
 31
0.0
210
0.0
220
0.0
230
1.0
 40
0.5773502691896259
 41
3.926990816986998
 42
5.497787143781895
  0
ELLIPSE
  5
493B
330
48E7
100
AcDbEntity
  8
0
100
AcDbEllipse
 10
22.95137933424898
 20
-88.77691877271645
 30
0.0
 11
-2.5
 21
-0.0000000000001496
 31
0.0
210
0.0
220
0.0
230
1.0
 40
0.5773502691896259
 41
3.926990816987006
 42
5.497787143781902
  0
ELLIPSE
  5
493C
330
48E7
100
AcDbEntity
  8
0
100
AcDbEllipse
 10
8.809243710518028
 20
-96.9418845819937
 30
0.0
 11
-2.5
 21
-0.0000000000001496
 31
0.0
210
0.0
220
0.0
230
1.0
 40
0.5773502691896259
 41
3.926990816987006
 42
5.497787143781901
  0
ELLIPSE
  5
493D
330
48E7
100
AcDbEntity
  8
0
100
AcDbEllipse
 10
-19.47502753694388
 20
-47.95208972633015
 30
0.0
 11
-2.5
 21
-0.0000000000001496
 31
0.0
210
0.0
220
0.0
230
1.0
 40
0.5773502691896259
 41
3.926990816986998
 42
5.497787143781895
  0
ELLIPSE
  5
493E
330
48E7
100
AcDbEntity
  8
0
100
AcDbEllipse
 10
2.445282679839086
 20
-51.62632434050492
 30
0.0
 11
-2.5
 21
-0.0000000000001496
 31
0.0
210
0.0
220
0.0
230
1.0
 40
0.5773502691896259
 41
3.926990816986998
 42
5.497787143781895
  0
ELLIPSE
  5
493F
330
48E7
100
AcDbEntity
  8
0
100
AcDbEllipse
 10
-33.61716316067484
 20
-56.11705553560742
 30
0.0
 11
-2.5
 21
-0.0000000000001496
 31
0.0
210
0.0
220
0.0
230
1.0
 40
0.5773502691896259
 41
3.926990816986998
 42
5.497787143781895
  0
ELLIPSE
  5
4940
330
48E7
100
AcDbEntity
  8
0
100
AcDbEllipse
 10
2.445282679839082
 20
-35.2963927219504
 30
0.0
 11
-2.5
 21
-0.0000000000001496
 31
0.0
210
0.0
220
0.0
230
1.0
 40
0.5773502691896259
 41
3.926990816986998
 42
5.497787143781895
  0
ELLIPSE
  5
4941
330
48E7
100
AcDbEntity
  8
0
100
AcDbEllipse
 10
-47.75929878440578
 20
-64.28202134488468
 30
0.0
 11
-2.5
 21
-0.0000000000001496
 31
0.0
210
0.0
220
0.0
230
1.0
 40
0.5773502691896259
 41
3.926990816987
 42
5.497787143781897
  0
ELLIPSE
  5
4942
330
48E7
100
AcDbEntity
  8
0
100
AcDbEllipse
 10
-11.69685294389186
 20
-59.79129014978219
 30
0.0
 11
-2.5
 21
-0.0000000000001496
 31
0.0
210
0.0
220
0.0
230
1.0
 40
0.5773502691896259
 41
3.926990816986998
 42
5.497787143781895
  0
ELLIPSE
  5
4943
330
48E7
100
AcDbEntity
  8
0
100
AcDbEllipse
 10
-33.61716316067483
 20
-88.77691877271645
 30
0.0
 11
-2.5
 21
-0.0000000000001496
 31
0.0
210
0.0
220
0.0
230
1.0
 40
0.5773502691896258
 41
3.926990816986993
 42
5.497787143781888
  0
ELLIPSE
  5
4944
330
48E7
100
AcDbEntity
  8
0
100
AcDbEllipse
 10
-5.33289191321292
 20
-105.1068503912709
 30
0.0
 11
-2.5
 21
-0.0000000000001496
 31
0.0
210
0.0
220
0.0
230
1.0
 40
0.5773502691896259
 41
3.926990816987006
 42
5.497787143781902
  0
ELLIPSE
  5
4945
330
48E7
100
AcDbEntity
  8
0
100
AcDbEllipse
 10
-61.90143440813674
 20
-72.44698715416195
 30
0.0
 11
-2.5
 21
-0.0000000000001496
 31
0.0
210
0.0
220
0.0
230
1.0
 40
0.5773502691896259
 41
3.926990816987
 42
5.497787143781897
  0
ELLIPSE
  5
4946
330
48E7
100
AcDbEntity
  8
0
100
AcDbEllipse
 10
-19.47502753694388
 20
-80.61195296343919
 30
0.0
 11
-2.5
 21
-0.0000000000001496
 31
0.0
210
0.0
220
0.0
230
1.0
 40
0.5773502691896258
 41
3.926990816986998
 42
5.497787143781895
  0
ELLIPSE
  5
4947
330
48E7
100
AcDbEntity
  8
0
100
AcDbEllipse
 10
16.58741830357004
 20
-76.12122176833669
 30
0.0
 11
-2.5
 21
-0.0000000000001496
 31
0.0
210
0.0
220
0.0
230
1.0
 40
0.5773502691896259
 41
3.926990816986998
 42
5.497787143781895
  0
ELLIPSE
  5
4948
330
48E7
100
AcDbEntity
  8
0
100
AcDbEllipse
 10
-19.47502753694388
 20
-45.91084827401084
 30
0.0
 11
-2.5
 21
0.0000000000001488
 31
0.0
210
0.0
220
0.0
230
1.0
 40
0.5773502691896259
 41
0.0
 42
6.283185307179586
  0
ELLIPSE
  5
4949
330
48E7
100
AcDbEntity
  8
0
100
AcDbEllipse
 10
2.445282679839086
 20
-49.5850828881856
 30
0.0
 11
-2.5
 21
0.0000000000001488
 31
0.0
210
0.0
220
0.0
230
1.0
 40
0.5773502691896259
 41
0.0
 42
6.283185307179586
  0
ELLIPSE
  5
494A
330
48E7
100
AcDbEntity
  8
0
100
AcDbEllipse
 10
16.58741830357004
 20
-74.07998031601739
 30
0.0
 11
-2.5
 21
0.0000000000001488
 31
0.0
210
0.0
220
0.0
230
1.0
 40
0.5773502691896259
 41
0.0
 42
6.283185307179586
  0
ELLIPSE
  5
494B
330
48E7
100
AcDbEntity
  8
0
100
AcDbEllipse
 10
59.01382517476289
 20
-65.91501450674012
 30
0.0
 11
-2.5
 21
0.0000000000001488
 31
0.0
210
0.0
220
0.0
230
1.0
 40
0.5773502691896259
 41
0.0
 42
6.283185307179586
  0
ELLIPSE
  5
494C
330
48E7
100
AcDbEntity
  8
0
100
AcDbEllipse
 10
22.95137933424898
 20
-86.73567732039714
 30
0.0
 11
-2.5
 21
0.0000000000001488
 31
0.0
210
0.0
220
0.0
230
1.0
 40
0.5773502691896259
 41
0.0
 42
6.283185307179586
  0
ELLIPSE
  5
494D
330
48E7
100
AcDbEntity
  8
0
100
AcDbEllipse
 10
-19.47502753694388
 20
-78.57071151111988
 30
0.0
 11
-2.5
 21
0.0000000000001488
 31
0.0
210
0.0
220
0.0
230
1.0
 40
0.5773502691896259
 41
0.0
 42
6.283185307179586
  0
ELLIPSE
  5
494E
330
48E7
100
AcDbEntity
  8
0
100
AcDbEllipse
 10
-61.90143440813674
 20
-70.40574570184263
 30
0.0
 11
-2.5
 21
0.0000000000001488
 31
0.0
210
0.0
220
0.0
230
1.0
 40
0.5773502691896259
 41
0.0
 42
6.283185307179586
  0
ELLIPSE
  5
494F
330
48E7
100
AcDbEntity
  8
0
100
AcDbEllipse
 10
-5.33289191321292
 20
-103.0656089389516
 30
0.0
 11
-2.5
 21
0.0000000000001488
 31
0.0
210
0.0
220
0.0
230
1.0
 40
0.5773502691896259
 41
0.0
 42
6.283185307179586
  0
ELLIPSE
  5
4950
330
48E7
100
AcDbEntity
  8
0
100
AcDbEllipse
 10
-33.61716316067483
 20
-86.73567732039714
 30
0.0
 11
-2.5
 21
0.0000000000001488
 31
0.0
210
0.0
220
0.0
230
1.0
 40
0.5773502691896259
 41
0.0
 42
6.283185307179586
  0
ELLIPSE
  5
4951
330
48E7
100
AcDbEntity
  8
0
100
AcDbEllipse
 10
-47.75929878440578
 20
-62.24077989256536
 30
0.0
 11
-2.5
 21
0.0000000000001488
 31
0.0
210
0.0
220
0.0
230
1.0
 40
0.5773502691896259
 41
0.0
 42
6.283185307179586
  0
ELLIPSE
  5
4952
330
48E7
100
AcDbEntity
  8
0
100
AcDbEllipse
 10
8.809243710518028
 20
-94.9006431296744
 30
0.0
 11
-2.5
 21
0.0000000000001488
 31
0.0
210
0.0
220
0.0
230
1.0
 40
0.5773502691896259
 41
0.0
 42
6.283185307179586
  0
ELLIPSE
  5
4953
330
48E7
100
AcDbEntity
  8
0
100
AcDbEllipse
 10
37.09351495797993
 20
-78.57071151111988
 30
0.0
 11
-2.5
 21
0.0000000000001488
 31
0.0
210
0.0
220
0.0
230
1.0
 40
0.5773502691896259
 41
0.0
 42
6.283185307179586
  0
ELLIPSE
  5
4954
330
48E7
100
AcDbEntity
  8
0
100
AcDbEllipse
 10
30.72955392730099
 20
-65.91501450674013
 30
0.0
 11
-2.5
 21
0.0000000000001488
 31
0.0
210
0.0
220
0.0
230
1.0
 40
0.5773502691896259
 41
0.0
 42
6.283185307179586
  0
ELLIPSE
  5
4955
330
48E7
100
AcDbEntity
  8
0
100
AcDbEllipse
 10
-11.69685294389186
 20
-57.75004869746286
 30
0.0
 11
-2.5
 21
0.0000000000001488
 31
0.0
210
0.0
220
0.0
230
1.0
 40
0.5773502691896259
 41
0.0
 42
6.283185307179586
  0
ELLIPSE
  5
4956
330
48E7
100
AcDbEntity
  8
0
100
AcDbEllipse
 10
-33.61716316067484
 20
-54.0758140832881
 30
0.0
 11
-2.5
 21
0.0000000000001488
 31
0.0
210
0.0
220
0.0
230
1.0
 40
0.5773502691896259
 41
0.0
 42
6.283185307179586
  0
ELLIPSE
  5
4957
330
48E7
100
AcDbEntity
  8
0
100
AcDbEllipse
 10
2.445282679839082
 20
-33.25515126963109
 30
0.0
 11
-2.5
 21
0.0000000000001488
 31
0.0
210
0.0
220
0.0
230
1.0
 40
0.5773502691896259
 41
0.0
 42
6.283185307179586
  0
ELLIPSE
  5
4958
330
48E7
100
AcDbEntity
  8
0
100
AcDbEllipse
 10
45.93234972281177
 20
-68.56862839475524
 30
0.0
 11
5.500000000000001
 21
0.0000000000000003
 31
0.0
210
0.0
220
0.0
230
1.0
 40
0.5773502691896257
 41
0.3272204132950656
 42
2.814372240294727
  0
ELLIPSE
  5
4959
330
48E7
100
AcDbEntity
  8
0
100
AcDbEllipse
 10
1.384622508059258
 20
-42.84898609553185
 30
0.0
 11
5.500000000000001
 21
0.0000000000000003
 31
0.0
210
0.0
220
0.0
230
1.0
 40
0.5773502691896257
 41
0.3272204132950653
 42
2.814372240294727
  0
ELLIPSE
  5
495A
330
48E7
100
AcDbEntity
  8
0
100
AcDbEllipse
 10
-48.8199589561856
 20
-71.83461471846614
 30
0.0
 11
5.500000000000001
 21
0.0000000000000008
 31
0.0
210
0.0
220
0.0
230
1.0
 40
0.5773502691896257
 41
0.3272204132950649
 42
2.814372240294727
  0
ELLIPSE
  5
495B
330
48E7
100
AcDbEntity
  8
0
100
AcDbEllipse
 10
-4.272231741433092
 20
-97.55425701768951
 30
0.0
 11
5.500000000000001
 21
0.0000000000000008
 31
0.0
210
0.0
220
0.0
230
1.0
 40
0.5773502691896257
 41
0.3272204132950627
 42
2.814372240294724
  0
ELLIPSE
  5
495C
330
48E7
100
AcDbEntity
  8
0
100
AcDbEllipse
 10
-4.272231741433092
 20
-95.51301556537019
 30
0.0
 11
-5.5
 21
0.0000000000003289
 31
0.0
210
0.0
220
0.0
230
1.0
 40
0.5773502691896259
 41
0.0
 42
6.283185307179586
  0
ELLIPSE
  5
495D
330
48E7
100
AcDbEntity
  8
0
100
AcDbEllipse
 10
1.384622508059258
 20
-40.80774464321255
 30
0.0
 11
-5.5
 21
0.0000000000003289
 31
0.0
210
0.0
220
0.0
230
1.0
 40
0.5773502691896259
 41
0.0
 42
6.283185307179586
  0
ELLIPSE
  5
495E
330
48E7
100
AcDbEntity
  8
0
100
AcDbEllipse
 10
-48.8199589561856
 20
-69.79337326614682
 30
0.0
 11
-5.5
 21
0.0000000000003289
 31
0.0
210
0.0
220
0.0
230
1.0
 40
0.5773502691896259
 41
0.0
 42
6.283185307179586
  0
ELLIPSE
  5
495F
330
48E7
100
AcDbEntity
  8
0
100
AcDbEllipse
 10
45.93234972281177
 20
-66.52738694243592
 30
0.0
 11
-5.5
 21
0.0000000000003289
 31
0.0
210
0.0
220
0.0
230
1.0
 40
0.5773502691896259
 41
0.0
 42
6.283185307179586
  0
ELLIPSE
  5
4960
330
48E7
100
AcDbEntity
  8
0
100
AcDbEllipse
 10
17.64807847534985
 20
15.53051944080054
 30
0.0
 11
-2.750000000000002
 21
4.763139720814412
 31
0.0
210
0.0
220
0.0
230
1.0
 40
0.5773502691896257
 41
0.3272204132950657
 42
2.814372240294728
  0
ELLIPSE
  5
4961
330
48E7
100
AcDbEntity
  8
0
100
AcDbEllipse
 10
62.19580569010236
 20
-10.18912285842283
 30
0.0
 11
-2.750000000000002
 21
4.763139720814412
 31
0.0
210
0.0
220
0.0
230
1.0
 40
0.5773502691896257
 41
0.3272204132950672
 42
2.814372240294727
  0
ELLIPSE
  5
4962
330
48E7
100
AcDbEntity
  8
0
100
AcDbEllipse
 10
39.92194208272611
 20
35.3305615282979
 30
0.0
 11
-2.750000000000003
 21
4.763139720814412
 31
0.0
210
0.0
220
0.0
230
1.0
 40
0.577350269189626
 41
0.3272204132950648
 42
2.814372240294728
  0
ELLIPSE
  5
4963
330
48E7
100
AcDbEntity
  8
0
100
AcDbEllipse
 10
62.19580569010236
 20
55.13060361579523
 30
0.0
 11
-2.750000000000002
 21
4.763139720814412
 31
0.0
210
0.0
220
0.0
230
1.0
 40
0.5773502691896257
 41
0.3272204132950681
 42
2.814372240294727
  0
ELLIPSE
  5
4964
330
48E7
100
AcDbEntity
  8
0
100
AcDbEllipse
 10
17.64807847534985
 20
80.85024591501861
 30
0.0
 11
-2.750000000000002
 21
4.763139720814412
 31
0.0
210
0.0
220
0.0
230
1.0
 40
0.5773502691896257
 41
0.3272204132950657
 42
2.814372240294728
  0
ELLIPSE
  5
4965
330
48E7
100
AcDbEntity
  8
0
100
AcDbEllipse
 10
15.88031152238349
 20
14.50989871464088
 30
0.0
 11
2.750000000000002
 21
-4.763139720814413
 31
0.0
210
0.0
220
0.0
230
1.0
 40
0.5773502691896259
 41
0.0
 42
6.283185307179586
  0
ELLIPSE
  5
4966
330
48E7
100
AcDbEntity
  8
0
100
AcDbEllipse
 10
38.15417512975974
 20
34.30994080213823
 30
0.0
 11
2.750000000000002
 21
-4.763139720814413
 31
0.0
210
0.0
220
0.0
230
1.0
 40
0.5773502691896259
 41
0.0
 42
6.283185307179586
  0
ELLIPSE
  5
4967
330
48E7
100
AcDbEntity
  8
0
100
AcDbEllipse
 10
60.42803873713599
 20
54.10998288963556
 30
0.0
 11
2.750000000000002
 21
-4.763139720814413
 31
0.0
210
0.0
220
0.0
230
1.0
 40
0.5773502691896259
 41
0.0
 42
6.283185307179586
  0
ELLIPSE
  5
4968
330
48E7
100
AcDbEntity
  8
0
100
AcDbEllipse
 10
60.42803873713601
 20
-11.20974358458248
 30
0.0
 11
2.750000000000002
 21
-4.763139720814413
 31
0.0
210
0.0
220
0.0
230
1.0
 40
0.5773502691896259
 41
0.0
 42
6.283185307179586
  0
ELLIPSE
  5
4969
330
48E7
100
AcDbEntity
  8
0
100
AcDbEllipse
 10
15.88031152238348
 20
79.82962518885893
 30
0.0
 11
2.750000000000002
 21
-4.763139720814413
 31
0.0
210
0.0
220
0.0
230
1.0
 40
0.5773502691896259
 41
0.0
 42
6.283185307179586
  0
ELLIPSE
  5
496A
330
48E7
100
AcDbEntity
  8
0
100
AcDbEllipse
 10
25.77980645899515
 20
-13.65923332736566
 30
0.0
 11
1.250000000000129
 21
-2.165063509461021
 31
0.0
210
0.0
220
0.0
230
1.0
 40
0.5773502691896259
 41
3.926990816987
 42
5.497787143781897
  0
ELLIPSE
  5
496B
330
48E7
100
AcDbEntity
  8
0
100
AcDbEllipse
 10
11.6376708352642
 20
2.670698291188857
 30
0.0
 11
1.250000000000129
 21
-2.165063509461021
 31
0.0
210
0.0
220
0.0
230
1.0
 40
0.5773502691896259
 41
3.926990816986998
 42
5.497787143781894
  0
ELLIPSE
  5
496C
330
48E7
100
AcDbEntity
  8
0
100
AcDbEllipse
 10
11.6376708352642
 20
35.3305615282979
 30
0.0
 11
1.250000000000129
 21
-2.165063509461021
 31
0.0
210
0.0
220
0.0
230
1.0
 40
0.5773502691896259
 41
3.926990816986998
 42
5.497787143781894
  0
ELLIPSE
  5
496D
330
48E7
100
AcDbEntity
  8
0
100
AcDbEllipse
 10
54.06407770645706
 20
-13.65923332736566
 30
0.0
 11
1.250000000000129
 21
-2.165063509461021
 31
0.0
210
0.0
220
0.0
230
1.0
 40
0.5773502691896259
 41
3.926990816986997
 42
5.497787143781894
  0
ELLIPSE
  5
496E
330
48E7
100
AcDbEntity
  8
0
100
AcDbEllipse
 10
25.77980645899515
 20
2.670698291188866
 30
0.0
 11
1.250000000000129
 21
-2.165063509461021
 31
0.0
210
0.0
220
0.0
230
1.0
 40
0.5773502691896259
 41
3.926990816987
 42
5.497787143781897
  0
ELLIPSE
  5
496F
330
48E7
100
AcDbEntity
  8
0
100
AcDbEllipse
 10
54.06407770645706
 20
-29.98916494592018
 30
0.0
 11
1.250000000000129
 21
-2.165063509461021
 31
0.0
210
0.0
220
0.0
230
1.0
 40
0.5773502691896259
 41
3.926990816986997
 42
5.497787143781894
  0
ELLIPSE
  5
4970
330
48E7
100
AcDbEntity
  8
0
100
AcDbEllipse
 10
68.20621333018801
 20
2.670698291188848
 30
0.0
 11
1.250000000000129
 21
-2.165063509461021
 31
0.0
210
0.0
220
0.0
230
1.0
 40
0.5773502691896259
 41
3.926990816987
 42
5.497787143781894
  0
ELLIPSE
  5
4971
330
48E7
100
AcDbEntity
  8
0
100
AcDbEllipse
 10
68.20621333018802
 20
-29.98916494592018
 30
0.0
 11
1.250000000000129
 21
-2.165063509461021
 31
0.0
210
0.0
220
0.0
230
1.0
 40
0.5773502691896259
 41
3.926990816986997
 42
5.497787143781894
  0
ELLIPSE
  5
4972
330
48E7
100
AcDbEntity
  8
0
100
AcDbEllipse
 10
54.06407770645706
 20
35.33056152829788
 30
0.0
 11
1.250000000000129
 21
-2.165063509461021
 31
0.0
210
0.0
220
0.0
230
1.0
 40
0.5773502691896259
 41
3.926990816986997
 42
5.497787143781894
  0
ELLIPSE
  5
4973
330
48E7
100
AcDbEntity
  8
0
100
AcDbEllipse
 10
54.06407770645706
 20
51.6604931468524
 30
0.0
 11
1.250000000000129
 21
-2.165063509461021
 31
0.0
210
0.0
220
0.0
230
1.0
 40
0.5773502691896259
 41
3.926990816986993
 42
5.497787143781894
  0
ELLIPSE
  5
4974
330
48E7
100
AcDbEntity
  8
0
100
AcDbEllipse
 10
54.06407770645706
 20
67.99042476540691
 30
0.0
 11
1.250000000000129
 21
-2.165063509461021
 31
0.0
210
0.0
220
0.0
230
1.0
 40
0.5773502691896259
 41
3.926990816986993
 42
5.497787143781894
  0
ELLIPSE
  5
4975
330
48E7
100
AcDbEntity
  8
0
100
AcDbEllipse
 10
39.92194208272611
 20
84.32035638396143
 30
0.0
 11
1.250000000000129
 21
-2.165063509461021
 31
0.0
210
0.0
220
0.0
230
1.0
 40
0.5773502691896259
 41
3.926990816987004
 42
5.497787143781902
  0
ELLIPSE
  5
4976
330
48E7
100
AcDbEntity
  8
0
100
AcDbEllipse
 10
11.63767083526419
 20
100.6502880025159
 30
0.0
 11
1.250000000000129
 21
-2.165063509461021
 31
0.0
210
0.0
220
0.0
230
1.0
 40
0.5773502691896259
 41
3.926990816987002
 42
5.497787143781899
  0
ELLIPSE
  5
4977
330
48E7
100
AcDbEntity
  8
0
100
AcDbEllipse
 10
11.6376708352642
 20
67.99042476540691
 30
0.0
 11
1.250000000000129
 21
-2.165063509461021
 31
0.0
210
0.0
220
0.0
230
1.0
 40
0.5773502691896259
 41
3.926990816986998
 42
5.497787143781894
  0
ELLIPSE
  5
4978
330
48E7
100
AcDbEntity
  8
0
100
AcDbEllipse
 10
11.6376708352642
 20
51.66049314685242
 30
0.0
 11
1.250000000000129
 21
-2.165063509461021
 31
0.0
210
0.0
220
0.0
230
1.0
 40
0.5773502691896259
 41
3.926990816986998
 42
5.497787143781894
  0
ELLIPSE
  5
4979
330
48E7
100
AcDbEntity
  8
0
100
AcDbEllipse
 10
25.77980645899515
 20
19.00062990974337
 30
0.0
 11
1.250000000000129
 21
-2.165063509461021
 31
0.0
210
0.0
220
0.0
230
1.0
 40
0.5773502691896259
 41
3.926990816986998
 42
5.497787143781897
  0
ELLIPSE
  5
497A
330
48E7
100
AcDbEntity
  8
0
100
AcDbEllipse
 10
25.77980645899515
 20
51.6604931468524
 30
0.0
 11
1.250000000000129
 21
-2.165063509461021
 31
0.0
210
0.0
220
0.0
230
1.0
 40
0.5773502691896259
 41
3.926990816986998
 42
5.497787143781897
  0
ELLIPSE
  5
497B
330
48E7
100
AcDbEntity
  8
0
100
AcDbEllipse
 10
25.77980645899515
 20
67.99042476540693
 30
0.0
 11
1.250000000000129
 21
-2.165063509461021
 31
0.0
210
0.0
220
0.0
230
1.0
 40
0.5773502691896259
 41
3.926990816986998
 42
5.497787143781897
  0
ELLIPSE
  5
497C
330
48E7
100
AcDbEntity
  8
0
100
AcDbEllipse
 10
25.77980645899515
 20
84.32035638396143
 30
0.0
 11
1.250000000000129
 21
-2.165063509461021
 31
0.0
210
0.0
220
0.0
230
1.0
 40
0.5773502691896259
 41
3.926990816987004
 42
5.497787143781899
  0
ELLIPSE
  5
497D
330
48E7
100
AcDbEntity
  8
0
100
AcDbEllipse
 10
39.92194208272611
 20
67.99042476540691
 30
0.0
 11
1.250000000000129
 21
-2.165063509461021
 31
0.0
210
0.0
220
0.0
230
1.0
 40
0.5773502691896259
 41
3.926990816986998
 42
5.497787143781894
  0
ELLIPSE
  5
497E
330
48E7
100
AcDbEntity
  8
0
100
AcDbEllipse
 10
68.20621333018801
 20
67.99042476540691
 30
0.0
 11
1.250000000000129
 21
-2.165063509461021
 31
0.0
210
0.0
220
0.0
230
1.0
 40
0.5773502691896259
 41
3.926990816986993
 42
5.497787143781894
  0
ELLIPSE
  5
497F
330
48E7
100
AcDbEntity
  8
0
100
AcDbEllipse
 10
68.20621333018801
 20
35.33056152829788
 30
0.0
 11
1.250000000000129
 21
-2.165063509461021
 31
0.0
210
0.0
220
0.0
230
1.0
 40
0.5773502691896259
 41
3.926990816986997
 42
5.497787143781894
  0
ELLIPSE
  5
4980
330
48E7
100
AcDbEntity
  8
0
100
AcDbEllipse
 10
68.20621333018801
 20
19.00062990974337
 30
0.0
 11
1.250000000000129
 21
-2.165063509461021
 31
0.0
210
0.0
220
0.0
230
1.0
 40
0.5773502691896259
 41
3.926990816986997
 42
5.497787143781894
  0
ELLIPSE
  5
4981
330
48E7
100
AcDbEntity
  8
0
100
AcDbEllipse
 10
54.06407770645706
 20
2.670698291188848
 30
0.0
 11
1.250000000000129
 21
-2.165063509461021
 31
0.0
210
0.0
220
0.0
230
1.0
 40
0.5773502691896259
 41
3.926990816987
 42
5.497787143781894
  0
ELLIPSE
  5
4982
330
48E7
100
AcDbEntity
  8
0
100
AcDbEllipse
 10
66.43844637722165
 20
-31.00978567207983
 30
0.0
 11
1.25
 21
-2.165063509461095
 31
0.0
210
0.0
220
0.0
230
1.0
 40
0.5773502691896259
 41
0.0
 42
6.283185307179586
  0
ELLIPSE
  5
4983
330
48E7
100
AcDbEntity
  8
0
100
AcDbEllipse
 10
52.29631075349069
 20
-14.67985405352531
 30
0.0
 11
1.25
 21
-2.165063509461095
 31
0.0
210
0.0
220
0.0
230
1.0
 40
0.5773502691896259
 41
0.0
 42
6.283185307179586
  0
ELLIPSE
  5
4984
330
48E7
100
AcDbEntity
  8
0
100
AcDbEllipse
 10
66.43844637722165
 20
1.650077565029199
 30
0.0
 11
1.25
 21
-2.165063509461095
 31
0.0
210
0.0
220
0.0
230
1.0
 40
0.5773502691896259
 41
0.0
 42
6.283185307179586
  0
ELLIPSE
  5
4985
330
48E7
100
AcDbEntity
  8
0
100
AcDbEllipse
 10
52.29631075349068
 20
34.30994080213821
 30
0.0
 11
1.25
 21
-2.165063509461095
 31
0.0
210
0.0
220
0.0
230
1.0
 40
0.5773502691896259
 41
0.0
 42
6.283185307179586
  0
ELLIPSE
  5
4986
330
48E7
100
AcDbEntity
  8
0
100
AcDbEllipse
 10
52.29631075349068
 20
50.63987242069273
 30
0.0
 11
1.25
 21
-2.165063509461095
 31
0.0
210
0.0
220
0.0
230
1.0
 40
0.5773502691896259
 41
0.0
 42
6.283185307179586
  0
ELLIPSE
  5
4987
330
48E7
100
AcDbEntity
  8
0
100
AcDbEllipse
 10
52.29631075349068
 20
66.96980403924725
 30
0.0
 11
1.25
 21
-2.165063509461095
 31
0.0
210
0.0
220
0.0
230
1.0
 40
0.5773502691896259
 41
0.0
 42
6.283185307179586
  0
ELLIPSE
  5
4988
330
48E7
100
AcDbEntity
  8
0
100
AcDbEllipse
 10
38.15417512975974
 20
83.29973565780177
 30
0.0
 11
1.25
 21
-2.165063509461095
 31
0.0
210
0.0
220
0.0
230
1.0
 40
0.5773502691896259
 41
0.0
 42
6.283185307179586
  0
ELLIPSE
  5
4989
330
48E7
100
AcDbEntity
  8
0
100
AcDbEllipse
 10
9.86990388229783
 20
99.62966727635631
 30
0.0
 11
1.25
 21
-2.165063509461095
 31
0.0
210
0.0
220
0.0
230
1.0
 40
0.5773502691896259
 41
0.0
 42
6.283185307179586
  0
ELLIPSE
  5
498A
330
48E7
100
AcDbEntity
  8
0
100
AcDbEllipse
 10
9.86990388229783
 20
66.96980403924726
 30
0.0
 11
1.25
 21
-2.165063509461095
 31
0.0
210
0.0
220
0.0
230
1.0
 40
0.5773502691896259
 41
0.0
 42
6.283185307179586
  0
ELLIPSE
  5
498B
330
48E7
100
AcDbEntity
  8
0
100
AcDbEllipse
 10
9.86990388229783
 20
50.63987242069275
 30
0.0
 11
1.25
 21
-2.165063509461095
 31
0.0
210
0.0
220
0.0
230
1.0
 40
0.5773502691896259
 41
0.0
 42
6.283185307179586
  0
ELLIPSE
  5
498C
330
48E7
100
AcDbEntity
  8
0
100
AcDbEllipse
 10
24.01203950602879
 20
17.9800091835837
 30
0.0
 11
1.25
 21
-2.165063509461095
 31
0.0
210
0.0
220
0.0
230
1.0
 40
0.5773502691896259
 41
0.0
 42
6.283185307179586
  0
ELLIPSE
  5
498D
330
48E7
100
AcDbEntity
  8
0
100
AcDbEllipse
 10
24.01203950602879
 20
-14.67985405352531
 30
0.0
 11
1.25
 21
-2.165063509461095
 31
0.0
210
0.0
220
0.0
230
1.0
 40
0.5773502691896259
 41
0.0
 42
6.283185307179586
  0
ELLIPSE
  5
498E
330
48E7
100
AcDbEntity
  8
0
100
AcDbEllipse
 10
9.869903882297833
 20
1.650077565029199
 30
0.0
 11
1.25
 21
-2.165063509461095
 31
0.0
210
0.0
220
0.0
230
1.0
 40
0.5773502691896259
 41
0.0
 42
6.283185307179586
  0
ELLIPSE
  5
498F
330
48E7
100
AcDbEntity
  8
0
100
AcDbEllipse
 10
24.01203950602879
 20
1.650077565029199
 30
0.0
 11
1.25
 21
-2.165063509461095
 31
0.0
210
0.0
220
0.0
230
1.0
 40
0.5773502691896259
 41
0.0
 42
6.283185307179586
  0
ELLIPSE
  5
4990
330
48E7
100
AcDbEntity
  8
0
100
AcDbEllipse
 10
9.86990388229783
 20
34.30994080213823
 30
0.0
 11
1.25
 21
-2.165063509461095
 31
0.0
210
0.0
220
0.0
230
1.0
 40
0.5773502691896259
 41
0.0
 42
6.283185307179586
  0
ELLIPSE
  5
4991
330
48E7
100
AcDbEntity
  8
0
100
AcDbEllipse
 10
24.01203950602879
 20
50.63987242069273
 30
0.0
 11
1.25
 21
-2.165063509461095
 31
0.0
210
0.0
220
0.0
230
1.0
 40
0.5773502691896259
 41
0.0
 42
6.283185307179586
  0
ELLIPSE
  5
4992
330
48E7
100
AcDbEntity
  8
0
100
AcDbEllipse
 10
24.01203950602879
 20
66.96980403924726
 30
0.0
 11
1.25
 21
-2.165063509461095
 31
0.0
210
0.0
220
0.0
230
1.0
 40
0.5773502691896259
 41
0.0
 42
6.283185307179586
  0
ELLIPSE
  5
4993
330
48E7
100
AcDbEntity
  8
0
100
AcDbEllipse
 10
24.01203950602878
 20
83.29973565780177
 30
0.0
 11
1.25
 21
-2.165063509461095
 31
0.0
210
0.0
220
0.0
230
1.0
 40
0.5773502691896259
 41
0.0
 42
6.283185307179586
  0
ELLIPSE
  5
4994
330
48E7
100
AcDbEntity
  8
0
100
AcDbEllipse
 10
38.15417512975974
 20
66.96980403924725
 30
0.0
 11
1.25
 21
-2.165063509461095
 31
0.0
210
0.0
220
0.0
230
1.0
 40
0.5773502691896259
 41
0.0
 42
6.283185307179586
  0
ELLIPSE
  5
4995
330
48E7
100
AcDbEntity
  8
0
100
AcDbEllipse
 10
66.43844637722165
 20
66.96980403924726
 30
0.0
 11
1.25
 21
-2.165063509461095
 31
0.0
210
0.0
220
0.0
230
1.0
 40
0.5773502691896259
 41
0.0
 42
6.283185307179586
  0
ELLIPSE
  5
4996
330
48E7
100
AcDbEntity
  8
0
100
AcDbEllipse
 10
66.43844637722165
 20
34.30994080213823
 30
0.0
 11
1.25
 21
-2.165063509461095
 31
0.0
210
0.0
220
0.0
230
1.0
 40
0.5773502691896259
 41
0.0
 42
6.283185307179586
  0
ELLIPSE
  5
4997
330
48E7
100
AcDbEntity
  8
0
100
AcDbEllipse
 10
66.43844637722165
 20
17.98000918358372
 30
0.0
 11
1.25
 21
-2.165063509461095
 31
0.0
210
0.0
220
0.0
230
1.0
 40
0.5773502691896259
 41
0.0
 42
6.283185307179586
  0
ELLIPSE
  5
4998
330
48E7
100
AcDbEntity
  8
0
100
AcDbEllipse
 10
52.29631075349069
 20
1.650077565029191
 30
0.0
 11
1.25
 21
-2.165063509461095
 31
0.0
210
0.0
220
0.0
230
1.0
 40
0.5773502691896259
 41
0.0
 42
6.283185307179586
  0
ELLIPSE
  5
4999
330
48E7
100
AcDbEntity
  8
0
100
AcDbEllipse
 10
52.29631075349069
 20
-31.00978567207983
 30
0.0
 11
1.25
 21
-2.165063509461095
 31
0.0
210
0.0
220
0.0
230
1.0
 40
0.5773502691896259
 41
0.0
 42
6.283185307179586
  0
LINE
  5
499A
330
48E7
100
AcDbEntity
  8
0
100
AcDbLine
 10
22.58424022873187
 20
-40.39165263654563
 30
0.0
 11
2.772353968978062
 21
-28.95325477135717
 31
0.0
  0
LINE
  5
499B
330
48E7
100
AcDbEntity
  8
0
100
AcDbLine
 10
66.46492847867593
 20
-65.72617980991151
 30
0.0
 11
45.25231247533316
 21
-53.47907025013548
 31
0.0
  0
LINE
  5
499C
330
48E7
100
AcDbEntity
  8
0
100
AcDbLine
 10
70.00046238459765
 20
-59.60245545324761
 30
0.0
 11
48.78784638114159
 21
-47.35534589297287
 31
0.0
  0
LINE
  5
499D
330
48E7
100
AcDbEntity
  8
0
100
AcDbLine
 10
26.11977413463461
 20
-34.26792827963494
 30
0.0
 11
6.307887874921829
 21
-22.82953041470599
 31
0.0
  0
SPLINE
  5
499E
330
48E7
100
AcDbEntity
  8
0
100
AcDbSpline
210
0.0
220
0.0
230
1.0
 70
     8
 71
     3
 72
    10
 73
     6
 74
     0
 42
0.000000001
 43
0.0000000001
 40
-0.7515441116637284
 40
-0.7515441116637284
 40
-0.7515441116637284
 40
-0.7515441116637284
 40
-0.652437700510389
 40
-0.652437700510389
 40
0.0
 40
0.0
 40
0.0
 40
0.0
 10
38.80992585748399
 20
-55.70560339470675
 30
0.0
 10
39.0782560684462
 20
-55.59430485175116
 30
0.0
 10
39.34914526529566
 20
-55.48514695119338
 30
0.0
 10
41.42129365460344
 20
-54.67234054966557
 30
0.0
 10
43.31745953047006
 20
-54.05238394620193
 30
0.0
 10
45.25231247533109
 20
-53.47907025013668
 30
0.0
  0
SPLINE
  5
499F
330
48E7
100
AcDbEntity
  8
0
100
AcDbSpline
210
0.0
220
0.0
230
1.0
 70
     8
 71
     3
 72
    10
 73
     6
 74
     0
 42
0.000000001
 43
0.0000000001
 40
-10.91554388197349
 40
-10.91554388197349
 40
-10.91554388197349
 40
-10.91554388197349
 40
-10.36700890998094
 40
-10.36700890998094
 40
-10.16397905600733
 40
-10.16397905600733
 40
-10.16397905600733
 40
-10.16397905600733
 10
48.78784638114161
 20
-47.35534589281005
 30
0.0
 10
48.39191996314525
 20
-45.70555779916843
 30
0.0
 10
48.03881277049285
 20
-44.06404604681205
 30
0.0
 10
47.66285270632045
 20
-41.84792868757599
 30
0.0
 10
47.57227948230028
 20
-41.25287229255328
 30
0.0
 10
47.49488733788084
 20
-40.66280884886843
 30
0.0
  0
SPLINE
  5
49A0
330
48E7
100
AcDbEntity
  8
0
100
AcDbSpline
210
0.0
220
0.0
230
1.0
 70
     8
 71
     3
 72
    10
 73
     6
 74
     0
 42
0.000000001
 43
0.0000000001
 40
10.08376224377752
 40
10.08376224377752
 40
10.08376224377752
 40
10.08376224377752
 40
10.36700890998094
 40
10.36700890998094
 40
10.91554388197349
 40
10.91554388197349
 40
10.91554388197349
 40
10.91554388197349
 10
44.60975982219119
 20
-39.88714441008534
 30
0.0
 10
44.68864030726693
 20
-40.76763643720191
 30
0.0
 10
44.79147482257862
 20
-41.65665306663369
 30
0.0
 10
45.15209446487588
 20
-44.27381348256417
 30
0.0
 10
45.46399219165431
 20
-46.00583697608477
 30
0.0
 10
45.82186994650176
 20
-47.729683063668
 30
0.0
  0
ELLIPSE
  5
49A1
330
48E7
100
AcDbEntity
  8
0
100
AcDbEllipse
 10
46.87865807193792
 20
-48.45761627706249
 30
0.0
 11
2.625453921710118
 21
0.6300727775241212
 31
0.0
210
0.0
220
0.0
230
1.0
 40
0.3728116893598698
 41
0.6715587647552362
 42
1.894079569986983
  0
SPLINE
  5
49A2
330
48E7
100
AcDbEntity
  8
0
100
AcDbSpline
210
0.0
220
0.0
230
1.0
 70
     8
 71
     3
 72
    14
 73
    10
 74
     0
 42
0.000000001
 43
0.0000000001
 40
-0.3677878167504995
 40
-0.3677878167504995
 40
-0.3677878167504995
 40
-0.3677878167504995
 40
-0.2954799220921495
 40
-0.2954799220921495
 40
-0.1797872906387893
 40
-0.1797872906387893
 40
-0.0707067860667617
 40
-0.0707067860667617
 40
0.0
 40
0.0
 40
0.0
 40
0.0
 10
45.82186994656317
 20
-47.72968306396375
 30
0.0
 10
45.86904540177578
 20
-47.95692050126543
 30
0.0
 10
45.88337962627149
 20
-48.19803470449669
 30
0.0
 10
45.82709276803015
 20
-48.83324749858908
 30
0.0
 10
45.69806451003596
 20
-49.231967914471
 30
0.0
 10
45.28981218690963
 20
-49.91387734422393
 30
0.0
 10
45.02107401044982
 20
-50.20044166069649
 30
0.0
 10
44.52029315003445
 20
-50.54717257581774
 30
0.0
 10
44.30901099500687
 20
-50.65213834796261
 30
0.0
 10
44.09350975756615
 20
-50.72329072526624
 30
0.0
  0
ELLIPSE
  5
49A3
330
48E7
100
AcDbEntity
  8
0
100
AcDbEllipse
 10
45.25231247533108
 20
-51.27452948163182
 30
0.0
 11
0.7670679290808633
 21
-2.58874618148933
 31
0.0
210
0.0
220
0.0
230
1.0
 40
0.372811689377275
 41
4.389105737216899
 42
5.6116265424762
  0
SPLINE
  5
49A4
330
48E7
100
AcDbEntity
  8
0
100
AcDbSpline
210
0.0
220
0.0
230
1.0
 70
     8
 71
     3
 72
    14
 73
    10
 74
     0
 42
0.000000001
 43
0.0000000001
 40
0.0
 40
0.0
 40
0.0
 40
0.0
 40
0.0707067860667617
 40
0.0707067860667617
 40
0.1797872906387893
 40
0.1797872906387893
 40
0.2954799220921495
 40
0.2954799220921495
 40
0.3677878167504995
 40
0.3677878167504995
 40
0.3677878167504995
 40
0.3677878167504995
 10
45.25231247535907
 20
-53.47907025012052
 30
0.0
 10
45.64824112580864
 20
-53.30941130490159
 30
0.0
 10
46.0422537491712
 20
-53.07360415793093
 30
0.0
 10
46.99136588002869
 20
-52.32140733434647
 30
0.0
 10
47.51624600766011
 20
-51.71937655289465
 30
0.0
 10
48.3492283954346
 20
-50.31984702414823
 30
0.0
 10
48.63886849792137
 20
-49.5173231214386
 30
0.0
 10
48.83129471042003
 20
-48.2630330947844
 30
0.0
 10
48.84003741222269
 20
-47.79274493089538
 30
0.0
 10
48.78784638120952
 20
-47.35534589299705
 30
0.0
  0
SPLINE
  5
49A5
330
48E7
100
AcDbEntity
  8
0
100
AcDbSpline
210
0.0
220
0.0
230
1.0
 70
     8
 71
     3
 72
    10
 73
     6
 74
     0
 42
0.000000001
 43
0.0000000001
 40
0.0
 40
0.0
 40
0.0
 40
0.0
 40
0.652437700510389
 40
0.652437700510389
 40
0.8317597362995574
 40
0.8317597362995574
 40
0.8317597362995574
 40
0.8317597362995574
 10
44.09350975756616
 20
-50.72329072526622
 30
0.0
 10
42.10500003120827
 20
-51.37984006110729
 30
0.0
 10
40.13682273137297
 20
-52.09935490803243
 30
0.0
 10
37.71888093440274
 20
-53.13046025812909
 30
0.0
 10
37.2034330070672
 20
-53.35932921987804
 30
0.0
 10
36.69561699083459
 20
-53.59484189235601
 30
0.0
  0
ELLIPSE
  5
49A6
330
48E7
100
AcDbEntity
  8
0
100
AcDbEllipse
 10
29.65392351866253
 20
-40.39085328246851
 30
0.0
 11
-2.942583201759323
 21
-5.096703610945145
 31
0.0
210
0.0
220
0.0
230
1.0
 40
0.5773502691896251
 41
1.07107399073654
 42
2.070518662853451
  0
SPLINE
  5
49A7
330
48E7
100
AcDbEntity
  8
0
100
AcDbSpline
210
0.0
220
0.0
230
1.0
 70
     8
 71
     3
 72
    18
 73
    14
 74
     0
 42
0.000000001
 43
0.0000000001
 40
0.2856758273389859
 40
0.2856758273389859
 40
0.2856758273389859
 40
0.2856758273389859
 40
0.4756711119122654
 40
0.4756711119122654
 40
0.6755600463356482
 40
0.6755600463356482
 40
0.8754489807590308
 40
0.8754489807590308
 40
1.075337915182413
 40
1.075337915182413
 40
1.275226849605796
 40
1.275226849605796
 40
1.285120499455899
 40
1.285120499455899
 40
1.285120499455899
 40
1.285120499455899
 10
25.81010431840108
 20
-35.5158678322257
 30
0.0
 10
25.75811787486721
 20
-35.75026361303036
 30
0.0
 10
25.68362174307399
 20
-36.01240463296006
 30
0.0
 10
25.48368114885557
 20
-36.57602927424296
 30
0.0
 10
25.35585038780297
 20
-36.87883088272216
 30
0.0
 10
25.05782484939612
 20
-37.48033724459025
 30
0.0
 10
24.88766856331057
 20
-37.77903719019819
 30
0.0
 10
24.52072972185083
 20
-38.34441399387636
 30
0.0
 10
24.32393632394377
 20
-38.61105916145388
 30
0.0
 10
23.92635275851951
 20
-39.08870555068131
 30
0.0
 10
23.72551384635089
 20
-39.29961532280711
 30
0.0
 10
23.52862197553829
 20
-39.48251668219153
 30
0.0
 10
23.51936959306877
 20
-39.49105365640388
 30
0.0
 10
23.51015267554203
 20
-39.49950093260909
 30
0.0
  0
ENDBLK
  5
48E9
330
48E7
100
AcDbEntity
  8
0
100
AcDbBlockEnd
  0
ENDSEC
  0
SECTION
  2
ENTITIES
  0
INSERT
  5
49A8
330
1F
100
AcDbEntity
  8
0
100
AcDbBlockReference
  2
E20_3-Front
 10
0.0
 20
0.0
 30
0.0
  0
INSERT
  5
49A9
330
1F
100
AcDbEntity
  8
0
100
AcDbBlockReference
  2
E20_3-Left
 10
98.50000000000001
 20
0.0
 30
0.0
  0
INSERT
  5
49AA
330
1F
100
AcDbEntity
  8
0
100
AcDbBlockReference
  2
E20_3-Right
 10
-98.50000000000003
 20
0.0
 30
0.0
  0
INSERT
  5
49AB
330
1F
100
AcDbEntity
  8
0
100
AcDbBlockReference
  2
E20_3-Top
 10
0.0
 20
-51.0
 30
0.0
  0
INSERT
  5
49AC
330
1F
100
AcDbEntity
  8
0
100
AcDbBlockReference
  2
E20_3-Bottom
 10
0.0
 20
221.0
 30
0.0
  0
INSERT
  5
49AD
330
1F
100
AcDbEntity
  8
0
100
AcDbBlockReference
  2
E20_3-ISO
 10
168.533162391782
 20
-160.8358745379528
 30
0.0
  0
MTEXT
  5
49AE
330
1F
100
AcDbEntity
  8
0
100
AcDbMText
 10
0.0
 20
-215.0
 30
0.0
 40
17.0
 41
0.0
 71
     5
 72
     5
  1
E20/3
 73
     1
 44
1.0
1001
ACAD
1000
MTEXTBEGIN
1070
    73
1070
     1
1070
    44
1040
1.0
1070
    74
1070
     0
1000
MTEXTEND
  0
ENDSEC
  0
SECTION
  2
OBJECTS
  0
DICTIONARY
  5
C
330
0
100
AcDbDictionary
281
     1
  3
ACAD_CIP_PREVIOUS_PRODUCT_INFO
350
216
  3
ACAD_COLOR
350
6B
  3
ACAD_DETAILVIEWSTYLE
350
21B
  3
ACAD_GROUP
350
D
  3
ACAD_LAYOUT
350
1A
  3
ACAD_MATERIAL
350
6A
  3
ACAD_MLEADERSTYLE
350
12D
  3
ACAD_MLINESTYLE
350
17
  3
ACAD_PLOTSETTINGS
350
19
  3
ACAD_PLOTSTYLENAME
350
E
  3
ACAD_SCALELIST
350
10C
  3
ACAD_SECTIONVIEWSTYLE
350
219
  3
ACAD_TABLESTYLE
350
7E
  3
ACAD_VISUALSTYLE
350
EF
  3
ACDB_RECOMPOSE_DATA
350
4AAF
  3
AcDbVariableDictionary
350
5E
  3
DWGPROPS
350
4AB0
  0
DICTIONARY
  5
49FF
330
8
100
AcDbDictionary
280
     1
281
     1
  0
DICTIONARY
  5
1FF
330
2
100
AcDbDictionary
280
     1
281
     1
  3
ACAD_LAYERSTATES
360
200
  0
DICTIONARY
  5
13C
330
10
100
AcDbDictionary
280
     1
281
     1
  0
DICTIONARY
  5
1CE
330
1F
100
AcDbDictionary
280
     1
281
     1
  3
ACAD_LAYOUTSELFREF
360
4A07
  0
DICTIONARY
  5
49B2
330
D2
100
AcDbDictionary
280
     1
281
     1
  3
ACAD_LAYOUTSELFREF
360
4A10
  0
DICTIONARY
  5
49B4
330
D6
100
AcDbDictionary
280
     1
281
     1
  3
ACAD_LAYOUTSELFREF
360
4A13
  0
XRECORD
  5
216
102
{ACAD_REACTORS
330
C
102
}
330
C
100
AcDbXrecord
280
     1
300
ACD
300
2021
300

  0
DICTIONARY
  5
6B
102
{ACAD_REACTORS
330
C
102
}
330
C
100
AcDbDictionary
281
     1
  0
DICTIONARY
  5
21B
102
{ACAD_REACTORS
330
C
102
}
330
C
100
AcDbDictionary
281
     1
  3
Metric50
350
21C
  0
DICTIONARY
  5
D
102
{ACAD_REACTORS
330
C
102
}
330
C
100
AcDbDictionary
281
     1
  0
DICTIONARY
  5
1A
102
{ACAD_REACTORS
330
C
102
}
330
C
100
AcDbDictionary
281
     1
  3
Layout1
350
D3
  3
Layout2
350
D7
  3
Model
350
22
  0
DICTIONARY
  5
6A
102
{ACAD_REACTORS
330
C
102
}
330
C
100
AcDbDictionary
281
     1
  3
ByBlock
350
ED
  3
ByLayer
350
EC
  3
Global
350
EE
  0
DICTIONARY
  5
12D
102
{ACAD_REACTORS
330
C
102
}
330
C
100
AcDbDictionary
281
     1
  3
Standard
350
12E
  0
DICTIONARY
  5
17
102
{ACAD_REACTORS
330
C
102
}
330
C
100
AcDbDictionary
281
     1
  3
Standard
350
18
  0
DICTIONARY
  5
19
102
{ACAD_REACTORS
330
C
102
}
330
C
100
AcDbDictionary
281
     1
  0
ACDBDICTIONARYWDFLT
  5
E
102
{ACAD_REACTORS
330
C
102
}
330
C
100
AcDbDictionary
281
     1
  3
Normal
350
F
100
AcDbDictionaryWithDefault
340
F
  0
DICTIONARY
  5
10C
102
{ACAD_REACTORS
330
C
102
}
330
C
100
AcDbDictionary
281
     1
  3
A0
350
10D
  3
A1
350
1BE
  3
A2
350
1BF
  3
A3
350
1C0
  3
A4
350
1C1
  3
A5
350
1C2
  3
A6
350
1C3
  3
A7
350
1C4
  3
A8
350
1C5
  3
A9
350
1C6
  3
B0
350
1C7
  3
B1
350
1C8
  3
B2
350
1C9
  3
B3
350
1CA
  3
B4
350
1CB
  3
B5
350
1CC
  3
B6
350
1CD
  0
DICTIONARY
  5
219
102
{ACAD_REACTORS
330
C
102
}
330
C
100
AcDbDictionary
281
     1
  3
Metric50
350
21A
  0
DICTIONARY
  5
7E
102
{ACAD_REACTORS
330
C
102
}
330
C
100
AcDbDictionary
281
     1
  3
Standard
350
7F
  0
DICTIONARY
  5
EF
102
{ACAD_REACTORS
330
C
102
}
330
C
100
AcDbDictionary
281
     1
  3
2dWireframe
350
F5
  3
Basic
350
F4
  3
Brighten
350
FB
  3
ColorChange
350
FF
  3
Conceptual
350
F8
  3
Dim
350
FA
  3
EdgeColorOff
350
1E6
  3
Facepattern
350
FE
  3
Flat
350
F0
  3
FlatWithEdges
350
F1
  3
Gouraud
350
F2
  3
GouraudWithEdges
350
F3
  3
Hidden
350
F7
  3
JitterOff
350
1E4
  3
Linepattern
350
FD
  3
OverhangOff
350
1E5
  3
Realistic
350
F9
  3
Shaded
350
1F3
  3
Shaded with edges
350
1F2
  3
Shades of Gray
350
1EF
  3
Sketchy
350
1F0
  3
Thicken
350
FC
  3
Wireframe
350
F6
  3
X-Ray
350
1F1
  0
XRECORD
  5
4AAF
102
{ACAD_REACTORS
330
C
102
}
330
C
100
AcDbXrecord
280
     1
 90
        1
330
7F
  0
DICTIONARY
  5
5E
102
{ACAD_REACTORS
330
C
102
}
330
C
100
AcDbDictionary
281
     1
  3
CANNOSCALE
350
146
  3
CENTEREXE
350
259
  3
CENTERLTYPEFILE
350
25A
  3
CMLEADERSTYLE
350
145
  3
CTABLESTYLE
350
84
  3
CVIEWDETAILSTYLE
350
227
  3
CVIEWSECTIONSTYLE
350
228
  3
DIMASSOC
350
5F
  3
HIDETEXT
350
63
  3
INDEXCTL
350
4A5C
  3
LAYEREVAL
350
1AE
  3
LAYERNOTIFY
350
1AF
  3
LIGHTINGUNITS
350
4A5A
  3
MSLTSCALE
350
4A59
  3
PSOLHEIGHT
350
4AAC
  3
PSOLWIDTH
350
4AAB
  3
SORTENTS
350
4A5B
  3
XCLIPFRAME
350
4AAD
  0
XRECORD
  5
4AB0
102
{ACAD_REACTORS
330
C
102
}
330
C
100
AcDbXrecord
280
     1
  1
DWGPROPS COOKIE
  2

  3

  4

  6

  7

  8
tronnguyen
  9

300
=
301
=
302
=
303
=
304
=
305
=
306
=
307
=
308
=
309
=
 40
0.0036458333333333
 41
2460367.705740741
 42
2460367.712719908
  1

 90
        0
  0
DICTIONARY
  5
200
102
{ACAD_REACTORS
330
1FF
102
}
330
1FF
100
AcDbDictionary
281
     1
  0
XRECORD
  5
4A07
102
{ACAD_REACTORS
330
1CE
102
}
330
1CE
100
AcDbXrecord
280
     1
340
1F
  0
XRECORD
  5
4A10
102
{ACAD_REACTORS
330
49B2
102
}
330
49B2
100
AcDbXrecord
280
     1
340
D2
  0
XRECORD
  5
4A13
102
{ACAD_REACTORS
330
49B4
102
}
330
49B4
100
AcDbXrecord
280
     1
340
D6
  0
ACDBDETAILVIEWSTYLE
  5
21C
102
{ACAD_XDICTIONARY
360
4AEF
102
}
102
{ACAD_REACTORS
330
21B
102
}
330
21B
100
AcDbModelDocViewStyle
 70
     0
  3
Metric50
290
     0
100
AcDbDetailViewStyle
 70
     0
 71
     0
 90
        3
 71
     1
340
11
 40
5.0
340
0
 40
5.0
300

 40
0.0
280
     1
 71
     2
340
16
 90
       25
 71
     3
340
11
 40
5.0
 90
        0
 40
15.0
 90
        1
300
%<\AcVar ViewDetailId>% (%<\AcVar ViewScale \f "%sn">%)
 71
     4
340
16
 90
       25
340
16
 90
       25
280
     0
  0
LAYOUT
  5
D3
102
{ACAD_XDICTIONARY
360
4AB4
102
}
102
{ACAD_REACTORS
330
1A
102
}
330
1A
100
AcDbPlotSettings
  1

  2
C:\Documents and Settings\basas\Application Data\Autodesk\AutoCAD 2005\R16.1\enu\plotters\Default Windows System Printer.pc3
  4

  6

 40
0.0
 41
0.0
 42
0.0
 43
0.0
 44
0.0
 45
0.0
 46
0.0
 47
0.0
 48
0.0
 49
0.0
140
0.0
141
0.0
142
1.0
143
1.0
 70
   688
 72
     0
 73
     0
 74
     5
  7

 75
    16
147
1.0
148
0.0
149
0.0
100
AcDbLayout
  1
Layout1
 70
     1
 71
     1
 10
0.0
 20
0.0
 11
12.0
 21
9.0
 12
0.0
 22
0.0
 32
0.0
 14
0.0
 24
0.0
 34
0.0
 15
0.0
 25
0.0
 35
0.0
146
0.0
 13
0.0
 23
0.0
 33
0.0
 16
1.0
 26
0.0
 36
0.0
 17
0.0
 27
1.0
 37
0.0
 76
     0
330
D2
  0
LAYOUT
  5
D7
102
{ACAD_XDICTIONARY
360
4AB6
102
}
102
{ACAD_REACTORS
330
1A
102
}
330
1A
100
AcDbPlotSettings
  1

  2
C:\Documents and Settings\basas\Application Data\Autodesk\AutoCAD 2005\R16.1\enu\plotters\Default Windows System Printer.pc3
  4

  6

 40
0.0
 41
0.0
 42
0.0
 43
0.0
 44
0.0
 45
0.0
 46
0.0
 47
0.0
 48
0.0
 49
0.0
140
0.0
141
0.0
142
1.0
143
1.0
 70
   688
 72
     0
 73
     0
 74
     5
  7

 75
    16
147
1.0
148
0.0
149
0.0
100
AcDbLayout
  1
Layout2
 70
     1
 71
     2
 10
0.0
 20
0.0
 11
12.0
 21
9.0
 12
0.0
 22
0.0
 32
0.0
 14
0.0
 24
0.0
 34
0.0
 15
0.0
 25
0.0
 35
0.0
146
0.0
 13
0.0
 23
0.0
 33
0.0
 16
1.0
 26
0.0
 36
0.0
 17
0.0
 27
1.0
 37
0.0
 76
     0
330
D6
  0
LAYOUT
  5
22
102
{ACAD_XDICTIONARY
360
4AB1
102
}
102
{ACAD_REACTORS
330
1A
102
}
330
1A
100
AcDbPlotSettings
  1

  2
none_device
  4
ISO_A4_(210.00_x_297.00_MM)
  6

 40
7.5
 41
20.0
 42
7.5
 43
20.0
 44
210.0
 45
297.0
 46
11.54999923706054
 47
-13.65000009536743
 48
0.0
 49
0.0
140
0.0
141
0.0
142
1.0
143
8.704084754739808
 70
 11952
 72
     1
 73
     0
 74
     0
  7

 75
     0
147
0.1148885871608098
148
0.0
149
0.0
100
AcDbLayout
  1
Model
 70
     1
 71
     0
 10
0.0
 20
0.0
 11
12.0
 21
9.0
 12
0.0
 22
0.0
 32
0.0
 14
0.0
 24
0.0
 34
0.0
 15
0.0
 25
0.0
 35
0.0
146
0.0
 13
0.0
 23
0.0
 33
0.0
 16
1.0
 26
0.0
 36
0.0
 17
0.0
 27
1.0
 37
0.0
 76
     0
330
1F
331
EA
1001
ACAD_PSEXT
1000
None
1000
None
1000
Not applicable
1000
The layout will not be plotted unless a new plotter configuration name is selected.
1070
     0
  0
MATERIAL
  5
ED
102
{ACAD_XDICTIONARY
360
1F9
102
}
102
{ACAD_REACTORS
330
6A
102
}
330
6A
100
AcDbMaterial
  1
ByBlock
  0
MATERIAL
  5
EC
102
{ACAD_XDICTIONARY
360
1F7
102
}
102
{ACAD_REACTORS
330
6A
102
}
330
6A
100
AcDbMaterial
  1
ByLayer
  0
MATERIAL
  5
EE
102
{ACAD_XDICTIONARY
360
173
102
}
102
{ACAD_REACTORS
330
6A
102
}
330
6A
100
AcDbMaterial
  1
Global
 43
0.0007999999797903
 43
0.0
 43
0.0
 43
0.0
 43
0.0
 43
0.0007999999797903
 43
0.0
 43
0.0
 43
0.0
 43
0.0
 43
1.0
 43
0.0
 43
0.0
 43
0.0
 43
0.0
 43
1.0
 49
0.0007999999797903
 49
0.0
 49
0.0
 49
0.0
 49
0.0
 49
0.0007999999797903
 49
0.0
 49
0.0
 49
0.0
 49
0.0
 49
1.0
 49
0.0
 49
0.0
 49
0.0
 49
0.0
 49
1.0
142
0.0007999999797903
142
0.0
142
0.0
142
0.0
142
0.0
142
0.0007999999797903
142
0.0
142
0.0
142
0.0
142
0.0
142
1.0
142
0.0
142
0.0
142
0.0
142
0.0
142
1.0
144
0.0007999999797903
144
0.0
144
0.0
144
0.0
144
0.0
144
0.0007999999797903
144
0.0
144
0.0
144
0.0
144
0.0
144
1.0
144
0.0
144
0.0
144
0.0
144
0.0
144
1.0
1001
ACAD
1070
    -1
1070
     3
1070
     0
1000

1071
        0
1070
     0
  0
MLEADERSTYLE
  5
12E
102
{ACAD_XDICTIONARY
360
4ADB
102
}
102
{ACAD_REACTORS
330
12D
102
}
330
12D
100
AcDbMLeaderStyle
170
     2
171
     1
172
     0
 90
        2
 40
0.0
 41
0.0
173
     1
 91
-1056964608
340
14
 92
       -2
290
     1
 42
2.0
291
     1
 43
8.0
  3
Standard
 44
4.0
300

342
11
174
     1
178
     1
175
     1
176
     0
 93
-1056964608
 45
4.0
292
     0
297
     0
 46
4.0
 94
-1056964608
 47
1.0
 49
1.0
140
1.0
293
     1
141
0.0
294
     1
177
     0
142
1.0
295
     0
296
     0
143
3.75
1001
ACAD_MLEADERVER
1070
     2
  0
MLINESTYLE
  5
18
102
{ACAD_REACTORS
330
17
102
}
330
17
100
AcDbMlineStyle
  2
STANDARD
 70
     0
  3

 62
   256
 51
90.0
 52
90.0
 71
     2
 49
0.5
 62
   256
  6
BYLAYER
 49
-0.5
 62
   256
  6
BYLAYER
  0
ACDBPLACEHOLDER
  5
F
102
{ACAD_REACTORS
330
E
102
}
330
E
  0
SCALE
  5
10D
102
{ACAD_REACTORS
330
10C
102
}
330
10C
100
AcDbScale
 70
     0
300
1:1
140
1.0
141
1.0
290
     1
  0
SCALE
  5
1BE
102
{ACAD_REACTORS
330
10C
102
}
330
10C
100
AcDbScale
 70
     0
300
1:2
140
1.0
141
2.0
290
     0
  0
SCALE
  5
1BF
102
{ACAD_REACTORS
330
10C
102
}
330
10C
100
AcDbScale
 70
     0
300
1:4
140
1.0
141
4.0
290
     0
  0
SCALE
  5
1C0
102
{ACAD_REACTORS
330
10C
102
}
330
10C
100
AcDbScale
 70
     0
300
1:5
140
1.0
141
5.0
290
     0
  0
SCALE
  5
1C1
102
{ACAD_REACTORS
330
10C
102
}
330
10C
100
AcDbScale
 70
     0
300
1:8
140
1.0
141
8.0
290
     0
  0
SCALE
  5
1C2
102
{ACAD_REACTORS
330
10C
102
}
330
10C
100
AcDbScale
 70
     0
300
1:10
140
1.0
141
10.0
290
     0
  0
SCALE
  5
1C3
102
{ACAD_REACTORS
330
10C
102
}
330
10C
100
AcDbScale
 70
     0
300
1:16
140
1.0
141
16.0
290
     0
  0
SCALE
  5
1C4
102
{ACAD_REACTORS
330
10C
102
}
330
10C
100
AcDbScale
 70
     0
300
1:20
140
1.0
141
20.0
290
     0
  0
SCALE
  5
1C5
102
{ACAD_REACTORS
330
10C
102
}
330
10C
100
AcDbScale
 70
     0
300
1:30
140
1.0
141
30.0
290
     0
  0
SCALE
  5
1C6
102
{ACAD_REACTORS
330
10C
102
}
330
10C
100
AcDbScale
 70
     0
300
1:40
140
1.0
141
40.0
290
     0
  0
SCALE
  5
1C7
102
{ACAD_REACTORS
330
10C
102
}
330
10C
100
AcDbScale
 70
     0
300
1:50
140
1.0
141
50.0
290
     0
  0
SCALE
  5
1C8
102
{ACAD_REACTORS
330
10C
102
}
330
10C
100
AcDbScale
 70
     0
300
1:100
140
1.0
141
100.0
290
     0
  0
SCALE
  5
1C9
102
{ACAD_REACTORS
330
10C
102
}
330
10C
100
AcDbScale
 70
     0
300
2:1
140
2.0
141
1.0
290
     0
  0
SCALE
  5
1CA
102
{ACAD_REACTORS
330
10C
102
}
330
10C
100
AcDbScale
 70
     0
300
4:1
140
4.0
141
1.0
290
     0
  0
SCALE
  5
1CB
102
{ACAD_REACTORS
330
10C
102
}
330
10C
100
AcDbScale
 70
     0
300
8:1
140
8.0
141
1.0
290
     0
  0
SCALE
  5
1CC
102
{ACAD_REACTORS
330
10C
102
}
330
10C
100
AcDbScale
 70
     0
300
10:1
140
10.0
141
1.0
290
     0
  0
SCALE
  5
1CD
102
{ACAD_REACTORS
330
10C
102
}
330
10C
100
AcDbScale
 70
     0
300
100:1
140
100.0
141
1.0
290
     0
  0
ACDBSECTIONVIEWSTYLE
  5
21A
102
{ACAD_XDICTIONARY
360
4AED
102
}
102
{ACAD_REACTORS
330
219
102
}
330
219
100
AcDbModelDocViewStyle
 70
     0
  3
Metric50
290
     0
100
AcDbSectionViewStyle
 70
     0
 71
     0
 90
      102
 71
     1
340
11
 40
5.0
340
0
340
0
 40
5.0
300
I, O, Q, S, X, Z
 40
10.0
 90
        0
 40
2.5
 90
        0
 71
     2
340
16
 90
       25
340
16
 90
       50
 40
5.0
 40
2.5
 40
5.0
 71
     3
340
11
 40
5.0
 90
        0
 40
15.0
 90
        1
300
%<\AcVar ViewSectionStartId>%-%<\AcVar ViewSectionEndId>% (%<\AcVar ViewScale \f "%sn">%)
 71
     4
300
ANSI31
 40
1.0
 90
        0
290
     0
290
     0
 90
        6
 40
0.0
 40
1.570796326794896
 40
0.2617993877991494
 40
1.308996938995747
 40
-0.2617993877991494
 40
1.832595714594046
  0
TABLESTYLE
  5
7F
102
{ACAD_XDICTIONARY
360
162
102
}
102
{ACAD_REACTORS
330
7E
102
}
330
7E
100
AcDbTableStyle
  3
Standard
 70
     0
 71
     0
 40
1.5
 41
1.5
280
     0
281
     0
  7
Standard
140
4.5
170
     2
 62
     0
 63
     7
283
     0
274
    -2
284
     1
 64
     0
275
    -2
285
     1
 65
     0
276
    -2
286
     1
 66
     0
277
    -2
287
     1
 67
     0
278
    -2
288
     1
 68
     0
279
    -2
289
     1
 69
     0
  7
Standard
140
6.0
170
     5
 62
     0
 63
     7
283
     0
274
    -2
284
     1
 64
     0
275
    -2
285
     1
 65
     0
276
    -2
286
     1
 66
     0
277
    -2
287
     1
 67
     0
278
    -2
288
     1
 68
     0
279
    -2
289
     1
 69
     0
  7
Standard
140
4.5
170
     5
 62
     0
 63
     7
283
     0
274
    -2
284
     1
 64
     0
275
    -2
285
     1
 65
     0
276
    -2
286
     1
 66
     0
277
    -2
287
     1
 67
     0
278
    -2
288
     1
 68
     0
279
    -2
289
     1
 69
     0
  0
VISUALSTYLE
  5
F5
102
{ACAD_XDICTIONARY
360
4AC5
102
}
102
{ACAD_REACTORS
330
EF
102
}
330
EF
100
AcDbVisualStyle
  2
2dWireframe
 70
     4
 71
     0
 72
     2
 73
     1
 90
        0
 40
-0.6
 41
-30.0
 62
     5
 63
     7
 74
     1
 91
        4
 64
     7
 65
   257
 75
     1
175
     1
 42
1.0
 92
        0
 66
   257
 43
1.0
 76
     1
 77
     6
 78
     2
 67
     7
 79
     5
170
     0
171
     0
290
     0
174
     0
 93
        1
 44
0.0
173
     0
291
     0
 45
0.0
1001
ACAD
1000
AcDbSavedByObjectVersion
1070
     0
  0
VISUALSTYLE
  5
F4
102
{ACAD_XDICTIONARY
360
4AC3
102
}
102
{ACAD_REACTORS
330
EF
102
}
330
EF
100
AcDbVisualStyle
  2
Basic
 70
     7
 71
     1
 72
     0
 73
     1
 90
        0
 40
-0.6
 41
-30.0
 62
     5
 63
     7
 74
     0
 91
        4
 64
     7
 65
   257
 75
     1
175
     1
 42
1.0
 92
        8
 66
     7
 43
1.0
 76
     1
 77
     6
 78
     2
 67
     7
 79
     5
170
     0
171
     0
290
     0
174
     0
 93
        1
 44
0.0
173
     0
291
     1
 45
0.0
1001
ACAD
1000
AcDbSavedByObjectVersion
1070
     0
  0
VISUALSTYLE
  5
FB
102
{ACAD_XDICTIONARY
360
4AD1
102
}
102
{ACAD_REACTORS
330
EF
102
}
330
EF
100
AcDbVisualStyle
  2
Brighten
 70
    12
 71
     2
 72
     2
 73
     1
 90
        0
 40
-0.6
 41
-30.0
 62
     5
 63
     7
 74
     1
 91
        4
 64
     7
 65
   257
 75
     1
175
     1
 42
1.0
 92
        8
 66
     7
 43
1.0
 76
     1
 77
     6
 78
     2
 67
     7
 79
     5
170
     0
171
     0
290
     0
174
     0
 93
        1
 44
50.0
173
     0
291
     1
 45
0.0
1001
ACAD
1000
AcDbSavedByObjectVersion
1070
     0
  0
VISUALSTYLE
  5
FF
102
{ACAD_XDICTIONARY
360
4AD9
102
}
102
{ACAD_REACTORS
330
EF
102
}
330
EF
100
AcDbVisualStyle
  2
ColorChange
 70
    16
 71
     2
 72
     2
 73
     3
 90
        0
 40
-0.6
 41
-30.0
 62
     5
 63
     8
 74
     1
 91
        4
 64
     7
 65
   257
 75
     1
175
     1
 42
1.0
 92
        8
 66
     8
 43
1.0
 76
     1
 77
     6
 78
     2
 67
     7
 79
     5
170
     0
171
     0
290
     0
174
     0
 93
        1
 44
0.0
173
     0
291
     1
 45
0.0
1001
ACAD
1000
AcDbSavedByObjectVersion
1070
     0
  0
VISUALSTYLE
  5
F8
102
{ACAD_XDICTIONARY
360
4ACB
102
}
102
{ACAD_REACTORS
330
EF
102
}
330
EF
100
AcDbVisualStyle
  2
Conceptual
 70
     9
 71
     3
 72
     2
 73
     1
 90
        0
 40
-0.6
 41
-30.0
 62
     5
 63
     7
 74
     2
 91
        2
 64
     7
 65
   257
 75
     1
175
     1
 42
40.0
 92
        8
 66
     7
 43
1.0
 76
     1
 77
     6
 78
     2
 67
     7
 79
     3
170
     0
171
     0
290
     0
174
     0
 93
        1
 44
0.0
173
     0
291
     0
 45
0.0
1001
ACAD
1000
AcDbSavedByObjectVersion
1070
     0
  0
VISUALSTYLE
  5
FA
102
{ACAD_XDICTIONARY
360
4ACF
102
}
102
{ACAD_REACTORS
330
EF
102
}
330
EF
100
AcDbVisualStyle
  2
Dim
 70
    11
 71
     2
 72
     2
 73
     1
 90
        0
 40
-0.6
 41
-30.0
 62
     5
 63
     7
 74
     1
 91
        4
 64
     7
 65
   257
 75
     1
175
     1
 42
1.0
 92
        8
 66
     7
 43
1.0
 76
     1
 77
     6
 78
     2
 67
     7
 79
     5
170
     0
171
     0
290
     0
174
     0
 93
        1
 44
-50.0
173
     0
291
     1
 45
0.0
1001
ACAD
1000
AcDbSavedByObjectVersion
1070
     0
  0
VISUALSTYLE
  5
1E6
102
{ACAD_XDICTIONARY
360
4AE1
102
}
102
{ACAD_REACTORS
330
EF
102
}
330
EF
100
AcDbVisualStyle
  2
EdgeColorOff
 70
    22
 71
     2
 72
     2
 73
     0
 90
        0
 40
-0.6
 41
-30.0
 62
     5
 63
     7
 74
     1
 91
        4
 64
     7
 65
   257
 75
     1
175
     1
 42
1.0
 92
        8
 66
     7
 43
1.0
 76
     1
 77
     6
 78
     2
 67
     7
 79
     5
170
     0
171
     0
290
     0
174
     0
 93
        1
 44
0.0
173
     0
291
     1
 45
0.0
1001
ACAD
1000
AcDbSavedByObjectVersion
1070
     0
  0
VISUALSTYLE
  5
FE
102
{ACAD_XDICTIONARY
360
4AD7
102
}
102
{ACAD_REACTORS
330
EF
102
}
330
EF
100
AcDbVisualStyle
  2
Facepattern
 70
    15
 71
     2
 72
     2
 73
     1
 90
        0
 40
-0.6
 41
-30.0
 62
     5
 63
     7
 74
     1
 91
        4
 64
     7
 65
   257
 75
     1
175
     1
 42
1.0
 92
        8
 66
     7
 43
1.0
 76
     1
 77
     6
 78
     2
 67
     7
 79
     5
170
     0
171
     0
290
     0
174
     0
 93
        1
 44
0.0
173
     0
291
     1
 45
0.0
1001
ACAD
1000
AcDbSavedByObjectVersion
1070
     0
  0
VISUALSTYLE
  5
F0
102
{ACAD_XDICTIONARY
360
4ABB
102
}
102
{ACAD_REACTORS
330
EF
102
}
330
EF
100
AcDbVisualStyle
  2
Flat
 70
     0
 71
     2
 72
     1
 73
     1
 90
        2
 40
-0.6
 41
30.0
 62
     5
 63
     7
 74
     0
 91
        0
 64
     7
 65
   257
 75
     1
175
     1
 42
1.0
 92
        8
 66
     7
 43
1.0
 76
     1
 77
     6
 78
     2
 67
     7
 79
     5
170
     0
171
     0
290
     0
174
     0
 93
       13
 44
0.0
173
     0
291
     1
 45
0.0
1001
ACAD
1000
AcDbSavedByObjectVersion
1070
     0
  0
VISUALSTYLE
  5
F1
102
{ACAD_XDICTIONARY
360
4ABD
102
}
102
{ACAD_REACTORS
330
EF
102
}
330
EF
100
AcDbVisualStyle
  2
FlatWithEdges
 70
     1
 71
     2
 72
     1
 73
     1
 90
        2
 40
-0.6
 41
30.0
 62
     5
 63
     7
 74
     1
 91
        0
 64
     7
 65
   257
 75
     1
175
     1
 42
1.0
 92
        0
 66
   257
 43
1.0
 76
     1
 77
     6
 78
     2
 67
     7
 79
     5
170
     0
171
     0
290
     0
174
     0
 93
       13
 44
0.0
173
     0
291
     1
 45
0.0
1001
ACAD
1000
AcDbSavedByObjectVersion
1070
     0
  0
VISUALSTYLE
  5
F2
102
{ACAD_XDICTIONARY
360
4ABF
102
}
102
{ACAD_REACTORS
330
EF
102
}
330
EF
100
AcDbVisualStyle
  2
Gouraud
 70
     2
 71
     2
 72
     2
 73
     1
 90
        2
 40
-0.6
 41
30.0
 62
     5
 63
     7
 74
     0
 91
        0
 64
     7
 65
   257
 75
     1
175
     1
 42
1.0
 92
        0
 66
     7
 43
1.0
 76
     1
 77
     6
 78
     2
 67
     7
 79
     5
170
     0
171
     0
290
     0
174
     0
 93
       13
 44
0.0
173
     0
291
     1
 45
0.0
1001
ACAD
1000
AcDbSavedByObjectVersion
1070
     0
  0
VISUALSTYLE
  5
F3
102
{ACAD_XDICTIONARY
360
4AC1
102
}
102
{ACAD_REACTORS
330
EF
102
}
330
EF
100
AcDbVisualStyle
  2
GouraudWithEdges
 70
     3
 71
     2
 72
     2
 73
     1
 90
        2
 40
-0.6
 41
30.0
 62
     5
 63
     7
 74
     1
 91
        0
 64
     7
 65
   257
 75
     1
175
     1
 42
1.0
 92
        0
 66
   257
 43
1.0
 76
     1
 77
     6
 78
     2
 67
     7
 79
     5
170
     0
171
     0
290
     0
174
     0
 93
       13
 44
0.0
173
     0
291
     1
 45
0.0
1001
ACAD
1000
AcDbSavedByObjectVersion
1070
     0
  0
VISUALSTYLE
  5
F7
102
{ACAD_XDICTIONARY
360
4AC9
102
}
102
{ACAD_REACTORS
330
EF
102
}
330
EF
100
AcDbVisualStyle
  2
Hidden
 70
     6
 71
     1
 72
     2
 73
     2
 90
        0
 40
-0.6
 41
-30.0
 62
     5
 63
     7
 74
     2
 91
        2
 64
     7
 65
   257
 75
     2
175
     1
 42
40.0
 92
        0
 66
   257
 43
1.0
 76
     1
 77
     6
 78
     2
 67
     7
 79
     3
170
     0
171
     0
290
     0
174
     0
 93
        1
 44
0.0
173
     0
291
     0
 45
0.0
1001
ACAD
1000
AcDbSavedByObjectVersion
1070
     0
  0
VISUALSTYLE
  5
1E4
102
{ACAD_XDICTIONARY
360
4ADD
102
}
102
{ACAD_REACTORS
330
EF
102
}
330
EF
100
AcDbVisualStyle
  2
JitterOff
 70
    20
 71
     2
 72
     2
 73
     0
 90
        0
 40
-0.6
 41
-30.0
 62
     5
 63
     7
 74
     1
 91
        4
 64
     7
 65
   257
 75
     1
175
     1
 42
1.0
 92
       10
 66
     7
 43
1.0
 76
     1
 77
     6
 78
     2
 67
     7
 79
     5
170
     0
171
     0
290
     0
174
     0
 93
        1
 44
0.0
173
     0
291
     1
 45
0.0
1001
ACAD
1000
AcDbSavedByObjectVersion
1070
     0
  0
VISUALSTYLE
  5
FD
102
{ACAD_XDICTIONARY
360
4AD5
102
}
102
{ACAD_REACTORS
330
EF
102
}
330
EF
100
AcDbVisualStyle
  2
Linepattern
 70
    14
 71
     2
 72
     2
 73
     1
 90
        0
 40
-0.6
 41
-30.0
 62
     5
 63
     7
 74
     1
 91
        4
 64
     7
 65
   257
 75
     7
175
     7
 42
1.0
 92
        8
 66
     7
 43
1.0
 76
     1
 77
     6
 78
     2
 67
     7
 79
     5
170
     0
171
     0
290
     0
174
     0
 93
        1
 44
0.0
173
     0
291
     1
 45
0.0
1001
ACAD
1000
AcDbSavedByObjectVersion
1070
     0
  0
VISUALSTYLE
  5
1E5
102
{ACAD_XDICTIONARY
360
4ADF
102
}
102
{ACAD_REACTORS
330
EF
102
}
330
EF
100
AcDbVisualStyle
  2
OverhangOff
 70
    21
 71
     2
 72
     2
 73
     0
 90
        0
 40
-0.6
 41
-30.0
 62
     5
 63
     7
 74
     1
 91
        4
 64
     7
 65
   257
 75
     1
175
     1
 42
1.0
 92
        9
 66
     7
 43
1.0
 76
     1
 77
     6
 78
     2
 67
     7
 79
     5
170
     0
171
     0
290
     0
174
     0
 93
        1
 44
0.0
173
     0
291
     1
 45
0.0
1001
ACAD
1000
AcDbSavedByObjectVersion
1070
     0
  0
VISUALSTYLE
  5
F9
102
{ACAD_XDICTIONARY
360
4ACD
102
}
102
{ACAD_REACTORS
330
EF
102
}
330
EF
100
AcDbVisualStyle
  2
Realistic
 70
     8
 71
     2
 72
     2
 73
     0
 90
        2
 40
-0.6
 41
30.0
 62
     5
 63
     7
 74
     0
 91
        0
 64
     7
 65
   257
 75
     1
175
     1
 42
1.0
 92
        8
 66
   257
 43
1.0
 76
     1
 77
     6
 78
     2
 67
     7
 79
     3
170
     0
171
     0
290
     0
174
     0
 93
       13
 44
0.0
173
     0
291
     0
 45
0.0
1001
ACAD
1000
AcDbSavedByObjectVersion
1070
     0
  0
VISUALSTYLE
  5
1F3
102
{ACAD_XDICTIONARY
360
4AEB
102
}
102
{ACAD_REACTORS
330
EF
102
}
330
EF
100
AcDbVisualStyle
  2
Shaded
 70
    27
 71
     2
 72
     2
 73
     1
 90
        2
 40
-0.6
 41
30.0
 62
     5
 63
     7
 74
     0
 91
        4
 64
     7
 65
   257
 75
     1
175
     1
 42
1.0
 92
        8
 66
   257
 43
1.0
 76
     1
 77
     6
 78
     2
 67
     8
 79
     3
170
     0
171
     0
290
     0
174
     0
 93
        5
 44
0.0
173
     0
291
     0
 45
0.0
1001
ACAD
1000
AcDbSavedByObjectVersion
1070
     0
  0
VISUALSTYLE
  5
1F2
102
{ACAD_XDICTIONARY
360
4AE9
102
}
102
{ACAD_REACTORS
330
EF
102
}
330
EF
100
AcDbVisualStyle
  2
Shaded with edges
 70
    26
 71
     2
 72
     2
 73
     1
 90
        2
 40
-0.6
 41
30.0
 62
     5
 63
     7
 74
     1
 91
        2
 64
     7
 65
   257
 75
     2
175
     1
 42
1.0
 92
        8
 66
   257
 43
1.0
 76
     1
 77
     6
 78
     2
 67
     7
 79
     3
170
     0
171
     0
290
     0
174
     0
 93
        5
 44
0.0
173
     0
291
     0
 45
0.0
1001
ACAD
1000
AcDbSavedByObjectVersion
1070
     0
  0
VISUALSTYLE
  5
1EF
102
{ACAD_XDICTIONARY
360
4AE3
102
}
102
{ACAD_REACTORS
330
EF
102
}
330
EF
100
AcDbVisualStyle
  2
Shades of Gray
 70
    23
 71
     2
 72
     2
 73
     3
 90
        0
 40
-0.6
 41
-30.0
 62
     5
 63
     7
 74
     2
 91
        2
 64
     7
 65
     7
 75
     1
175
     1
 42
40.0
 92
        8
 66
     7
 43
1.0
 76
     1
 77
     6
 78
     2
 67
     7
 79
     3
170
     0
171
     0
290
     0
174
     0
 93
        1
 44
0.0
173
     0
291
     0
 45
0.0
1001
ACAD
1000
AcDbSavedByObjectVersion
1070
     0
  0
VISUALSTYLE
  5
1F0
102
{ACAD_XDICTIONARY
360
4AE5
102
}
102
{ACAD_REACTORS
330
EF
102
}
330
EF
100
AcDbVisualStyle
  2
Sketchy
 70
    24
 71
     1
 72
     2
 73
     2
 90
        0
 40
-0.6
 41
-30.0
 62
     5
 63
     7
 74
     2
 91
        2
 64
     7
 65
     7
 75
     1
175
     1
 42
40.0
 92
       11
 66
     7
 43
1.0
 76
     1
 77
     6
 78
     2
 67
     7
 79
     6
170
     0
171
     0
290
     0
174
     0
 93
        1
 44
0.0
173
     0
291
     0
 45
0.0
1001
ACAD
1000
AcDbSavedByObjectVersion
1070
     0
  0
VISUALSTYLE
  5
FC
102
{ACAD_XDICTIONARY
360
4AD3
102
}
102
{ACAD_REACTORS
330
EF
102
}
330
EF
100
AcDbVisualStyle
  2
Thicken
 70
    13
 71
     2
 72
     2
 73
     1
 90
        0
 40
-0.6
 41
-30.0
 62
     5
 63
     7
 74
     1
 91
        4
 64
     7
 65
   257
 75
     1
175
     1
 42
1.0
 92
       12
 66
     7
 43
1.0
 76
     1
 77
     6
 78
     2
 67
     7
 79
     5
170
     0
171
     0
290
     0
174
     0
 93
        1
 44
0.0
173
     0
291
     1
 45
0.0
1001
ACAD
1000
AcDbSavedByObjectVersion
1070
     0
  0
VISUALSTYLE
  5
F6
102
{ACAD_XDICTIONARY
360
4AC7
102
}
102
{ACAD_REACTORS
330
EF
102
}
330
EF
100
AcDbVisualStyle
  2
Wireframe
 70
     5
 71
     0
 72
     2
 73
     0
 90
        0
 40
-0.6
 41
-30.0
 62
     5
 63
     7
 74
     1
 91
        4
 64
     7
 65
   257
 75
     1
175
     1
 42
1.0
 92
        0
 66
   257
 43
1.0
 76
     1
 77
     6
 78
     2
 67
     7
 79
     3
170
     0
171
     0
290
     0
174
     0
 93
        1
 44
0.0
173
     0
291
     0
 45
0.0
1001
ACAD
1000
AcDbSavedByObjectVersion
1070
     0
  0
VISUALSTYLE
  5
1F1
102
{ACAD_XDICTIONARY
360
4AE7
102
}
102
{ACAD_REACTORS
330
EF
102
}
330
EF
100
AcDbVisualStyle
  2
X-Ray
 70
    25
 71
     2
 72
     2
 73
     1
 90
        1
 40
0.5
 41
-30.0
 62
     5
 63
     7
 74
     1
 91
        0
 64
     7
 65
   257
 75
     1
175
     1
 42
1.0
 92
        8
 66
     7
 43
1.0
 76
     1
 77
     6
 78
     2
 67
     7
 79
     3
170
     0
171
     0
290
     0
174
     0
 93
       13
 44
0.0
173
     0
291
     0
 45
0.0
1001
ACAD
1000
AcDbSavedByObjectVersion
1070
     0
  0
DICTIONARYVAR
  5
146
102
{ACAD_REACTORS
330
5E
102
}
330
5E
100
DictionaryVariables
280
     0
  1
1:1
  0
DICTIONARYVAR
  5
259
102
{ACAD_REACTORS
330
5E
102
}
330
5E
100
DictionaryVariables
280
     0
  1
3.500000
  0
DICTIONARYVAR
  5
25A
102
{ACAD_REACTORS
330
5E
102
}
330
5E
100
DictionaryVariables
280
     0
  1
acadiso.lin
  0
DICTIONARYVAR
  5
145
102
{ACAD_REACTORS
330
5E
102
}
330
5E
100
DictionaryVariables
280
     0
  1
STANDARD
  0
DICTIONARYVAR
  5
84
102
{ACAD_REACTORS
330
5E
102
}
330
5E
100
DictionaryVariables
280
     0
  1
STANDARD
  0
DICTIONARYVAR
  5
227
102
{ACAD_REACTORS
330
5E
102
}
330
5E
100
DictionaryVariables
280
     0
  1
Metric50
  0
DICTIONARYVAR
  5
228
102
{ACAD_REACTORS
330
5E
102
}
330
5E
100
DictionaryVariables
280
     0
  1
Metric50
  0
DICTIONARYVAR
  5
5F
102
{ACAD_REACTORS
330
5E
102
}
330
5E
100
DictionaryVariables
280
     0
  1
2
  0
DICTIONARYVAR
  5
63
102
{ACAD_REACTORS
330
5E
102
}
330
5E
100
DictionaryVariables
280
     0
  1
1
  0
DICTIONARYVAR
  5
4A5C
102
{ACAD_REACTORS
330
5E
102
}
330
5E
100
DictionaryVariables
280
     0
  1
0
  0
DICTIONARYVAR
  5
1AE
102
{ACAD_REACTORS
330
5E
102
}
330
5E
100
DictionaryVariables
280
     0
  1
0
  0
DICTIONARYVAR
  5
1AF
102
{ACAD_REACTORS
330
5E
102
}
330
5E
100
DictionaryVariables
280
     0
  1
0
  0
DICTIONARYVAR
  5
4A5A
102
{ACAD_REACTORS
330
5E
102
}
330
5E
100
DictionaryVariables
280
     0
  1
2
  0
DICTIONARYVAR
  5
4A59
102
{ACAD_REACTORS
330
5E
102
}
330
5E
100
DictionaryVariables
280
     0
  1
1
  0
DICTIONARYVAR
  5
4AAC
102
{ACAD_REACTORS
330
5E
102
}
330
5E
100
DictionaryVariables
280
     0
  1
80.000000
  0
DICTIONARYVAR
  5
4AAB
102
{ACAD_REACTORS
330
5E
102
}
330
5E
100
DictionaryVariables
280
     0
  1
5.000000
  0
DICTIONARYVAR
  5
4A5B
102
{ACAD_REACTORS
330
5E
102
}
330
5E
100
DictionaryVariables
280
     0
  1
127
  0
DICTIONARYVAR
  5
4AAD
102
{ACAD_REACTORS
330
5E
102
}
330
5E
100
DictionaryVariables
280
     0
  1
2
  0
DICTIONARY
  5
4AEF
330
21C
100
AcDbDictionary
280
     1
281
     1
  3
ACAD_XREC_ROUNDTRIP
360
4AF0
  0
DICTIONARY
  5
4AB4
330
D3
100
AcDbDictionary
280
     1
281
     1
  3
ACAD_XREC_ROUNDTRIP
360
4AB5
  0
DICTIONARY
  5
4AB6
330
D7
100
AcDbDictionary
280
     1
281
     1
  3
ACAD_XREC_ROUNDTRIP
360
4AB7
  0
DICTIONARY
  5
4AB1
330
22
100
AcDbDictionary
280
     1
281
     1
  3
ACAD_XREC_ROUNDTRIP
360
4AB2
  0
DICTIONARY
  5
1F9
330
ED
100
AcDbDictionary
280
     1
281
     1
  3
ACAD_XREC_ROUNDTRIP
360
4AB9
  3
FBXASSET
360
1FA
  0
DICTIONARY
  5
1F7
330
EC
100
AcDbDictionary
280
     1
281
     1
  3
ACAD_XREC_ROUNDTRIP
360
4AB8
  3
FBXASSET
360
1F8
  0
DICTIONARY
  5
173
330
EE
100
AcDbDictionary
280
     1
281
     1
  3
ACAD_XREC_ROUNDTRIP
360
4ABA
  3
BUMPTILE
360
175
  3
DIFFUSETILE
360
174
  3
FBXASSET
360
1FB
  3
OPACITYTILE
360
176
  3
REFLECTIONTILE
360
177
  0
DICTIONARY
  5
4ADB
330
12E
100
AcDbDictionary
280
     1
281
     1
  3
ACAD_XREC_ROUNDTRIP
360
4ADC
  0
DICTIONARY
  5
4AED
330
21A
100
AcDbDictionary
280
     1
281
     1
  3
ACAD_XREC_ROUNDTRIP
360
4AEE
  0
DICTIONARY
  5
162
330
7F
100
AcDbDictionary
280
     1
281
     1
  3
ACAD_ROUNDTRIP_2008_TABLESTYLE_CELLSTYLEMAP
360
4AAE
  3
ACAD_XREC_ROUNDTRIP
360
4AB3
  0
DICTIONARY
  5
4AC5
330
F5
100
AcDbDictionary
280
     1
281
     1
  3
ACAD_XREC_ROUNDTRIP
360
4AC6
  0
DICTIONARY
  5
4AC3
330
F4
100
AcDbDictionary
280
     1
281
     1
  3
ACAD_XREC_ROUNDTRIP
360
4AC4
  0
DICTIONARY
  5
4AD1
330
FB
100
AcDbDictionary
280
     1
281
     1
  3
ACAD_XREC_ROUNDTRIP
360
4AD2
  0
DICTIONARY
  5
4AD9
330
FF
100
AcDbDictionary
280
     1
281
     1
  3
ACAD_XREC_ROUNDTRIP
360
4ADA
  0
DICTIONARY
  5
4ACB
330
F8
100
AcDbDictionary
280
     1
281
     1
  3
ACAD_XREC_ROUNDTRIP
360
4ACC
  0
DICTIONARY
  5
4ACF
330
FA
100
AcDbDictionary
280
     1
281
     1
  3
ACAD_XREC_ROUNDTRIP
360
4AD0
  0
DICTIONARY
  5
4AE1
330
1E6
100
AcDbDictionary
280
     1
281
     1
  3
ACAD_XREC_ROUNDTRIP
360
4AE2
  0
DICTIONARY
  5
4AD7
330
FE
100
AcDbDictionary
280
     1
281
     1
  3
ACAD_XREC_ROUNDTRIP
360
4AD8
  0
DICTIONARY
  5
4ABB
330
F0
100
AcDbDictionary
280
     1
281
     1
  3
ACAD_XREC_ROUNDTRIP
360
4ABC
  0
DICTIONARY
  5
4ABD
330
F1
100
AcDbDictionary
280
     1
281
     1
  3
ACAD_XREC_ROUNDTRIP
360
4ABE
  0
DICTIONARY
  5
4ABF
330
F2
100
AcDbDictionary
280
     1
281
     1
  3
ACAD_XREC_ROUNDTRIP
360
4AC0
  0
DICTIONARY
  5
4AC1
330
F3
100
AcDbDictionary
280
     1
281
     1
  3
ACAD_XREC_ROUNDTRIP
360
4AC2
  0
DICTIONARY
  5
4AC9
330
F7
100
AcDbDictionary
280
     1
281
     1
  3
ACAD_XREC_ROUNDTRIP
360
4ACA
  0
DICTIONARY
  5
4ADD
330
1E4
100
AcDbDictionary
280
     1
281
     1
  3
ACAD_XREC_ROUNDTRIP
360
4ADE
  0
DICTIONARY
  5
4AD5
330
FD
100
AcDbDictionary
280
     1
281
     1
  3
ACAD_XREC_ROUNDTRIP
360
4AD6
  0
DICTIONARY
  5
4ADF
330
1E5
100
AcDbDictionary
280
     1
281
     1
  3
ACAD_XREC_ROUNDTRIP
360
4AE0
  0
DICTIONARY
  5
4ACD
330
F9
100
AcDbDictionary
280
     1
281
     1
  3
ACAD_XREC_ROUNDTRIP
360
4ACE
  0
DICTIONARY
  5
4AEB
330
1F3
100
AcDbDictionary
280
     1
281
     1
  3
ACAD_XREC_ROUNDTRIP
360
4AEC
  0
DICTIONARY
  5
4AE9
330
1F2
100
AcDbDictionary
280
     1
281
     1
  3
ACAD_XREC_ROUNDTRIP
360
4AEA
  0
DICTIONARY
  5
4AE3
330
1EF
100
AcDbDictionary
280
     1
281
     1
  3
ACAD_XREC_ROUNDTRIP
360
4AE4
  0
DICTIONARY
  5
4AE5
330
1F0
100
AcDbDictionary
280
     1
281
     1
  3
ACAD_XREC_ROUNDTRIP
360
4AE6
  0
DICTIONARY
  5
4AD3
330
FC
100
AcDbDictionary
280
     1
281
     1
  3
ACAD_XREC_ROUNDTRIP
360
4AD4
  0
DICTIONARY
  5
4AC7
330
F6
100
AcDbDictionary
280
     1
281
     1
  3
ACAD_XREC_ROUNDTRIP
360
4AC8
  0
DICTIONARY
  5
4AE7
330
1F1
100
AcDbDictionary
280
     1
281
     1
  3
ACAD_XREC_ROUNDTRIP
360
4AE8
  0
XRECORD
  5
4AF0
102
{ACAD_REACTORS
330
4AEF
102
}
330
4AEF
100
AcDbXrecord
280
     1
102
DISPLAYNAME
  1
Metric50
102
FLAGS
 90
        0
  0
XRECORD
  5
4AB5
102
{ACAD_REACTORS
330
4AB4
102
}
330
4AB4
100
AcDbXrecord
280
     1
102
SHADEPLOT
 70
     0
102
SHADEPLOTRESLEVEL
 70
     2
102
SHADEPLOTCUSTOMDPI
 70
   300
  0
XRECORD
  5
4AB7
102
{ACAD_REACTORS
330
4AB6
102
}
330
4AB6
100
AcDbXrecord
280
     1
102
SHADEPLOT
 70
     0
102
SHADEPLOTRESLEVEL
 70
     2
102
SHADEPLOTCUSTOMDPI
 70
   300
  0
XRECORD
  5
4AB2
102
{ACAD_REACTORS
330
4AB1
102
}
330
4AB1
100
AcDbXrecord
280
     1
102
SHADEPLOT
 70
     0
102
SHADEPLOTRESLEVEL
 70
     2
102
SHADEPLOTCUSTOMDPI
 70
   300
  0
XRECORD
  5
4AB9
102
{ACAD_REACTORS
330
1F9
102
}
330
1F9
100
AcDbXrecord
280
     1
102
MATERIAL
148
0.0
149
0.0
149
0.0
 93
        0
 94
       63
282
     0
 72
     1
 77
     1
171
     1
175
     1
179
     1
273
     0
  0
XRECORD
  5
1FA
102
{ACAD_REACTORS
330
1F9
102
}
330
1F9
100
AcDbXrecord
280
     1
 70
     1
 90
429727718
  1
D62C5603-E3A1-4AEA-B7FB-FE5D8D0755AF
310
504B03040A0000080000CC70623B3DEE336E79000000790000001B0000006175746F6465736B2D64657369676E2D7061636B6167652E786D6C3C3F786D6C2076657273696F6E3D22312E302220656E636F64696E673D227574662D3822203F3E3C666F726D6174733E3C666F726D61743E687474703A2F2F736368656D612E
310
6175746F6465736B2E636F6D2F64657369676E2D7061636B6167652F323030393C2F666F726D61743E3C2F666F726D6174733E504B0304140006080800CC70623BD486FD9CA0000000F4000000130000005B436F6E74656E745F54797065735D2E786D6C7D8EC10E82300C865F65E91D8A1E8C310C0EEA1BF002731658846E
310
D98AC1B77784ABF1D8FE5FBFBF75BBCE937A534CCEB38643598122B6FEE978D0B0485F9C41B54DDD7D022595594E1A469170414C76A4D9A4D207E29CF43ECE46F218070CC6BECC4078ACAA135ACF422C856C0E68EA1BF5669944DDD7BCDE7B1F8E415D77AECB980613C2E4AC91FC167A2B244592486606FC29C8FD7F045B9A
310
EF7053A7E60B504B0304140006080800CC70623B853B8169EB0000007C01000008000000636F72652E786D6C8D90416EC3201045AF62CDB6C206821CC7C244919D9CA01740401C94182C03558F5F9C3852BBEB6A467FFE9B197D7EFC9E1EC5975982F5AE035262288C535E5B377690E21535501C055FBC8FBF6C503839990E
310
5619041F179FE64D52DE45E362569DD7661365082642A11EB9E920A89B99642953CC8E702F67A9EE7234257977194EC9EAE275C4EABCCF5EAD5940D4AC6F0E35A568B8F43562CD7046CD199FD07E60174276A7BE677B5EADB0E0D14EEFFB6A31321A0D82627C4084204C3F096B71DD52F6819B16635EADF63F509AF53FA164
310
5DDCD1EDDD17164090FCC8732078B56691CB33A85CD7DCC40F504B0304140006080800CC70623B55019EA25F0000007C00000007000000636E782E786D6C4DCB3B0E80201045D1AD90E915ED2CF8AC45050C11660C8261F98AB1B07AC9C97D42D718D865D3E909258CFD00CCE24AC6E326A164D74DC0B4128928FF32603847
310
2BA13128B1252AC747C6BAB984FC68F0B87FE8960A5C09FE86CFB69FBA01504B0304140006080800CC70623BDBABAAF470010000D40300000C0000006662782F636F72652E786D6CC553D16E823014FD95A6AF4B694182CC941A83FA05FB810A9511A125A5257EFE2E82712ECEB8A7F100CD39F7F69E734AF9FADC366850B6
310
AF8DCE7018308C942E4C59EB2AC3DE1D498AD15A706B8CFB56869196ADCAF00863C12B6B7C374385D14E6907A836A59A41D9F7CA615434B0C8705F7CAA5606D23BA8E84F41278B93AC54100640439DE0BDB320004D43C63716C7C399D30917DCFBBA9CD9BA8469F5B156168B24CED3F7248AC8769F27244EB73B92EED8862C
310
B7F13E0C179B3C8F979C8ECD82BBBABDAA2BAC924E9558448CBD9330242CFA08E3154B5651FCC6D215639C8EE5774DBE2B5F6CF2B5768B68963BB5F5588420E442FC700B1139D4CB01F450C1E918227C2E09DF070D8140C84E1E9AAB8F1340832A9CB13130A5F1376A908D57309505ECF2A0DF179C4E9D30F5B239B87E3823
310
7A79C6F31DE1A8A5AEC08474B03C7837EAE4938639B44E5932B833D2C6B6B279CDC613877FA26EE21F4A2A4C63EC7F29A2F301D1F9F7A0E37D145F504B0304140006080800CC70623B9C113CC27E0000009D0000000B0000006662782F636E782E786D6C4DCCDF0A83201C86E15B91DFB94BFB330DD428C8FB886521330DA7
310
6397BF1A1DECE883878F57749FCDA1B7892F1BBC047A23808C7F84D9FA55424E0BE6803A256208E9EF06C84F9B91703228B1C690F78B66B34CD9A5439DF5CF0BFBF65E35BCA1B8D6A5C6F540381E886698B5741C695F9503EBA150A2F8958E3DC3EA0B504B0304140006080800CC70623B7DF2F77C2A010000120200003100
310
00006662782F41393633353835312D344632462D344230382D423046372D3739314545314133324237412F636F72652E786D6C8D51DB8EC22014FC15C2939B0D2DB4B45643319AE817EC0F6041255A68B86CFCFC856D4D76DF7CE190393373060EDB3DC707F856CE6B6B7A480A0C81328395DA5C7B18C3057510EC3873D686
310
3F34088C18550F330C39BB3A1BA7051AAC09CA84841A2BD5020AEF55806078A44B0FFD7053A328440C89E1EFC52486BBB8AA8214A99D789CF9E05200300FC927E4FB4D5B375D43103D5527440FB843077C5AA3F5861C8F645F5787F59E95B390B318B55CE45AA638FAA2957BD7248B390B7A7CC51F9C124149C82B8C378810
310
84AB2F42B7B8DD56F413775B8C5999E9FF4471926F8AA236A1AE96B8B3CC434E5839373893369E1FAF30EA395917409EB7F26AF8801C171837A4A6AC9C89E9F9C9B1A58BA30FD6A5EF5DDDCF894B9AD9B6A59C957943A9FCAE2FD5BC4DFE03504B0304140006080800CC70623BAD7543B64E01000033030000300000006662
310
782F41393633353835312D344632462D344230382D423046372D3739314545314133324237412F636E782E786D6CD593CD6EC32010845F0571AD6CE3D48AD20813A9873E410FBD12D82434182C7EAAE6EDBB2424CD25871E7B41D6EC30B3FA84F9E67BB2E40B4234DE8DB46F1925E094D7C6ED479AD3AE5951B2113C789FEE
310
6C943839C1488B4C05DF079FE72A69D8C96C13AAD6B8631503449F83828872B949AC57D26200B826A308D316B4064D6E46FCDA41C05550DC9E483A00797BFD207EFB092A45DE9514C1BBD22178396BD39D891265658C238DEA00936C654E5E433CB65A26D9F6EDB5EBC14EBF49A45CB856E66048291F6939A9A81BB5C89177
310
38143CA680F4AA299D66A042CEB3354A2684DC9D8D178FE0D9B8B41CAAD720F880EE7EF93C0C18769E099ECC04D5A102C8049A8A05632F4DDF376CF1DE0F6BB65C2F8627B65A33C6BB62177CEBBDAD973006829F89F22E814B54F4BC2BE347F8AA8F681390B50FA73F804400B5F542E796F19FF974E7F78DB802FE05E20750
310
4B0304140006080800CC70623BE75B7789680500003C100000340000006662782F41393633353835312D344632462D344230382D423046372D3739314545314133324237412F6F626A656374732E786D6CAD575B8F9B3818FD2B887D06C22499CB8AA1CA655245D5B455A356FB305264C061D8018C6C3393D95FBFC7600890
310
A4CD5EF210B0B1BFEBF98E3F7B1FF6596ABC522E1296DF9BAE3D320D9A872C4AF2F8DE2CE5CEBA358D0FBEC719939D65A691938CDE9B6ADAF4BD98B3B2D05311DD91329583D9D5FC0F438434A7A611A644887B5384CF34233629258BA878B12322891DEFF6B66BD70BFB62634E8AE781D082709A4B588AF91C528CDA28B73F
310
1C998EEF39EABBEFA97FBD6A7C7E9553F9D3D79FE442923C3C523610337627CB87ABE99D359D4CC6D6E4FACAB5E6ABF9D2726FC6A3C5F56271377BB88362213924694B38DD99FE47C48627A1E7D49F5A8BB5E1A74C0A599ED3B0F21F1E56366B89112D681E218F0915D0D6F17AD41FBA2A369DCF6335D62ABBD39779D5DDD1
310
11D4D8DE3CBB96B2E04FB8202E41051754A1AA8E8F76B4C6DFE810B580B1547F4B84911149794252234D024EF8BBE963A95AE27B3D310A9D5C215C7960FAEE415ED75694C6AFB17BCACA5D99A60A9AA65F217B0BFC53292ACB92BF283FAD0D3621576592CB5BED907C2FA8E9DF794E35E97BEA31BED21FEB401ABB94C44839
310
DCACBF0E1C5DA8DA5B2F4DFFD32AD86F543D9E565E7056502E157C00AD2671CD534549AB752FCA9CDA00677A313F04E51B22FF19E57B300579E3C97EB29F682D92935CEC18CF901B7B54FD8C51F362B56FC72FE0B3C1EAE335EDCCBF5AEC39ADB17DC238973F804BA5E6F6BFE7AF1FB32E523BE9F3BD571418E3631DCA4D48
310
5250CF639223210A9446CA30052EDF057BD35F8329C1ECD84552BF0DC8D18BE7BCE23BFE6BD960AB4A7DE79923A103BEBD80F911CBAA2C60DB19B01CF164A5583B772EE6D3FFA56666CBCDA74DC97724A48F9A58967497E489C4D979006FD7A05E227A1EBDD0F737C623387A9C844D3709995625106D157315F8B8392CD4E0
310
A0B9A720C4BE9829CEF37EA1E13111214D53925356365ADA634861B52519DD27A00AEB808EAF0628E6F435519D446F45CF2C9CF5214F0A15B2F6D06B79DA3EE3CBF7F56780D2F4E7EF73A0F5E5B02A38D07DC852C6B7C1FBB6664213E0C39E3EBA7FF4E1AD23EA2829407C85E586727488B751B2DB9502BC7B228A3FD68B6E
310
A65A22397E690AA8D158D7E404EC8CDA235CC3B7D1898680131CEC2CDF2638C65196279577750F15884AEE19F94199155B92B13297978469D4F8D358DF0AEF7631E28DC8F0D9F437D5D39A83B2231A1D52D543813A824EF8D44BCFF2FA6A31BD1E8DAD87F1CCB526B3879935BF59CDADD5C37479BB1CDD4CA7B3556B516589
310
EF352754B706114D9C885EC9131DE6EFEB43D99AFE2391C2F958179413D7CFEF6B1B6DB1E7600F00DE6E5C67454A339A4BA2E0FBA85ED26F045D454F463DBFCE484C2F90F2E5E3666003662ED8F755951A7D1BECD5B30B550B2785C8E7320B7292A4838DDA71BBC863ED7613CAF659337A3354231D4FF4A182A54904C2898C
310
98B28C4AD0CE056CCF332A80986E571EE9DBC305BB5FEB7E509220A58D25CF042D712A806AC0AD0C657FDEF80D2D9CEAA2EE4D1C76F60BFE74219A06527D6F82DF6412526107381E55E353090704D085B52408A8913C4ED159D79BDA71BB4BC506F4831350EB6F975CD22D69BF7AC49B91A2C0A9DDA3D5CA36AD20FC478E37
310
E61844E2352865EBCB61A275A65283CAAA9DD27703B4102F5AF51EF5F573B75CBB5AD38BC845F7A49F82A0966A49C2E3EA5EA0ECD326CD965F1DB402C6FA8B51A4658C5C5E2EC9E214602E55810345408596591009A82E7E7FFACA19EEA299B14A0081A705CB3296EBC14CDF658DCD336EA6D1136881AAEB87B81AB9EE53D5
310
F5EB8BC8362082DA24122F98680A4E7930C01A0079749CEA14382A0783E5EBA5A10F8C098456A03D6A4AEB6BB881E2513747552A5DB22C7EDAF83BD5528081A365F7FF06504B0304140006080000CC70623B000000000000000000000000350000006662782F41393633353835312D344632462D344230382D423046372D37
310
39314545314133324237412F76657274696365732E62696E504B0304140006080800CC70623BF270F1330600000004000000360000006662782F41393633353835312D344632462D344230382D423046372D3739314545314133324237412F747269616E676C65732E62696E636660600000504B0304140006080000CC7062
310
3B000000000000000000000000370000006662782F41393633353835312D344632462D344230382D423046372D3739314545314133324237412F617474726962757465732E62696E504B0304140006080800CC70623B08DA0BD19000000041010000360000006662782F41393633353835312D344632462D344230382D4230
310
46372D3739314545314133324237412F6469726563746F72792E786D6C858F410AC3201045AF22B36F53E9A60B35CBEEBAE80D244E44489C6234F4F835464A48035D0DF398FF9F8AF63D0E6CC63039F212F8F9020C7D47C6792B21C5FE7403D62A1188E2E60C98D7234A5830286103A55745067B9D86B8A3CF9C7F90C11DE6
310
07FB144396D7B6A82D282E9A152AD114D5EF2CB866EEE831B8EEA07A7BB5A8D7D61A2BAAEB7FD5F70921FF497D00504B0304140006080800CC70623BEDD1DC58FD000000A00100003B0000006662782F41393633353835312D344632462D344230382D423046372D3739314545314133324237412F7265736F75726365732F
310
636F72652E786D6C8D504B6E833010BD0A9A6D65B00922041947112427E8052C33A156828DFCA97AFC9A40A576D7CDCCE87D344F8F9FBFE667F689CE6B6B3A6039850C8DB2A336530731DC4903D95970676DF82583CCC8193B5861107C72362E3BA4AC096842428D1D7107A5F7182053CF7474E0D507CE32973124857FE48B
310
540F3961CEF244279DE03EB81420DB9EAC1384436FA353E879B1B182C7A8C75DA3C7F453DF353A1075D537A7BA6464B8F535A99AE14A9A2BBD90E350DD183B5CFABE3AF262350B1EF4FC9351399401471025A527C218A1E53BAB5A5AB765F5469B96525EACF23FA6B88CFF34456DC2A1DCE36E360F82A5202F42F062ED2BAD
310
579969AFDD8A6F504B010214000A0000080000CC70623B3DEE336E79000000790000001B00000000000000000000000000000000006175746F6465736B2D64657369676E2D7061636B6167652E786D6C504B01021400140006080800CC70623BD486FD9CA0000000F40000001300000000000000000000000000B20000005B
310
436F6E74656E745F54797065735D2E786D6C504B01021400140006080800CC70623B853B8169EB0000007C010000080000000000000000000000000083010000636F72652E786D6C504B01021400140006080800CC70623B55019EA25F0000007C000000070000000000000000000000000094020000636E782E786D6C504B
310
01021400140006080800CC70623BDBABAAF470010000D40300000C00000000000000000000000000180300006662782F636F72652E786D6C504B01021400140006080800CC70623B9C113CC27E0000009D0000000B00000000000000000000000000B20400006662782F636E782E786D6C504B01021400140006080800CC70
310
623B7DF2F77C2A010000120200003100000000000000000000000000590500006662782F41393633353835312D344632462D344230382D423046372D3739314545314133324237412F636F72652E786D6C504B01021400140006080800CC70623BAD7543B64E010000330300003000000000000000000000000000D2060000
310
6662782F41393633353835312D344632462D344230382D423046372D3739314545314133324237412F636E782E786D6C504B01021400140006080800CC70623BE75B7789680500003C10000034000000000000000000000000006E0800006662782F41393633353835312D344632462D344230382D423046372D3739314545
310
314133324237412F6F626A656374732E786D6C504B01021400140006080000CC70623B0000000000000000000000003500000000000000000000000000280E00006662782F41393633353835312D344632462D344230382D423046372D3739314545314133324237412F76657274696365732E62696E504B01021400140006
310
080800CC70623BF270F133060000000400000036000000000000000000000000007B0E00006662782F41393633353835312D344632462D344230382D423046372D3739314545314133324237412F747269616E676C65732E62696E504B01021400140006080000CC70623B0000000000000000000000003700000000000000
310
000000000000D50E00006662782F41393633353835312D344632462D344230382D423046372D3739314545314133324237412F617474726962757465732E62696E504B01021400140006080800CC70623B08DA0BD1900000004101000036000000000000000000000000002A0F00006662782F41393633353835312D344632
310
462D344230382D423046372D3739314545314133324237412F6469726563746F72792E786D6C504B01021400140006080800CC70623BEDD1DC58FD000000A00100003B000000000000000000000000000E1000006662782F41393633353835312D344632462D344230382D423046372D3739314545314133324237412F7265
310
736F75726365732F636F72652E786D6C504B0506000000000E000E0080040000641100000000
  0
XRECORD
  5
4AB8
102
{ACAD_REACTORS
330
1F7
102
}
330
1F7
100
AcDbXrecord
280
     1
102
MATERIAL
148
0.0
149
0.0
149
0.0
 93
        0
 94
       63
282
     0
 72
     1
 77
     1
171
     1
175
     1
179
     1
273
     0
  0
XRECORD
  5
1F8
102
{ACAD_REACTORS
330
1F7
102
}
330
1F7
100
AcDbXrecord
280
     1
 70
     1
 90
429727718
  1
30362254-06B7-45E0-A893-8CFA70E3D6BC
310
504B03040A0000080000CC70623B3DEE336E79000000790000001B0000006175746F6465736B2D64657369676E2D7061636B6167652E786D6C3C3F786D6C2076657273696F6E3D22312E302220656E636F64696E673D227574662D3822203F3E3C666F726D6174733E3C666F726D61743E687474703A2F2F736368656D612E
310
6175746F6465736B2E636F6D2F64657369676E2D7061636B6167652F323030393C2F666F726D61743E3C2F666F726D6174733E504B0304140006080800CC70623BD486FD9CA0000000F4000000130000005B436F6E74656E745F54797065735D2E786D6C7D8EC10E82300C865F65E91D8A1E8C310C0EEA1BF002731658846E
310
D98AC1B77784ABF1D8FE5FBFBF75BBCE937A534CCEB38643598122B6FEE978D0B0485F9C41B54DDD7D022595594E1A469170414C76A4D9A4D207E29CF43ECE46F218070CC6BECC4078ACAA135ACF422C856C0E68EA1BF5669944DDD7BCDE7B1F8E415D77AECB980613C2E4AC91FC167A2B244592486606FC29C8FD7F045B9A
310
EF7053A7E60B504B0304140006080800CC70623B1EC5D7A3EB0000007C01000008000000636F72652E786D6C8D90416EC3201045AF82665B6103C6756C6122AB4D4ED00B204C5C94182C03558F5F9C3852BBEB6A467FFE9B197D71FC9E6FE8CBACC17AD7032D0820E3B41FAD9B7A48F1820F808E52ACDEC75F36404ECDA687
310
4D0629A6D5A76597B477D1B89855E747B38B2A041301E95B6E7A08FAD3CCAA50296647B8168BD2573599823EBB0CA76447F43862C7BCCF5EAC59410E4DDD9C7973C2755553CCCFA4C603E3040F1565ED3B1FDE4E432BCA0D9622DAF9795FAF464533826484B498524CD807E51D79ED187F21878E10516EF63F505AC67F42C9
310
BA58B1FDDD071640D2FCC87D2045B96591CB3DA85CB7DCE40F504B0304140006080800CC70623B55019EA25F0000007C00000007000000636E782E786D6C4DCB3B0E80201045D1AD90E915ED2CF8AC45050C11660C8261F98AB1B07AC9C97D42D718D865D3E909258CFD00CCE24AC6E326A164D74DC0B4128928FF32603847
310
2BA13128B1252AC747C6BAB984FC68F0B87FE8960A5C09FE86CFB69FBA01504B0304140006080800CC70623B8C9102E971010000D40300000C0000006662782F636F72652E786D6CC5535B6E833010BC8AE5DF0A6C08340F1947A84D4ED00B38C6A128602363A31CBFCB234A53A551FA553EC09AD9F5CE8C31DB9E9B1AF5CA
310
7695D1198E428A91D2D214952E33ECDD315861B4E5CC1AE3BE9561A445A3323CC098B3D21ADFCE9034DA29ED00D5A6503328BA4E398C640D8B0C77F253352214DE4145770A5B214FA2546114020D759C75CE8200340D19DE981F0F6746269C33EFAB6266AB02A655C74A59CCF365BADC27CB5D902ED22848F6340DF238A141
310
BE88E2F57B92BFEDF23523433367AE6A2EEAA455C2A902F398D2751045018D3FA264435F3771F242571B4A1919CA6F9A7C5B3CD9E42BED16F12C776AEB308F40C848FC700B1139D4891EF410CEC810227CC6846F8386402064270EF5C5C709A05E49676C024C61FC95EA45ED154CA5211D1FF4FB8291A913A68E9B83EBBB33
310
E2A7673CDE118E5AE8124C0807CB8377834E366998436B950D7A7746DAD846D4CFD978E0F04FD455FC5D49D2D4C6FE9722321F10997F0F32DC47FE05504B0304140006080800CC70623BFFEA85907E0000009D0000000B0000006662782F636E782E786D6C4DCCD10A83201886E15B91FFDC95D95A811AB6F23E625948A6C3
310
E9D8E5AF46073BFAE0E1E365ED67B3E8ADC3CB78C7815C7240DA3DFC64DCC221C519D7805AC182F7F1EF06C88D9BE6703008B6049F9E274D7A1E938DBB5AE3D6131B2589BA0D3D965551E0B2EA732C9B9A624AAEB41E3A557677029960D9AFB4EF11165F504B0304140006080800CC70623B4FEEA4082C0100001202000031
310
0000006662782F39464131463745442D413632322D343644302D413938332D3331353338454246344243312F636F72652E786D6C8D515B6EC32010BC0AE2AB55850DD871ED0813254D72825EC00192A2C460F1A872FC42ED48ED5F7E00CDCECCCEB26C731F6FE05B39AFADE921293004CA082BB5B9F43086336A21D870E6AC
310
0D7F68109861543DCC30E4ECE26C9C164858139409093556AA051CBC570102714B8F1E7AF1A5C6A11862480C7F2DA6415C878B2A4891CA89C7990F2E050073937C42DE1DB7E4F87ED8A36D4329AA9B3D46DBAEAD504556557BD81DEBDD0761E52CE42C462D17B996298E3E6BE59E35C962CE821E1FF18553435012728A7187
310
0841987E927A8D9B35ADDF70BBC6989599FE4F1427F9A4286A132ABAC49D651EF234CD5CE04CDA78BA3DC2A8FB645D00B9DF8B57E215725C60BCA2A463E54C4CE327C7A65E1C7DB02E7DEFCBF594B864C5CA6CDBD49C957943E9FA5D5FBAF336F90F504B0304140006080800CC70623BAD7543B64E01000033030000300000
310
006662782F39464131463745442D413632322D343644302D413938332D3331353338454246344243312F636E782E786D6CD593CD6EC32010845F0571AD6CE3D48AD20813A9873E410FBD12D82434182C7EAAE6EDBB2424CD25871E7B41D6EC30B3FA84F9E67BB2E40B4234DE8DB46F1925E094D7C6ED479AD3AE5951B2113C
310
789FEE6C943839C1488B4C05DF079FE72A69D8C96C13AAD6B8631503449F83828872B949AC57D26200B826A308D316B4064D6E46FCDA41C05550DC9E483A00797BFD207EFB092A45DE9514C1BBD22178396BD39D891265658C238DEA00936C654E5E433CB65A26D9F6EDB5EBC14EBF49A45CB856E66048291F6939A9A81BB5
310
C8917738143CA680F4AA299D66A042CEB3354A2684DC9D8D178FE0D9B8B41CAAD720F880EE7EF93C0C18769E099ECC04D5A102C8049A8A05632F4DDF376CF1DE0F6BB65C2F8627B65A33C6BB62177CEBBDAD973006829F89F22E814B54F4BC2BE347F8AA8F681390B50FA73F804400B5F542E796F19FF974E7F78DB802FE05
310
E207504B0304140006080800CC70623B16AB87BA640500003C100000340000006662782F39464131463745442D413632322D343644302D413938332D3331353338454246344243312F6F626A656374732E786D6CAD575B6FA33818FD2B887DE6924B3BED8A326A92B68A663B534DD4D13E548A0C38942D60649B369D5FBFC7
310
600890A493BDE42160637FD7F31D7FF63E6FB3D478A55C242CBF3247B66B1A340F5994E4F19559CA8D75611A9F7D8F33263BCB4C232719BD32D5B4E97B316765A1A722BA21652A07B3B7B33F0D11D29C9A46981221AE4C113ED38CD8A4942CA2E2C58E882476BCD9DA23BB5ED8171B73523C0F841684D35CC252CCE79062D4
310
468DFA43D7747CCF51DF7D4FFDEB5593E3AB9CCA9FBEFE241792E4E19EB28198C968BAB8199F5D5A67D3E9C49A9E8F47D6EC76B6B0469F26EEFC7C3EBFBCBEB98462213924694B38DD98FE1D62C393D073EA4FADC5DAF04326852CCF6958F90F0F2B9BB5C48816348F90C7840A68EB78EDF68723159BCEE7891A6B95DDE9D3
310
BCEAEEE8086A6C6F9E5D4B59F0175C10A7A0820BAA5055C7473B5AE3CFDD452D602CD5DF12616444529E90D448938013FE6EFA58AA96F85E4F8C42275708571E98FE6827AF6B2B4AE3D7D83D64E5A64C53054DD3AF90BD06FEA9149565C94FCA0F6B834DC85599E4F2423B24DF0B6AFA979E534DFA9E7A4CC6FA631D486393
310
921829879BF5D781A373557BCB85E97FB90DB62B558F8795179C15944B051F40AB495CF35451D26A4727654E6D8033BD98EF82F21D91FF8AF2DD9982BCF1643BDD4EB516C9492E368C67C88DED563FC36D5EACF66DFF057C3658BDBFA69DF9578B3DA735B64F18C7F20770A9D45CFCF7FCF563D6456A277DBEF78A02637CA2
310
43B90A490AEAB94F72244481D24819A6C0E59B606BFA4B3025981DBB48EAB701D97BF19C577CC77F2D1B6C55A9EF3C732474C0B727303F625995056C3B02963D9EAC146BE78EC5FCEC7FA999EBC5EACBAAE41B12D27B4D2C0BBA49F244E2ECDC81B76B502F113D8F5EE8FB1BE3111CDD4FC2AA9B844CAB1288B68AB90A7CDC
310
1C166AB0D3DC5310625FCC14E779BFD0709F8890A629C9292B1B2DED31A4B0DA928CEE135085754027E3018A397D4D5427D15BD1330B677DC8934285AC3DF45A9EB68FF8F2B8FC0A509AFEECFD0FF2DE25CC6047F7214B195F07EFEB9A094D800F7BFAE8FED187B78EA8A3A400F115961BCAD1215E47C966530AF0EE8128FE
310
58CEBB996A8964FFA529A046635D9353B0336A8F700DDF46271A024E70B0B37C9DE01847591E54DED53D54202AB947E4076556AC49C6CA5C9E1226B7F1A7B1BE15DEED62C41B91E1B3E9AFAAA735036547343A925075041DF0A9979E893B391F8FCFA6967B3EFB644DCF6E5CEBFAE272625DCC6FAF3FB93793C5F90CE1EF57
310
407342756B10D1C489E8953CD1617E5CEECAD6F4EF8914CE5D5D504E5C3F1F9736DA62CFC11E00BCDDB8CC8A9466349744C1F75EBDA4DF09BA8A9E8C7A7E9991989E20E5DBDD6A6003664ED8F7A04A8DBE0DF6EAD9B9AA858342E47399053949D2C146EDB85DE4B176BB0965FBAC19BD19AA918E27FA50C1D22402E144464C
310
59462568E704B6E71915404CB72B8FF4EDE184DDAF753F284990D2C6926782963815403548A70C657FDEF80D2D9CEAA2AE4C1C76F60BFE74219A06527D6582DF6412526107381E55E353090704D085B52408D0933C4ED159D79BDA71BB4BC506F4831350EB6F979CD22D69BF7AC49B91A2C0A9DDA3D5CA36AD20FC478E37E6
310
1844E2352865EBCB6EA275A652E3836BE04EFB400BF1A2556F515F1FBB35B2AB35BD889C744FFA1004B5544B121E57F70215746DD2F5E2C1412B602CBF19455AC6C8E5E9922C4E01E65215385004546899059180EAFCF7A707CE7017CD8CDB0410789AB32C63B91E5CEBBBACB17AC6CD347A022D5075FD106377347AAABA7E
310
7D11590744509B44E205134DC1290F06580320F78E537D3D73540E06CB970B431F185308AD40BBD794D6D77003C5A36E8EAA54BA64597CD8F83BD552A080A365F7FF06504B0304140006080000CC70623B000000000000000000000000350000006662782F39464131463745442D413632322D343644302D413938332D3331
310
353338454246344243312F76657274696365732E62696E504B0304140006080800CC70623BF270F1330600000004000000360000006662782F39464131463745442D413632322D343644302D413938332D3331353338454246344243312F747269616E676C65732E62696E636660600000504B0304140006080000CC70623B
310
000000000000000000000000370000006662782F39464131463745442D413632322D343644302D413938332D3331353338454246344243312F617474726962757465732E62696E504B0304140006080800CC70623B08DA0BD19000000041010000360000006662782F39464131463745442D413632322D343644302D413938
310
332D3331353338454246344243312F6469726563746F72792E786D6C858F410AC3201045AF22B36F53E9A60B35CBEEBAE80D244E44489C6234F4F835464A48035D0DF398FF9F8AF63D0E6CC63039F212F8F9020C7D47C6792B21C5FE7403D62A1188E2E60C98D7234A5830286103A55745067B9D86B8A3CF9C7F90C11DE607
310
FB144396D7B6A82D282E9A152AD114D5EF2CB866EEE831B8EEA07A7BB5A8D7D61A2BAAEB7FD5F70921FF497D00504B0304140006080800CC70623B0D6EF93BFE000000A00100003B0000006662782F39464131463745442D413632322D343644302D413938332D3331353338454246344243312F7265736F75726365732F63
310
6F72652E786D6C8D50596E833010BD0A9ADFCA60B334011947A8694ED00B586642AC041B79A97AFC9A40A5F6AF3F33A3B7689E1E3F7DCD8FEC139DD7D6F4C0720A191A65476DA61E62B892236427C19DB5E1970C322367EC618541F0C9D9B8EC90B226A009093576C41D94DE63804C3DD2D18357379C652E63480A7FCF17A9
310
EE72C29CE5894E3AC17D702940B63D59270887DE46A7D0F36263058F518FBB468FE9A7BE6A7420864373B8D4873369AA8691FA421B3294352543C5CAF65C0F6FEF43CB8BD52C78D0F34F46E550061C419494B6843142CB0F5677F4B52BEB177AEC28E5C52AFF638ACBF84F53D42654E51E77B379102C05791282176B5F693D
310
CB4C7BED567C03504B010214000A0000080000CC70623B3DEE336E79000000790000001B00000000000000000000000000000000006175746F6465736B2D64657369676E2D7061636B6167652E786D6C504B01021400140006080800CC70623BD486FD9CA0000000F40000001300000000000000000000000000B20000005B
310
436F6E74656E745F54797065735D2E786D6C504B01021400140006080800CC70623B1EC5D7A3EB0000007C010000080000000000000000000000000083010000636F72652E786D6C504B01021400140006080800CC70623B55019EA25F0000007C000000070000000000000000000000000094020000636E782E786D6C504B
310
01021400140006080800CC70623B8C9102E971010000D40300000C00000000000000000000000000180300006662782F636F72652E786D6C504B01021400140006080800CC70623BFFEA85907E0000009D0000000B00000000000000000000000000B30400006662782F636E782E786D6C504B01021400140006080800CC70
310
623B4FEEA4082C0100001202000031000000000000000000000000005A0500006662782F39464131463745442D413632322D343644302D413938332D3331353338454246344243312F636F72652E786D6C504B01021400140006080800CC70623BAD7543B64E010000330300003000000000000000000000000000D5060000
310
6662782F39464131463745442D413632322D343644302D413938332D3331353338454246344243312F636E782E786D6C504B01021400140006080800CC70623B16AB87BA640500003C1000003400000000000000000000000000710800006662782F39464131463745442D413632322D343644302D413938332D3331353338
310
454246344243312F6F626A656374732E786D6C504B01021400140006080000CC70623B0000000000000000000000003500000000000000000000000000270E00006662782F39464131463745442D413632322D343644302D413938332D3331353338454246344243312F76657274696365732E62696E504B01021400140006
310
080800CC70623BF270F133060000000400000036000000000000000000000000007A0E00006662782F39464131463745442D413632322D343644302D413938332D3331353338454246344243312F747269616E676C65732E62696E504B01021400140006080000CC70623B0000000000000000000000003700000000000000
310
000000000000D40E00006662782F39464131463745442D413632322D343644302D413938332D3331353338454246344243312F617474726962757465732E62696E504B01021400140006080800CC70623B08DA0BD190000000410100003600000000000000000000000000290F00006662782F39464131463745442D413632
310
322D343644302D413938332D3331353338454246344243312F6469726563746F72792E786D6C504B01021400140006080800CC70623B0D6EF93BFE000000A00100003B000000000000000000000000000D1000006662782F39464131463745442D413632322D343644302D413938332D3331353338454246344243312F7265
310
736F75726365732F636F72652E786D6C504B0506000000000E000E0080040000641100000000
  0
XRECORD
  5
4ABA
102
{ACAD_REACTORS
330
173
102
}
330
173
100
AcDbXrecord
280
     1
102
MATERIAL
148
0.0
149
0.0
149
0.0
 93
        0
 94
       63
282
     0
 72
     1
 77
     1
171
     1
175
     1
179
     1
273
     0
  0
XRECORD
  5
175
102
{ACAD_REACTORS
330
173
102
}
330
173
100
AcDbXrecord
280
     1
270
     1
271
     1
  0
XRECORD
  5
174
102
{ACAD_REACTORS
330
173
102
}
330
173
100
AcDbXrecord
280
     1
270
     1
271
     1
  0
XRECORD
  5
1FB
102
{ACAD_REACTORS
330
173
102
}
330
173
100
AcDbXrecord
280
     1
 70
     0
 90
1673772943
  1
ECE7A1D2-D628-4531-984C-D00F80459256
310
504B03040A0000080000CC70623B3DEE336E79000000790000001B0000006175746F6465736B2D64657369676E2D7061636B6167652E786D6C3C3F786D6C2076657273696F6E3D22312E302220656E636F64696E673D227574662D3822203F3E3C666F726D6174733E3C666F726D61743E687474703A2F2F736368656D612E
310
6175746F6465736B2E636F6D2F64657369676E2D7061636B6167652F323030393C2F666F726D61743E3C2F666F726D6174733E504B0304140006080800CC70623BD486FD9CA0000000F4000000130000005B436F6E74656E745F54797065735D2E786D6C7D8EC10E82300C865F65E91D8A1E8C310C0EEA1BF002731658846E
310
D98AC1B77784ABF1D8FE5FBFBF75BBCE937A534CCEB38643598122B6FEE978D0B0485F9C41B54DDD7D022595594E1A469170414C76A4D9A4D207E29CF43ECE46F218070CC6BECC4078ACAA135ACF422C856C0E68EA1BF5669944DDD7BCDE7B1F8E415D77AECB980613C2E4AC91FC167A2B244592486606FC29C8FD7F045B9A
310
EF7053A7E60B504B0304140006080800CC70623BD9DDAED0EC0000007C01000008000000636F72652E786D6C8D90416EC3201045AF82665B61836D9CD8C2444DD39CA01740405C94182C03558F5F9C3852BBEB6A467FFE9B197D7EF89E6EE8CB2CC17A37002D0820E394D7D68D03A478C17B4007C117EFE32F1B20272733C0
310
2A83E0E3E2D3BC49CABB685CCCAAF3DA6CA20CC14440EA969B0182FA34932C648AD911AEC52CD5558EA6A0CF2EC329598D1E47ACCEFBECC59A050463A7EA5833865FEBDD0E37353BE3EE8DBDE3F6786A48D375FBF6CC78B9C282473B3DEFABC5C86834888A900E538A49F5419B9EB47DD5BC907D4F082F57FB1F28CDFA9F50
310
B22ED6D5F6EE030B20687EE43E10BC5CB3C8E51E54AE6B6EE207504B0304140006080800CC70623B55019EA25F0000007C00000007000000636E782E786D6C4DCB3B0E80201045D1AD90E915ED2CF8AC45050C11660C8261F98AB1B07AC9C97D42D718D865D3E909258CFD00CCE24AC6E326A164D74DC0B4128928FF326038
310
472BA13128B1252AC747C6BAB984FC68F0B87FE8960A5C09FE86CFB69FBA01504B0304140006080800CC70623BA24EB22D72010000D40300000C0000006662782F636F72652E786D6CC5535B6E833010BC8AE5DF0A6C5E49888CA3A6694ED00B38E05014B091B1518EDFE511A5A9D228FD2A1F60CDEC7A67C6986DCE4D8D7A
310
69BA4AAB0C073EC548AA5C17952A33ECECD15B61B4E1CC686DBF9561A44423333CC098B3D268D7CE50AE9595CA02AA74216750749DB418E5352C32DCE59FB211BE70162ABA93DF8AFC244AE9073ED050C759670D0840D390E18DF9F1706664C23973AE2A66B62A605A75ACA4C13C4976E1364A12EF355A2EBD384AF65EFA96
310
BC7B8BED2EA6719AAE16FB8491A199335B351775B991C2CA02F390D2D40B028F861F41BCA68B7518BFD0D59A524686F29B26D7164F36B94AD9289CE54E6D1DE6010819891F6E21228B3AD1831EC219194284CF98F06DD01008846CC5A1BEF83801D4CBDC6A1303536877A57A513B0953A94FC707FDBE6064EA84A9E3E6E0FA
310
EE8CF0E9198F7784A316AA0413C2C2F2E0ECA0934D1AE6D05A69BCDE9E91D2A611F573361E38FC1375157F5752AE6B6DFE4B11990F88CCBF0719EE23FF02504B0304140006080800CC70623B408A7D3B7C0000009D0000000B0000006662782F636E782E786D6C4DCCD10A83201886E15B91FFDC552A92A0064DBC8F581632
310
D3703A76F9ABD1C18E3E78F878E5F0D9027ABBFCF2292AE86E2D20171F69F6715550CB827B40839639A5F2770314A7CD293819B45C73AAFB45B35BA61ACAA1C1C7E7855C58C15BC331339661262CC762340413D68D77DA5B42298546CBE6573AF60CEB2F504B0304140006080800CC70623B449FB9BD290100001202000031
310
0000006662782F36394639363044362D344446342D343946362D394244322D3234314243333846323333332F636F72652E786D6C8D515B6EC32010BC0AE22B55850D98B871848994463E412FE002495162B07854397EA176A4F62F3F2C9A9D991D587EB84F37F0AD7D30CEF6905418026DA553C65E7A98E219ED203808EE9D
310
8B7F6810D871D23D2C3014FCE25D9A57483A1BB58D19B54EE9151C43D0110279CB971E06F9A5A7B11A53CC8C70ADE6515EC78BAE4895DB992778883E0700CB907242D17643D7E2538BD869608875438BBAE38922CAC8F1BDD90DB4691A5E2F42C153326A951B95E398B3D1FE599322163C9AE9115F7A3D46ADA0A018778810
310
84E907617BDCEE297BC5BB3DC6BC2EF47FA234AB2745C9D8D8D035EE220B50105E2F0DC1954B9FB747187D9F9D8FA0CCDB042D5FA0C015C65B42DF78BD10F3F3B363CB56C7109DCFDFBBB97E662ED92EB62D13BC2E1BCAE5777DB9966D8A1F504B0304140006080800CC70623BAD7543B64E01000033030000300000006662
310
782F36394639363044362D344446342D343946362D394244322D3234314243333846323333332F636E782E786D6CD593CD6EC32010845F0571AD6CE3D48AD20813A9873E410FBD12D82434182C7EAAE6EDBB2424CD25871E7B41D6EC30B3FA84F9E67BB2E40B4234DE8DB46F1925E094D7C6ED479AD3AE5951B2113C789FEE
310
6C943839C1488B4C05DF079FE72A69D8C96C13AAD6B8631503449F83828872B949AC57D26200B826A308D316B4064D6E46FCDA41C05550DC9E483A00797BFD207EFB092A45DE9514C1BBD22178396BD39D891265658C238DEA00936C654E5E433CB65A26D9F6EDB5EBC14EBF49A45CB856E66048291F6939A9A81BB5C89177
310
38143CA680F4AA299D66A042CEB3354A2684DC9D8D178FE0D9B8B41CAAD720F880EE7EF93C0C18769E099ECC04D5A102C8049A8A05632F4DDF376CF1DE0F6BB65C2F8627B65A33C6BB62177CEBBDAD973006829F89F22E814B54F4BC2BE347F8AA8F681390B50FA73F804400B5F542E796F19FF974E7F78DB802FE05E20750
310
4B0304140006080800CC70623B8D05915C650500003B100000340000006662782F36394639363044362D344446342D343946362D394244322D3234314243333846323333332F6F626A656374732E786D6CAD575B6FA33814FE2B887D06429276DA1565D4266D158D3A339A6846FB502932E050B66023DB74D2FDF5FB190C01
310
9276B2973C046C8ECFF53B17071F77456EBD502133CEAE6CDF9DD81665314F32965ED995DA3A17B6F5310C04E7AA47665B8C14F4CAD6DB7618A48257A5D94AE89654B91AEDDEDDFC61C998326A5B714EA4BCB265FC440BE2924AF184CA6737218AB8E976E7FA6E4338649B0A523E8D98964450A6A029F619B8588D52FE7039
310
B1BD30F0F4F730D0FF866AF6369557DB33949F31A9088B0F848DD8CCFCF9F2767A76E99CCDE733677E3EF59D9BBB9BA5E37F984D16E78BC5E5F5ED25044B25C0C96822E8D60EEFE11B91C581D77CEA34368A1F5329E68CD1B8B61F16D63A1B8E092D294B10C78C4A48EB593D192E7DED9BDEE7995E1B91FDEDD3ACEA9FE831
310
6A756F9F7D4D79F4274C90A7A04248AA51D5F8C718DAE06FB2F75AC4796EBE65D22A88A22223B995679120E2D50E41AA49C260C046A35368846B0BECD0DFF3EBEB8AD4F835768F69B9ADF25C43D30E6B646F807FAA64AD59F61715C7A54127C4AACA98BA3006A9D792DAE165E0D59B61A01FB3A9F9D838D2DAE62445C86166
310
F37564E842E7DE6A69879FEEA2DD5AE7E371E1A5E025154AC307D06A03D73EB5978C58FFA4C8E9033066E0F3BD53BEC1F39F91BE7B55103791EDE6BBB991A2046172CB4581D8B893FA674DDA17A77B3B7C413D1B511FD2743BFF8A38F03A658705E3ADF8015C3A3417FF3D7E439FF591DA0B5F18BC20C1B8981957AE6392A3
310
F43C640C01D1A0B4728E2DD4F26DB4B3C3152A252A3B4E913CEC1C72F012782FF88EFF8637AA552DBEF76408E8A8DE9E50F9E1CB3A2DA0DB1B6039A893B56063DC5B3E3FFB5F72E67AB9FEB4AEC496C4F4C1149625DD662C53E89D7BF0F6151A046260D1337DFDC94502430F83B0EE07A130A224BCAD7DAE1D9FB6CD422FF6
310
920702629C4BB9AE79C12F243C6432A6794E18E5552BA56B431AAB5D91317302B2B071E86C3A42B1A02F999E24061403B5D0EB639195DA655DD3EBEAB4FB862DDF579F014AD0E73C22F99E28DA57FB98E75C6CA2D74D53086D600F4786E0FE3144B771A8A7B900F03594DB8A633CBC49B2EDB69228BB479CF863B5E807AAAB
310
23872F6DFEB4129B949CA33823F58830E86D65621E10047D9DB34D862E8EAC3C2ABC2F7B2C40D67CDFE01F5545B92105AF983AC54D93D69E56FB8E797F88913F898A9FEC705D3F9D1B54EC8426FB500D40A03BD0119B06E1B95DDC7EB8F6975367793EBD70E66733DFB9BC982F9CE564727731999F5D4ECFCE3B8D6A4DC2A0
310
6D50FD148437D110834A64C6CDDF57FBACB5C307A2A477DFE4939736CFEF2B175371E0E10CF0DD1D5C15654E0BCA14D1E87DD02FF93782A162C0A3D95F1524A52770F972BF1EE9809D13CE7DD599467F8ECE9ADD85CE85A34CD45355448C64F9E8A031DC2D596ACC6E5DD93D9B82DE2EF5CAF81363A8E47996A0DE24564A79
310
4115AACE09C55E14540231FDA13C319787134EBF34E3A022514E5B4D9E0826E25C02D5805B15ABE1BEF51B26383D445DD9E875EE33FE4C22DA16427D65A3BCA92CA6D28DD01DF5DC53330704308475351050232CCD31583787BA75774AFB06E5070DD0C8EF484E19968C5D83BA5B90B244D31E54D55A372320FE4786B7EA58
310
44E135AA5467CB7EA333A61683CC6A8C3257034C10CF46F40EF9F5BE59BE5BD30C3C72D235E95D10345C1D45445A5F0BB47E46A5EBE5570F9380B5FA629579952296A773720405982B9DE04011506178964401AA8BDF1FBF0A8EAB6861DD6580C0E38217056766716DAEB2D6FA0917D3E4116581EADB879C4E7CFFB11EFACD
310
3D641311495D92C8676CB409A72D18610D803CE8A626049E8EC1887CB5B44CC39883690DDA8399B4B9855B481E7D71D4A9D22F96E5BB73BF5793020C02137BF837504B0304140006080000CC70623B000000000000000000000000350000006662782F36394639363044362D344446342D343946362D394244322D32343142
310
43333846323333332F76657274696365732E62696E504B0304140006080800CC70623BF270F1330600000004000000360000006662782F36394639363044362D344446342D343946362D394244322D3234314243333846323333332F747269616E676C65732E62696E636660600000504B0304140006080000CC70623B0000
310
00000000000000000000370000006662782F36394639363044362D344446342D343946362D394244322D3234314243333846323333332F617474726962757465732E62696E504B0304140006080800CC70623B08DA0BD19000000041010000360000006662782F36394639363044362D344446342D343946362D394244322D
310
3234314243333846323333332F6469726563746F72792E786D6C858F410AC3201045AF22B36F53E9A60B35CBEEBAE80D244E44489C6234F4F835464A48035D0DF398FF9F8AF63D0E6CC63039F212F8F9020C7D47C6792B21C5FE7403D62A1188E2E60C98D7234A5830286103A55745067B9D86B8A3CF9C7F90C11DE607FB14
310
4396D7B6A82D282E9A152AD114D5EF2CB866EEE831B8EEA07A7BB5A8D7D61A2BAAEB7FD5F70921FF497D00504B0304140006080800CC70623BCA768048FE000000A00100003B0000006662782F36394639363044362D344446342D343946362D394244322D3234314243333846323333332F7265736F75726365732F636F72
310
652E786D6C8D50596E833010BD0A9ADFCA60D600328E9AA639412F609909B1126CE4A5EAF16B0295DABFFECC8CDEA2797AECF8353F924FB44E193D409E5248504B332A3D0D10FC95B4901C39B3C6F85F3248B49871801506CE266BC2B243D2688FDA47549B11775038871E12F988C7004EDE7016A9083E2ADC3D5D84BC8B09
310
D33C8D74D471E6BC8D0192EDC93A815B742658898E651BCB59086ADC356A8C3FD555A1055ED7E7E254D615792D0F075295F585746FF53B694EE78A565DD736979A65AB9933AFE69F8CD2A2F038022F28ED489E135A7CE4554F9BBEA85E68DB53CAB255FEC71496F19FA6A0B42F8B3DEE6673C0F318E4497096AD7DC5F52C33
310
EEB55BFE0D504B010214000A0000080000CC70623B3DEE336E79000000790000001B00000000000000000000000000000000006175746F6465736B2D64657369676E2D7061636B6167652E786D6C504B01021400140006080800CC70623BD486FD9CA0000000F40000001300000000000000000000000000B20000005B436F
310
6E74656E745F54797065735D2E786D6C504B01021400140006080800CC70623BD9DDAED0EC0000007C010000080000000000000000000000000083010000636F72652E786D6C504B01021400140006080800CC70623B55019EA25F0000007C000000070000000000000000000000000095020000636E782E786D6C504B0102
310
1400140006080800CC70623BA24EB22D72010000D40300000C00000000000000000000000000190300006662782F636F72652E786D6C504B01021400140006080800CC70623B408A7D3B7C0000009D0000000B00000000000000000000000000B50400006662782F636E782E786D6C504B01021400140006080800CC70623B
310
449FB9BD290100001202000031000000000000000000000000005A0500006662782F36394639363044362D344446342D343946362D394244322D3234314243333846323333332F636F72652E786D6C504B01021400140006080800CC70623BAD7543B64E010000330300003000000000000000000000000000D20600006662
310
782F36394639363044362D344446342D343946362D394244322D3234314243333846323333332F636E782E786D6C504B01021400140006080800CC70623B8D05915C650500003B10000034000000000000000000000000006E0800006662782F36394639363044362D344446342D343946362D394244322D32343142433338
310
46323333332F6F626A656374732E786D6C504B01021400140006080000CC70623B0000000000000000000000003500000000000000000000000000250E00006662782F36394639363044362D344446342D343946362D394244322D3234314243333846323333332F76657274696365732E62696E504B010214001400060808
310
00CC70623BF270F13306000000040000003600000000000000000000000000780E00006662782F36394639363044362D344446342D343946362D394244322D3234314243333846323333332F747269616E676C65732E62696E504B01021400140006080000CC70623B00000000000000000000000037000000000000000000
310
00000000D20E00006662782F36394639363044362D344446342D343946362D394244322D3234314243333846323333332F617474726962757465732E62696E504B01021400140006080800CC70623B08DA0BD190000000410100003600000000000000000000000000270F00006662782F36394639363044362D344446342D
310
343946362D394244322D3234314243333846323333332F6469726563746F72792E786D6C504B01021400140006080800CC70623BCA768048FE000000A00100003B000000000000000000000000000B1000006662782F36394639363044362D344446342D343946362D394244322D3234314243333846323333332F7265736F
310
75726365732F636F72652E786D6C504B0506000000000E000E0080040000621100000000
  0
XRECORD
  5
176
102
{ACAD_REACTORS
330
173
102
}
330
173
100
AcDbXrecord
280
     1
270
     1
271
     1
  0
XRECORD
  5
177
102
{ACAD_REACTORS
330
173
102
}
330
173
100
AcDbXrecord
280
     1
270
     1
271
     1
  0
XRECORD
  5
4ADC
102
{ACAD_REACTORS
330
4ADB
102
}
330
4ADB
100
AcDbXrecord
280
     1
102
ACAD_ROUNDTRIP_2012_MLEADER_STYLE
298
     1
  0
XRECORD
  5
4AEE
102
{ACAD_REACTORS
330
4AED
102
}
330
4AED
100
AcDbXrecord
280
     1
102
DISPLAYNAME
  1
Metric50
102
FLAGS
 90
        0
  0
CELLSTYLEMAP
  5
4AAE
102
{ACAD_REACTORS
330
162
102
}
330
162
100
AcDbCellStyleMap
 90
        3
300
CELLSTYLE
  1
TABLEFORMAT_BEGIN
 90
        5
170
     1
 91
        0
 92
    32768
 62
   257
 93
        1
300
CONTENTFORMAT
  1
CONTENTFORMAT_BEGIN
 90
        0
 91
        0
 92
      512
 93
        0
300

 40
0.0
140
1.0
 94
        5
 62
     0
340
11
144
6.0
309
CONTENTFORMAT_END
171
     1
301
MARGIN
  1
CELLMARGIN_BEGIN
 40
1.5
 40
1.5
 40
1.5
 40
1.5
 40
4.5
 40
4.5
309
CELLMARGIN_END
 94
        6
 95
        1
302
GRIDFORMAT
  1
GRIDFORMAT_BEGIN
 90
        0
 91
        1
 62
     0
 92
       -2
340
14
 93
        0
 40
1.125
309
GRIDFORMAT_END
 95
        2
302
GRIDFORMAT
  1
GRIDFORMAT_BEGIN
 90
        0
 91
        1
 62
     0
 92
       -2
340
14
 93
        0
 40
1.125
309
GRIDFORMAT_END
 95
        4
302
GRIDFORMAT
  1
GRIDFORMAT_BEGIN
 90
        0
 91
        1
 62
     0
 92
       -2
340
14
 93
        0
 40
1.125
309
GRIDFORMAT_END
 95
        8
302
GRIDFORMAT
  1
GRIDFORMAT_BEGIN
 90
        0
 91
        1
 62
     0
 92
       -2
340
14
 93
        0
 40
1.125
309
GRIDFORMAT_END
 95
       16
302
GRIDFORMAT
  1
GRIDFORMAT_BEGIN
 90
        0
 91
        1
 62
     0
 92
       -2
340
14
 93
        0
 40
1.125
309
GRIDFORMAT_END
 95
       32
302
GRIDFORMAT
  1
GRIDFORMAT_BEGIN
 90
        0
 91
        1
 62
     0
 92
       -2
340
14
 93
        0
 40
1.125
309
GRIDFORMAT_END
309
TABLEFORMAT_END
  1
CELLSTYLE_BEGIN
 90
        1
 91
        1
300
_TITLE
309
CELLSTYLE_END
300
CELLSTYLE
  1
TABLEFORMAT_BEGIN
 90
        5
170
     1
 91
        0
 92
        0
 62
   257
 93
        1
300
CONTENTFORMAT
  1
CONTENTFORMAT_BEGIN
 90
        0
 91
        0
 92
      512
 93
        0
300

 40
0.0
140
1.0
 94
        5
 62
     0
340
11
144
4.5
309
CONTENTFORMAT_END
171
     1
301
MARGIN
  1
CELLMARGIN_BEGIN
 40
1.5
 40
1.5
 40
1.5
 40
1.5
 40
4.5
 40
4.5
309
CELLMARGIN_END
 94
        6
 95
        1
302
GRIDFORMAT
  1
GRIDFORMAT_BEGIN
 90
        0
 91
        1
 62
     0
 92
       -2
340
14
 93
        0
 40
1.125
309
GRIDFORMAT_END
 95
        2
302
GRIDFORMAT
  1
GRIDFORMAT_BEGIN
 90
        0
 91
        1
 62
     0
 92
       -2
340
14
 93
        0
 40
1.125
309
GRIDFORMAT_END
 95
        4
302
GRIDFORMAT
  1
GRIDFORMAT_BEGIN
 90
        0
 91
        1
 62
     0
 92
       -2
340
14
 93
        0
 40
1.125
309
GRIDFORMAT_END
 95
        8
302
GRIDFORMAT
  1
GRIDFORMAT_BEGIN
 90
        0
 91
        1
 62
     0
 92
       -2
340
14
 93
        0
 40
1.125
309
GRIDFORMAT_END
 95
       16
302
GRIDFORMAT
  1
GRIDFORMAT_BEGIN
 90
        0
 91
        1
 62
     0
 92
       -2
340
14
 93
        0
 40
1.125
309
GRIDFORMAT_END
 95
       32
302
GRIDFORMAT
  1
GRIDFORMAT_BEGIN
 90
        0
 91
        1
 62
     0
 92
       -2
340
14
 93
        0
 40
1.125
309
GRIDFORMAT_END
309
TABLEFORMAT_END
  1
CELLSTYLE_BEGIN
 90
        2
 91
        1
300
_HEADER
309
CELLSTYLE_END
300
CELLSTYLE
  1
TABLEFORMAT_BEGIN
 90
        5
170
     1
 91
        0
 92
        0
 62
   257
 93
        1
300
CONTENTFORMAT
  1
CONTENTFORMAT_BEGIN
 90
        0
 91
        0
 92
      512
 93
        0
300

 40
0.0
140
1.0
 94
        2
 62
     0
340
11
144
4.5
309
CONTENTFORMAT_END
171
     1
301
MARGIN
  1
CELLMARGIN_BEGIN
 40
1.5
 40
1.5
 40
1.5
 40
1.5
 40
4.5
 40
4.5
309
CELLMARGIN_END
 94
        6
 95
        1
302
GRIDFORMAT
  1
GRIDFORMAT_BEGIN
 90
        0
 91
        1
 62
     0
 92
       -2
340
14
 93
        0
 40
1.125
309
GRIDFORMAT_END
 95
        2
302
GRIDFORMAT
  1
GRIDFORMAT_BEGIN
 90
        0
 91
        1
 62
     0
 92
       -2
340
14
 93
        0
 40
1.125
309
GRIDFORMAT_END
 95
        4
302
GRIDFORMAT
  1
GRIDFORMAT_BEGIN
 90
        0
 91
        1
 62
     0
 92
       -2
340
14
 93
        0
 40
1.125
309
GRIDFORMAT_END
 95
        8
302
GRIDFORMAT
  1
GRIDFORMAT_BEGIN
 90
        0
 91
        1
 62
     0
 92
       -2
340
14
 93
        0
 40
1.125
309
GRIDFORMAT_END
 95
       16
302
GRIDFORMAT
  1
GRIDFORMAT_BEGIN
 90
        0
 91
        1
 62
     0
 92
       -2
340
14
 93
        0
 40
1.125
309
GRIDFORMAT_END
 95
       32
302
GRIDFORMAT
  1
GRIDFORMAT_BEGIN
 90
        0
 91
        1
 62
     0
 92
       -2
340
14
 93
        0
 40
1.125
309
GRIDFORMAT_END
309
TABLEFORMAT_END
  1
CELLSTYLE_BEGIN
 90
        3
 91
        2
300
_DATA
309
CELLSTYLE_END
  0
XRECORD
  5
4AB3
102
{ACAD_REACTORS
330
162
102
}
330
162
100
AcDbXrecord
280
     1
102
ACAD_ROUNDTRIP_PRE2007_TABLESTYLE
 90
      512
 91
        0
  1

 92
      512
 93
        0
  2

 94
      512
 95
        0
  3

  0
XRECORD
  5
4AC6
102
{ACAD_REACTORS
330
4AC5
102
}
330
4AC5
100
AcDbXrecord
280
     1
102
RTVSPost2010Prop28
280
     1
102
RTVSPost2010PropOp28
 70
     1
102
RTVSPost2010Prop29
280
     1
102
RTVSPost2010PropOp29
 70
     1
102
RTVSPost2010Prop30
280
     0
102
RTVSPost2010PropOp30
 70
     1
102
RTVSPost2010Prop31
280
     0
102
RTVSPost2010PropOp31
 70
     1
102
RTVSPost2010Prop32
280
     0
102
RTVSPost2010PropOp32
 70
     1
102
RTVSPost2010Prop33
280
     0
102
RTVSPost2010PropOp33
 70
     1
102
RTVSPost2010Prop34
280
     0
102
RTVSPost2010PropOp34
 70
     1
102
RTVSPost2010Prop35
280
     0
102
RTVSPost2010PropOp35
 70
     1
102
RTVSPost2010Prop36
280
     0
102
RTVSPost2010PropOp36
 70
     1
102
RTVSPost2010Prop37
 90
       50
102
RTVSPost2010PropOp37
 70
     1
102
RTVSPost2010Prop38
140
0.0
102
RTVSPost2010PropOp38
 70
     1
102
RTVSPost2010Prop39
140
1.0
102
RTVSPost2010PropOp39
 70
     1
102
RTVSPost2010Prop40
 90
        0
102
RTVSPost2010PropOp40
 70
     1
102
RTVSPost2010Prop41ColorIndex
 90
       18
102
RTVSPost2010Prop41ColorRGB
 90
        0
102
RTVSPost2010PropOp41
 70
     1
102
RTVSPost2010Prop42
 90
       50
102
RTVSPost2010PropOp42
 70
     1
102
RTVSPost2010Prop43
 90
        3
102
RTVSPost2010PropOp43
 70
     1
102
RTVSPost2010Prop44ColorIndex
 90
        5
102
RTVSPost2010Prop44ColorRGB
 90
      255
102
RTVSPost2010PropOp44
 70
     1
102
RTVSPost2010Prop45
280
     0
102
RTVSPost2010PropOp45
 70
     1
102
RTVSPost2010Prop46
 90
       50
102
RTVSPost2010PropOp46
 70
     1
102
RTVSPost2010Prop47
 90
       50
102
RTVSPost2010PropOp47
 70
     1
102
RTVSPost2010Prop48
 90
       50
102
RTVSPost2010PropOp48
 70
     1
102
RTVSPost2010Prop49
280
     0
102
RTVSPost2010PropOp49
 70
     1
102
RTVSPost2010Prop50
 90
       50
102
RTVSPost2010PropOp50
 70
     1
102
RTVSPost2010Prop51ColorIndex
 90
      256
102
RTVSPost2010Prop51ColorRGB
 90
-16777216
102
RTVSPost2010PropOp51
 70
     0
102
RTVSPost2010Prop52
140
1.0
102
RTVSPost2010PropOp52
 70
     0
102
RTVSPost2010Prop53
 90
        2
102
RTVSPost2010PropOp53
 70
     1
102
RTVSPost2010Prop54
  1
strokes_ogs.tif
102
RTVSPost2010PropOp54
 70
     1
102
RTVSPost2010Prop55
280
     0
102
RTVSPost2010PropOp55
 70
     1
102
RTVSPost2010Prop56
140
1.0
102
RTVSPost2010PropOp56
 70
     1
102
RTVSPost2010Prop57
140
1.0
102
RTVSPost2010PropOp57
 70
     1
102
RTVSPropertyOp0
 70
     1
102
RTVSPropertyOp1
 70
     1
102
RTVSPropertyOp2
 70
     1
102
RTVSPropertyOp3
 70
     1
102
RTVSPropertyOp4
 70
     1
102
RTVSPropertyOp5
 70
     1
102
RTVSPropertyOp6
 70
     1
102
RTVSPropertyOp7
 70
     1
102
RTVSPropertyOp8
 70
     1
102
RTVSPropertyOp9
 70
     1
102
RTVSPropertyOp10
 70
     1
102
RTVSPropertyOp11
 70
     1
102
RTVSPropertyOp12
 70
     1
102
RTVSPropertyOp13
 70
     1
102
RTVSPropertyOp14
 70
     1
102
RTVSPropertyOp15
 70
     1
102
RTVSPropertyOp16
 70
     1
102
RTVSPropertyOp17
 70
     1
102
RTVSPropertyOp18
 70
     1
102
RTVSPropertyOp19
 70
     1
102
RTVSPropertyOp20
 70
     1
102
RTVSPropertyOp21
 70
     1
102
RTVSPropertyOp22
 70
     1
102
RTVSPropertyOp23
 70
     1
102
RTVSPropertyOp24
 70
     1
102
RTVSPropertyOp25
 70
     1
102
RTVSPropertyOp26
 70
     1
102
RTVSPropertyOp27
 70
     1
102
RTVSPropertyOp28
 70
     1
102
RTVSPropertyOp29
 70
     1
102
RTVSPropertyOp30
 70
     1
102
RTVSPropertyOp31
 70
     1
102
RTVSPropertyOp32
 70
     1
102
RTVSPropertyOp33
 70
     1
102
RTVSPropertyOp34
 70
     1
102
RTVSPropertyOp35
 70
     1
102
RTVSPropertyOp36
 70
     1
102
RTVSPropertyOp37
 70
     1
102
RTVSPropertyOp38
 70
     1
102
RTVSPropertyOp39
 70
     1
102
RTVSPropertyOp40
 70
     1
102
RTVSPropertyOp41
 70
     1
102
RTVSPropertyOp42
 70
     1
102
RTVSPropertyOp43
 70
     1
102
RTVSPropertyOp44
 70
     1
102
RTVSPropertyOp45
 70
     1
102
RTVSPropertyOp46
 70
     1
102
RTVSPropertyOp47
 70
     1
102
RTVSPropertyOp48
 70
     1
102
RTVSPropertyOp49
 70
     1
102
RTVSPropertyOp50
 70
     1
102
RTVSPropertyOp51
 70
     0
102
RTVSPropertyOp52
 70
     0
102
RTVSPropertyOp53
 70
     1
102
RTVSPropertyOp54
 70
     1
102
RTVSPropertyOp55
 70
     1
102
RTVSPropertyOp56
 70
     1
102
RTVSPropertyOp57
 70
     1
102
RTVSPropertyOp58
 70
     1
102
RTVSPropertyOp59
 70
     1
102
RTVSPropertyOp60
 70
     1
102
RTVSPropertyOp61
 70
     1
102
RTVSPropertyOp62
 70
     1
  0
XRECORD
  5
4AC4
102
{ACAD_REACTORS
330
4AC3
102
}
330
4AC3
100
AcDbXrecord
280
     1
102
RTVSPost2010Prop28
280
     0
102
RTVSPost2010PropOp28
 70
     1
102
RTVSPost2010Prop29
280
     1
102
RTVSPost2010PropOp29
 70
     1
102
RTVSPost2010Prop30
280
     1
102
RTVSPost2010PropOp30
 70
     1
102
RTVSPost2010Prop31
280
     0
102
RTVSPost2010PropOp31
 70
     1
102
RTVSPost2010Prop32
280
     0
102
RTVSPost2010PropOp32
 70
     1
102
RTVSPost2010Prop33
280
     0
102
RTVSPost2010PropOp33
 70
     1
102
RTVSPost2010Prop34
280
     0
102
RTVSPost2010PropOp34
 70
     1
102
RTVSPost2010Prop35
280
     0
102
RTVSPost2010PropOp35
 70
     1
102
RTVSPost2010Prop36
280
     0
102
RTVSPost2010PropOp36
 70
     1
102
RTVSPost2010Prop37
 90
       50
102
RTVSPost2010PropOp37
 70
     1
102
RTVSPost2010Prop38
140
0.0
102
RTVSPost2010PropOp38
 70
     1
102
RTVSPost2010Prop39
140
1.0
102
RTVSPost2010PropOp39
 70
     1
102
RTVSPost2010Prop40
 90
        0
102
RTVSPost2010PropOp40
 70
     1
102
RTVSPost2010Prop41ColorIndex
 90
       18
102
RTVSPost2010Prop41ColorRGB
 90
        0
102
RTVSPost2010PropOp41
 70
     1
102
RTVSPost2010Prop42
 90
       50
102
RTVSPost2010PropOp42
 70
     1
102
RTVSPost2010Prop43
 90
        3
102
RTVSPost2010PropOp43
 70
     1
102
RTVSPost2010Prop44ColorIndex
 90
        5
102
RTVSPost2010Prop44ColorRGB
 90
      255
102
RTVSPost2010PropOp44
 70
     1
102
RTVSPost2010Prop45
280
     0
102
RTVSPost2010PropOp45
 70
     1
102
RTVSPost2010Prop46
 90
       50
102
RTVSPost2010PropOp46
 70
     1
102
RTVSPost2010Prop47
 90
       50
102
RTVSPost2010PropOp47
 70
     1
102
RTVSPost2010Prop48
 90
       50
102
RTVSPost2010PropOp48
 70
     1
102
RTVSPost2010Prop49
280
     0
102
RTVSPost2010PropOp49
 70
     1
102
RTVSPost2010Prop50
 90
       50
102
RTVSPost2010PropOp50
 70
     1
102
RTVSPost2010Prop51ColorIndex
 90
      256
102
RTVSPost2010Prop51ColorRGB
 90
-16777216
102
RTVSPost2010PropOp51
 70
     0
102
RTVSPost2010Prop52
140
1.0
102
RTVSPost2010PropOp52
 70
     0
102
RTVSPost2010Prop53
 90
        2
102
RTVSPost2010PropOp53
 70
     1
102
RTVSPost2010Prop54
  1
strokes_ogs.tif
102
RTVSPost2010PropOp54
 70
     1
102
RTVSPost2010Prop55
280
     0
102
RTVSPost2010PropOp55
 70
     1
102
RTVSPost2010Prop56
140
1.0
102
RTVSPost2010PropOp56
 70
     1
102
RTVSPost2010Prop57
140
1.0
102
RTVSPost2010PropOp57
 70
     1
102
RTVSPropertyOp0
 70
     1
102
RTVSPropertyOp1
 70
     1
102
RTVSPropertyOp2
 70
     1
102
RTVSPropertyOp3
 70
     1
102
RTVSPropertyOp4
 70
     1
102
RTVSPropertyOp5
 70
     1
102
RTVSPropertyOp6
 70
     1
102
RTVSPropertyOp7
 70
     1
102
RTVSPropertyOp8
 70
     1
102
RTVSPropertyOp9
 70
     1
102
RTVSPropertyOp10
 70
     1
102
RTVSPropertyOp11
 70
     1
102
RTVSPropertyOp12
 70
     1
102
RTVSPropertyOp13
 70
     1
102
RTVSPropertyOp14
 70
     1
102
RTVSPropertyOp15
 70
     1
102
RTVSPropertyOp16
 70
     1
102
RTVSPropertyOp17
 70
     1
102
RTVSPropertyOp18
 70
     1
102
RTVSPropertyOp19
 70
     1
102
RTVSPropertyOp20
 70
     1
102
RTVSPropertyOp21
 70
     1
102
RTVSPropertyOp22
 70
     1
102
RTVSPropertyOp23
 70
     1
102
RTVSPropertyOp24
 70
     1
102
RTVSPropertyOp25
 70
     1
102
RTVSPropertyOp26
 70
     1
102
RTVSPropertyOp27
 70
     1
102
RTVSPropertyOp28
 70
     1
102
RTVSPropertyOp29
 70
     1
102
RTVSPropertyOp30
 70
     1
102
RTVSPropertyOp31
 70
     1
102
RTVSPropertyOp32
 70
     1
102
RTVSPropertyOp33
 70
     1
102
RTVSPropertyOp34
 70
     1
102
RTVSPropertyOp35
 70
     1
102
RTVSPropertyOp36
 70
     1
102
RTVSPropertyOp37
 70
     1
102
RTVSPropertyOp38
 70
     1
102
RTVSPropertyOp39
 70
     1
102
RTVSPropertyOp40
 70
     1
102
RTVSPropertyOp41
 70
     1
102
RTVSPropertyOp42
 70
     1
102
RTVSPropertyOp43
 70
     1
102
RTVSPropertyOp44
 70
     1
102
RTVSPropertyOp45
 70
     1
102
RTVSPropertyOp46
 70
     1
102
RTVSPropertyOp47
 70
     1
102
RTVSPropertyOp48
 70
     1
102
RTVSPropertyOp49
 70
     1
102
RTVSPropertyOp50
 70
     1
102
RTVSPropertyOp51
 70
     0
102
RTVSPropertyOp52
 70
     0
102
RTVSPropertyOp53
 70
     1
102
RTVSPropertyOp54
 70
     1
102
RTVSPropertyOp55
 70
     1
102
RTVSPropertyOp56
 70
     1
102
RTVSPropertyOp57
 70
     1
102
RTVSPropertyOp58
 70
     1
102
RTVSPropertyOp59
 70
     1
102
RTVSPropertyOp60
 70
     1
102
RTVSPropertyOp61
 70
     1
102
RTVSPropertyOp62
 70
     1
  0
XRECORD
  5
4AD2
102
{ACAD_REACTORS
330
4AD1
102
}
330
4AD1
100
AcDbXrecord
280
     1
102
RTVSPost2010Prop28
280
     0
102
RTVSPost2010PropOp28
 70
     1
102
RTVSPost2010Prop29
280
     1
102
RTVSPost2010PropOp29
 70
     1
102
RTVSPost2010Prop30
280
     1
102
RTVSPost2010PropOp30
 70
     1
102
RTVSPost2010Prop31
280
     0
102
RTVSPost2010PropOp31
 70
     1
102
RTVSPost2010Prop32
280
     0
102
RTVSPost2010PropOp32
 70
     1
102
RTVSPost2010Prop33
280
     0
102
RTVSPost2010PropOp33
 70
     1
102
RTVSPost2010Prop34
280
     0
102
RTVSPost2010PropOp34
 70
     1
102
RTVSPost2010Prop35
280
     0
102
RTVSPost2010PropOp35
 70
     1
102
RTVSPost2010Prop36
280
     0
102
RTVSPost2010PropOp36
 70
     1
102
RTVSPost2010Prop37
 90
       50
102
RTVSPost2010PropOp37
 70
     1
102
RTVSPost2010Prop38
140
0.0
102
RTVSPost2010PropOp38
 70
     1
102
RTVSPost2010Prop39
140
1.0
102
RTVSPost2010PropOp39
 70
     1
102
RTVSPost2010Prop40
 90
        0
102
RTVSPost2010PropOp40
 70
     1
102
RTVSPost2010Prop41ColorIndex
 90
       18
102
RTVSPost2010Prop41ColorRGB
 90
        0
102
RTVSPost2010PropOp41
 70
     1
102
RTVSPost2010Prop42
 90
       50
102
RTVSPost2010PropOp42
 70
     1
102
RTVSPost2010Prop43
 90
        3
102
RTVSPost2010PropOp43
 70
     1
102
RTVSPost2010Prop44ColorIndex
 90
        5
102
RTVSPost2010Prop44ColorRGB
 90
      255
102
RTVSPost2010PropOp44
 70
     1
102
RTVSPost2010Prop45
280
     0
102
RTVSPost2010PropOp45
 70
     1
102
RTVSPost2010Prop46
 90
       50
102
RTVSPost2010PropOp46
 70
     1
102
RTVSPost2010Prop47
 90
       50
102
RTVSPost2010PropOp47
 70
     1
102
RTVSPost2010Prop48
 90
       50
102
RTVSPost2010PropOp48
 70
     1
102
RTVSPost2010Prop49
280
     0
102
RTVSPost2010PropOp49
 70
     1
102
RTVSPost2010Prop50
 90
       50
102
RTVSPost2010PropOp50
 70
     1
102
RTVSPost2010Prop51ColorIndex
 90
      256
102
RTVSPost2010Prop51ColorRGB
 90
-16777216
102
RTVSPost2010PropOp51
 70
     0
102
RTVSPost2010Prop52
140
1.0
102
RTVSPost2010PropOp52
 70
     0
102
RTVSPost2010Prop53
 90
        2
102
RTVSPost2010PropOp53
 70
     1
102
RTVSPost2010Prop54
  1
strokes_ogs.tif
102
RTVSPost2010PropOp54
 70
     1
102
RTVSPost2010Prop55
280
     0
102
RTVSPost2010PropOp55
 70
     1
102
RTVSPost2010Prop56
140
1.0
102
RTVSPost2010PropOp56
 70
     1
102
RTVSPost2010Prop57
140
1.0
102
RTVSPost2010PropOp57
 70
     1
102
RTVSPropertyOp0
 70
     1
102
RTVSPropertyOp1
 70
     1
102
RTVSPropertyOp2
 70
     1
102
RTVSPropertyOp3
 70
     1
102
RTVSPropertyOp4
 70
     1
102
RTVSPropertyOp5
 70
     1
102
RTVSPropertyOp6
 70
     1
102
RTVSPropertyOp7
 70
     1
102
RTVSPropertyOp8
 70
     1
102
RTVSPropertyOp9
 70
     1
102
RTVSPropertyOp10
 70
     1
102
RTVSPropertyOp11
 70
     1
102
RTVSPropertyOp12
 70
     1
102
RTVSPropertyOp13
 70
     1
102
RTVSPropertyOp14
 70
     1
102
RTVSPropertyOp15
 70
     1
102
RTVSPropertyOp16
 70
     1
102
RTVSPropertyOp17
 70
     1
102
RTVSPropertyOp18
 70
     1
102
RTVSPropertyOp19
 70
     1
102
RTVSPropertyOp20
 70
     1
102
RTVSPropertyOp21
 70
     1
102
RTVSPropertyOp22
 70
     1
102
RTVSPropertyOp23
 70
     1
102
RTVSPropertyOp24
 70
     1
102
RTVSPropertyOp25
 70
     1
102
RTVSPropertyOp26
 70
     1
102
RTVSPropertyOp27
 70
     1
102
RTVSPropertyOp28
 70
     1
102
RTVSPropertyOp29
 70
     1
102
RTVSPropertyOp30
 70
     1
102
RTVSPropertyOp31
 70
     1
102
RTVSPropertyOp32
 70
     1
102
RTVSPropertyOp33
 70
     1
102
RTVSPropertyOp34
 70
     1
102
RTVSPropertyOp35
 70
     1
102
RTVSPropertyOp36
 70
     1
102
RTVSPropertyOp37
 70
     1
102
RTVSPropertyOp38
 70
     1
102
RTVSPropertyOp39
 70
     1
102
RTVSPropertyOp40
 70
     1
102
RTVSPropertyOp41
 70
     1
102
RTVSPropertyOp42
 70
     1
102
RTVSPropertyOp43
 70
     1
102
RTVSPropertyOp44
 70
     1
102
RTVSPropertyOp45
 70
     1
102
RTVSPropertyOp46
 70
     1
102
RTVSPropertyOp47
 70
     1
102
RTVSPropertyOp48
 70
     1
102
RTVSPropertyOp49
 70
     1
102
RTVSPropertyOp50
 70
     1
102
RTVSPropertyOp51
 70
     0
102
RTVSPropertyOp52
 70
     0
102
RTVSPropertyOp53
 70
     1
102
RTVSPropertyOp54
 70
     1
102
RTVSPropertyOp55
 70
     1
102
RTVSPropertyOp56
 70
     1
102
RTVSPropertyOp57
 70
     1
102
RTVSPropertyOp58
 70
     1
102
RTVSPropertyOp59
 70
     1
102
RTVSPropertyOp60
 70
     1
102
RTVSPropertyOp61
 70
     1
102
RTVSPropertyOp62
 70
     1
  0
XRECORD
  5
4ADA
102
{ACAD_REACTORS
330
4AD9
102
}
330
4AD9
100
AcDbXrecord
280
     1
102
RTVSPost2010Prop28
280
     0
102
RTVSPost2010PropOp28
 70
     1
102
RTVSPost2010Prop29
280
     1
102
RTVSPost2010PropOp29
 70
     1
102
RTVSPost2010Prop30
280
     1
102
RTVSPost2010PropOp30
 70
     1
102
RTVSPost2010Prop31
280
     0
102
RTVSPost2010PropOp31
 70
     1
102
RTVSPost2010Prop32
280
     0
102
RTVSPost2010PropOp32
 70
     1
102
RTVSPost2010Prop33
280
     0
102
RTVSPost2010PropOp33
 70
     1
102
RTVSPost2010Prop34
280
     0
102
RTVSPost2010PropOp34
 70
     1
102
RTVSPost2010Prop35
280
     0
102
RTVSPost2010PropOp35
 70
     1
102
RTVSPost2010Prop36
280
     0
102
RTVSPost2010PropOp36
 70
     1
102
RTVSPost2010Prop37
 90
       50
102
RTVSPost2010PropOp37
 70
     1
102
RTVSPost2010Prop38
140
0.0
102
RTVSPost2010PropOp38
 70
     1
102
RTVSPost2010Prop39
140
1.0
102
RTVSPost2010PropOp39
 70
     1
102
RTVSPost2010Prop40
 90
        0
102
RTVSPost2010PropOp40
 70
     1
102
RTVSPost2010Prop41ColorIndex
 90
       18
102
RTVSPost2010Prop41ColorRGB
 90
        0
102
RTVSPost2010PropOp41
 70
     1
102
RTVSPost2010Prop42
 90
       50
102
RTVSPost2010PropOp42
 70
     1
102
RTVSPost2010Prop43
 90
        3
102
RTVSPost2010PropOp43
 70
     1
102
RTVSPost2010Prop44ColorIndex
 90
        5
102
RTVSPost2010Prop44ColorRGB
 90
      255
102
RTVSPost2010PropOp44
 70
     1
102
RTVSPost2010Prop45
280
     0
102
RTVSPost2010PropOp45
 70
     1
102
RTVSPost2010Prop46
 90
       50
102
RTVSPost2010PropOp46
 70
     1
102
RTVSPost2010Prop47
 90
       50
102
RTVSPost2010PropOp47
 70
     1
102
RTVSPost2010Prop48
 90
       50
102
RTVSPost2010PropOp48
 70
     1
102
RTVSPost2010Prop49
280
     0
102
RTVSPost2010PropOp49
 70
     1
102
RTVSPost2010Prop50
 90
       50
102
RTVSPost2010PropOp50
 70
     1
102
RTVSPost2010Prop51ColorIndex
 90
      256
102
RTVSPost2010Prop51ColorRGB
 90
-16777216
102
RTVSPost2010PropOp51
 70
     0
102
RTVSPost2010Prop52
140
1.0
102
RTVSPost2010PropOp52
 70
     0
102
RTVSPost2010Prop53
 90
        2
102
RTVSPost2010PropOp53
 70
     1
102
RTVSPost2010Prop54
  1
strokes_ogs.tif
102
RTVSPost2010PropOp54
 70
     1
102
RTVSPost2010Prop55
280
     0
102
RTVSPost2010PropOp55
 70
     1
102
RTVSPost2010Prop56
140
1.0
102
RTVSPost2010PropOp56
 70
     1
102
RTVSPost2010Prop57
140
1.0
102
RTVSPost2010PropOp57
 70
     1
102
RTVSPropertyOp0
 70
     1
102
RTVSPropertyOp1
 70
     1
102
RTVSPropertyOp2
 70
     1
102
RTVSPropertyOp3
 70
     1
102
RTVSPropertyOp4
 70
     1
102
RTVSPropertyOp5
 70
     1
102
RTVSPropertyOp6
 70
     1
102
RTVSPropertyOp7
 70
     1
102
RTVSPropertyOp8
 70
     1
102
RTVSPropertyOp9
 70
     1
102
RTVSPropertyOp10
 70
     1
102
RTVSPropertyOp11
 70
     1
102
RTVSPropertyOp12
 70
     1
102
RTVSPropertyOp13
 70
     1
102
RTVSPropertyOp14
 70
     1
102
RTVSPropertyOp15
 70
     1
102
RTVSPropertyOp16
 70
     1
102
RTVSPropertyOp17
 70
     1
102
RTVSPropertyOp18
 70
     1
102
RTVSPropertyOp19
 70
     1
102
RTVSPropertyOp20
 70
     1
102
RTVSPropertyOp21
 70
     1
102
RTVSPropertyOp22
 70
     1
102
RTVSPropertyOp23
 70
     1
102
RTVSPropertyOp24
 70
     1
102
RTVSPropertyOp25
 70
     1
102
RTVSPropertyOp26
 70
     1
102
RTVSPropertyOp27
 70
     1
102
RTVSPropertyOp28
 70
     1
102
RTVSPropertyOp29
 70
     1
102
RTVSPropertyOp30
 70
     1
102
RTVSPropertyOp31
 70
     1
102
RTVSPropertyOp32
 70
     1
102
RTVSPropertyOp33
 70
     1
102
RTVSPropertyOp34
 70
     1
102
RTVSPropertyOp35
 70
     1
102
RTVSPropertyOp36
 70
     1
102
RTVSPropertyOp37
 70
     1
102
RTVSPropertyOp38
 70
     1
102
RTVSPropertyOp39
 70
     1
102
RTVSPropertyOp40
 70
     1
102
RTVSPropertyOp41
 70
     1
102
RTVSPropertyOp42
 70
     1
102
RTVSPropertyOp43
 70
     1
102
RTVSPropertyOp44
 70
     1
102
RTVSPropertyOp45
 70
     1
102
RTVSPropertyOp46
 70
     1
102
RTVSPropertyOp47
 70
     1
102
RTVSPropertyOp48
 70
     1
102
RTVSPropertyOp49
 70
     1
102
RTVSPropertyOp50
 70
     1
102
RTVSPropertyOp51
 70
     0
102
RTVSPropertyOp52
 70
     0
102
RTVSPropertyOp53
 70
     1
102
RTVSPropertyOp54
 70
     1
102
RTVSPropertyOp55
 70
     1
102
RTVSPropertyOp56
 70
     1
102
RTVSPropertyOp57
 70
     1
102
RTVSPropertyOp58
 70
     1
102
RTVSPropertyOp59
 70
     1
102
RTVSPropertyOp60
 70
     1
102
RTVSPropertyOp61
 70
     1
102
RTVSPropertyOp62
 70
     1
  0
XRECORD
  5
4ACC
102
{ACAD_REACTORS
330
4ACB
102
}
330
4ACB
100
AcDbXrecord
280
     1
102
RTVSPost2010Prop28
280
     0
102
RTVSPost2010PropOp28
 70
     1
102
RTVSPost2010Prop29
280
     1
102
RTVSPost2010PropOp29
 70
     1
102
RTVSPost2010Prop30
280
     1
102
RTVSPost2010PropOp30
 70
     1
102
RTVSPost2010Prop31
280
     0
102
RTVSPost2010PropOp31
 70
     1
102
RTVSPost2010Prop32
280
     0
102
RTVSPost2010PropOp32
 70
     1
102
RTVSPost2010Prop33
280
     0
102
RTVSPost2010PropOp33
 70
     1
102
RTVSPost2010Prop34
280
     0
102
RTVSPost2010PropOp34
 70
     1
102
RTVSPost2010Prop35
280
     0
102
RTVSPost2010PropOp35
 70
     1
102
RTVSPost2010Prop36
280
     0
102
RTVSPost2010PropOp36
 70
     1
102
RTVSPost2010Prop37
 90
       50
102
RTVSPost2010PropOp37
 70
     1
102
RTVSPost2010Prop38
140
0.0
102
RTVSPost2010PropOp38
 70
     1
102
RTVSPost2010Prop39
140
1.0
102
RTVSPost2010PropOp39
 70
     1
102
RTVSPost2010Prop40
 90
        0
102
RTVSPost2010PropOp40
 70
     1
102
RTVSPost2010Prop41ColorIndex
 90
       18
102
RTVSPost2010Prop41ColorRGB
 90
        0
102
RTVSPost2010PropOp41
 70
     1
102
RTVSPost2010Prop42
 90
       50
102
RTVSPost2010PropOp42
 70
     1
102
RTVSPost2010Prop43
 90
        3
102
RTVSPost2010PropOp43
 70
     1
102
RTVSPost2010Prop44ColorIndex
 90
        5
102
RTVSPost2010Prop44ColorRGB
 90
      255
102
RTVSPost2010PropOp44
 70
     1
102
RTVSPost2010Prop45
280
     0
102
RTVSPost2010PropOp45
 70
     1
102
RTVSPost2010Prop46
 90
       50
102
RTVSPost2010PropOp46
 70
     1
102
RTVSPost2010Prop47
 90
       50
102
RTVSPost2010PropOp47
 70
     1
102
RTVSPost2010Prop48
 90
       50
102
RTVSPost2010PropOp48
 70
     1
102
RTVSPost2010Prop49
280
     0
102
RTVSPost2010PropOp49
 70
     1
102
RTVSPost2010Prop50
 90
       50
102
RTVSPost2010PropOp50
 70
     1
102
RTVSPost2010Prop51ColorIndex
 90
      256
102
RTVSPost2010Prop51ColorRGB
 90
-16777216
102
RTVSPost2010PropOp51
 70
     0
102
RTVSPost2010Prop52
140
1.0
102
RTVSPost2010PropOp52
 70
     0
102
RTVSPost2010Prop53
 90
        2
102
RTVSPost2010PropOp53
 70
     1
102
RTVSPost2010Prop54
  1
strokes_ogs.tif
102
RTVSPost2010PropOp54
 70
     1
102
RTVSPost2010Prop55
280
     0
102
RTVSPost2010PropOp55
 70
     1
102
RTVSPost2010Prop56
140
1.0
102
RTVSPost2010PropOp56
 70
     1
102
RTVSPost2010Prop57
140
1.0
102
RTVSPost2010PropOp57
 70
     1
102
RTVSPropertyOp0
 70
     1
102
RTVSPropertyOp1
 70
     1
102
RTVSPropertyOp2
 70
     1
102
RTVSPropertyOp3
 70
     1
102
RTVSPropertyOp4
 70
     1
102
RTVSPropertyOp5
 70
     1
102
RTVSPropertyOp6
 70
     1
102
RTVSPropertyOp7
 70
     1
102
RTVSPropertyOp8
 70
     1
102
RTVSPropertyOp9
 70
     1
102
RTVSPropertyOp10
 70
     1
102
RTVSPropertyOp11
 70
     1
102
RTVSPropertyOp12
 70
     1
102
RTVSPropertyOp13
 70
     1
102
RTVSPropertyOp14
 70
     1
102
RTVSPropertyOp15
 70
     1
102
RTVSPropertyOp16
 70
     1
102
RTVSPropertyOp17
 70
     1
102
RTVSPropertyOp18
 70
     1
102
RTVSPropertyOp19
 70
     1
102
RTVSPropertyOp20
 70
     1
102
RTVSPropertyOp21
 70
     1
102
RTVSPropertyOp22
 70
     1
102
RTVSPropertyOp23
 70
     1
102
RTVSPropertyOp24
 70
     1
102
RTVSPropertyOp25
 70
     1
102
RTVSPropertyOp26
 70
     1
102
RTVSPropertyOp27
 70
     1
102
RTVSPropertyOp28
 70
     1
102
RTVSPropertyOp29
 70
     1
102
RTVSPropertyOp30
 70
     1
102
RTVSPropertyOp31
 70
     1
102
RTVSPropertyOp32
 70
     1
102
RTVSPropertyOp33
 70
     1
102
RTVSPropertyOp34
 70
     1
102
RTVSPropertyOp35
 70
     1
102
RTVSPropertyOp36
 70
     1
102
RTVSPropertyOp37
 70
     1
102
RTVSPropertyOp38
 70
     1
102
RTVSPropertyOp39
 70
     1
102
RTVSPropertyOp40
 70
     1
102
RTVSPropertyOp41
 70
     1
102
RTVSPropertyOp42
 70
     1
102
RTVSPropertyOp43
 70
     1
102
RTVSPropertyOp44
 70
     1
102
RTVSPropertyOp45
 70
     1
102
RTVSPropertyOp46
 70
     1
102
RTVSPropertyOp47
 70
     1
102
RTVSPropertyOp48
 70
     1
102
RTVSPropertyOp49
 70
     1
102
RTVSPropertyOp50
 70
     1
102
RTVSPropertyOp51
 70
     0
102
RTVSPropertyOp52
 70
     0
102
RTVSPropertyOp53
 70
     1
102
RTVSPropertyOp54
 70
     1
102
RTVSPropertyOp55
 70
     1
102
RTVSPropertyOp56
 70
     1
102
RTVSPropertyOp57
 70
     1
102
RTVSPropertyOp58
 70
     1
102
RTVSPropertyOp59
 70
     1
102
RTVSPropertyOp60
 70
     1
102
RTVSPropertyOp61
 70
     1
102
RTVSPropertyOp62
 70
     1
  0
XRECORD
  5
4AD0
102
{ACAD_REACTORS
330
4ACF
102
}
330
4ACF
100
AcDbXrecord
280
     1
102
RTVSPost2010Prop28
280
     0
102
RTVSPost2010PropOp28
 70
     1
102
RTVSPost2010Prop29
280
     1
102
RTVSPost2010PropOp29
 70
     1
102
RTVSPost2010Prop30
280
     1
102
RTVSPost2010PropOp30
 70
     1
102
RTVSPost2010Prop31
280
     0
102
RTVSPost2010PropOp31
 70
     1
102
RTVSPost2010Prop32
280
     0
102
RTVSPost2010PropOp32
 70
     1
102
RTVSPost2010Prop33
280
     0
102
RTVSPost2010PropOp33
 70
     1
102
RTVSPost2010Prop34
280
     0
102
RTVSPost2010PropOp34
 70
     1
102
RTVSPost2010Prop35
280
     0
102
RTVSPost2010PropOp35
 70
     1
102
RTVSPost2010Prop36
280
     0
102
RTVSPost2010PropOp36
 70
     1
102
RTVSPost2010Prop37
 90
       50
102
RTVSPost2010PropOp37
 70
     1
102
RTVSPost2010Prop38
140
0.0
102
RTVSPost2010PropOp38
 70
     1
102
RTVSPost2010Prop39
140
1.0
102
RTVSPost2010PropOp39
 70
     1
102
RTVSPost2010Prop40
 90
        0
102
RTVSPost2010PropOp40
 70
     1
102
RTVSPost2010Prop41ColorIndex
 90
       18
102
RTVSPost2010Prop41ColorRGB
 90
        0
102
RTVSPost2010PropOp41
 70
     1
102
RTVSPost2010Prop42
 90
       50
102
RTVSPost2010PropOp42
 70
     1
102
RTVSPost2010Prop43
 90
        3
102
RTVSPost2010PropOp43
 70
     1
102
RTVSPost2010Prop44ColorIndex
 90
        5
102
RTVSPost2010Prop44ColorRGB
 90
      255
102
RTVSPost2010PropOp44
 70
     1
102
RTVSPost2010Prop45
280
     0
102
RTVSPost2010PropOp45
 70
     1
102
RTVSPost2010Prop46
 90
       50
102
RTVSPost2010PropOp46
 70
     1
102
RTVSPost2010Prop47
 90
       50
102
RTVSPost2010PropOp47
 70
     1
102
RTVSPost2010Prop48
 90
       50
102
RTVSPost2010PropOp48
 70
     1
102
RTVSPost2010Prop49
280
     0
102
RTVSPost2010PropOp49
 70
     1
102
RTVSPost2010Prop50
 90
       50
102
RTVSPost2010PropOp50
 70
     1
102
RTVSPost2010Prop51ColorIndex
 90
      256
102
RTVSPost2010Prop51ColorRGB
 90
-16777216
102
RTVSPost2010PropOp51
 70
     0
102
RTVSPost2010Prop52
140
1.0
102
RTVSPost2010PropOp52
 70
     0
102
RTVSPost2010Prop53
 90
        2
102
RTVSPost2010PropOp53
 70
     1
102
RTVSPost2010Prop54
  1
strokes_ogs.tif
102
RTVSPost2010PropOp54
 70
     1
102
RTVSPost2010Prop55
280
     0
102
RTVSPost2010PropOp55
 70
     1
102
RTVSPost2010Prop56
140
1.0
102
RTVSPost2010PropOp56
 70
     1
102
RTVSPost2010Prop57
140
1.0
102
RTVSPost2010PropOp57
 70
     1
102
RTVSPropertyOp0
 70
     1
102
RTVSPropertyOp1
 70
     1
102
RTVSPropertyOp2
 70
     1
102
RTVSPropertyOp3
 70
     1
102
RTVSPropertyOp4
 70
     1
102
RTVSPropertyOp5
 70
     1
102
RTVSPropertyOp6
 70
     1
102
RTVSPropertyOp7
 70
     1
102
RTVSPropertyOp8
 70
     1
102
RTVSPropertyOp9
 70
     1
102
RTVSPropertyOp10
 70
     1
102
RTVSPropertyOp11
 70
     1
102
RTVSPropertyOp12
 70
     1
102
RTVSPropertyOp13
 70
     1
102
RTVSPropertyOp14
 70
     1
102
RTVSPropertyOp15
 70
     1
102
RTVSPropertyOp16
 70
     1
102
RTVSPropertyOp17
 70
     1
102
RTVSPropertyOp18
 70
     1
102
RTVSPropertyOp19
 70
     1
102
RTVSPropertyOp20
 70
     1
102
RTVSPropertyOp21
 70
     1
102
RTVSPropertyOp22
 70
     1
102
RTVSPropertyOp23
 70
     1
102
RTVSPropertyOp24
 70
     1
102
RTVSPropertyOp25
 70
     1
102
RTVSPropertyOp26
 70
     1
102
RTVSPropertyOp27
 70
     1
102
RTVSPropertyOp28
 70
     1
102
RTVSPropertyOp29
 70
     1
102
RTVSPropertyOp30
 70
     1
102
RTVSPropertyOp31
 70
     1
102
RTVSPropertyOp32
 70
     1
102
RTVSPropertyOp33
 70
     1
102
RTVSPropertyOp34
 70
     1
102
RTVSPropertyOp35
 70
     1
102
RTVSPropertyOp36
 70
     1
102
RTVSPropertyOp37
 70
     1
102
RTVSPropertyOp38
 70
     1
102
RTVSPropertyOp39
 70
     1
102
RTVSPropertyOp40
 70
     1
102
RTVSPropertyOp41
 70
     1
102
RTVSPropertyOp42
 70
     1
102
RTVSPropertyOp43
 70
     1
102
RTVSPropertyOp44
 70
     1
102
RTVSPropertyOp45
 70
     1
102
RTVSPropertyOp46
 70
     1
102
RTVSPropertyOp47
 70
     1
102
RTVSPropertyOp48
 70
     1
102
RTVSPropertyOp49
 70
     1
102
RTVSPropertyOp50
 70
     1
102
RTVSPropertyOp51
 70
     0
102
RTVSPropertyOp52
 70
     0
102
RTVSPropertyOp53
 70
     1
102
RTVSPropertyOp54
 70
     1
102
RTVSPropertyOp55
 70
     1
102
RTVSPropertyOp56
 70
     1
102
RTVSPropertyOp57
 70
     1
102
RTVSPropertyOp58
 70
     1
102
RTVSPropertyOp59
 70
     1
102
RTVSPropertyOp60
 70
     1
102
RTVSPropertyOp61
 70
     1
102
RTVSPropertyOp62
 70
     1
  0
XRECORD
  5
4AE2
102
{ACAD_REACTORS
330
4AE1
102
}
330
4AE1
100
AcDbXrecord
280
     1
102
RTVSPost2010Prop28
280
     0
102
RTVSPost2010PropOp28
 70
     1
102
RTVSPost2010Prop29
280
     1
102
RTVSPost2010PropOp29
 70
     1
102
RTVSPost2010Prop30
280
     1
102
RTVSPost2010PropOp30
 70
     1
102
RTVSPost2010Prop31
280
     0
102
RTVSPost2010PropOp31
 70
     1
102
RTVSPost2010Prop32
280
     0
102
RTVSPost2010PropOp32
 70
     1
102
RTVSPost2010Prop33
280
     0
102
RTVSPost2010PropOp33
 70
     1
102
RTVSPost2010Prop34
280
     0
102
RTVSPost2010PropOp34
 70
     1
102
RTVSPost2010Prop35
280
     0
102
RTVSPost2010PropOp35
 70
     1
102
RTVSPost2010Prop36
280
     0
102
RTVSPost2010PropOp36
 70
     1
102
RTVSPost2010Prop37
 90
       50
102
RTVSPost2010PropOp37
 70
     1
102
RTVSPost2010Prop38
140
0.0
102
RTVSPost2010PropOp38
 70
     1
102
RTVSPost2010Prop39
140
1.0
102
RTVSPost2010PropOp39
 70
     1
102
RTVSPost2010Prop40
 90
        0
102
RTVSPost2010PropOp40
 70
     1
102
RTVSPost2010Prop41ColorIndex
 90
       18
102
RTVSPost2010Prop41ColorRGB
 90
        0
102
RTVSPost2010PropOp41
 70
     1
102
RTVSPost2010Prop42
 90
       50
102
RTVSPost2010PropOp42
 70
     1
102
RTVSPost2010Prop43
 90
        3
102
RTVSPost2010PropOp43
 70
     1
102
RTVSPost2010Prop44ColorIndex
 90
        5
102
RTVSPost2010Prop44ColorRGB
 90
      255
102
RTVSPost2010PropOp44
 70
     1
102
RTVSPost2010Prop45
280
     0
102
RTVSPost2010PropOp45
 70
     1
102
RTVSPost2010Prop46
 90
       50
102
RTVSPost2010PropOp46
 70
     1
102
RTVSPost2010Prop47
 90
       50
102
RTVSPost2010PropOp47
 70
     1
102
RTVSPost2010Prop48
 90
       50
102
RTVSPost2010PropOp48
 70
     1
102
RTVSPost2010Prop49
280
     0
102
RTVSPost2010PropOp49
 70
     1
102
RTVSPost2010Prop50
 90
       50
102
RTVSPost2010PropOp50
 70
     1
102
RTVSPost2010Prop51ColorIndex
 90
      256
102
RTVSPost2010Prop51ColorRGB
 90
-16777216
102
RTVSPost2010PropOp51
 70
     0
102
RTVSPost2010Prop52
140
1.0
102
RTVSPost2010PropOp52
 70
     0
102
RTVSPost2010Prop53
 90
        2
102
RTVSPost2010PropOp53
 70
     1
102
RTVSPost2010Prop54
  1
strokes_ogs.tif
102
RTVSPost2010PropOp54
 70
     1
102
RTVSPost2010Prop55
280
     0
102
RTVSPost2010PropOp55
 70
     1
102
RTVSPost2010Prop56
140
1.0
102
RTVSPost2010PropOp56
 70
     1
102
RTVSPost2010Prop57
140
1.0
102
RTVSPost2010PropOp57
 70
     1
102
RTVSPropertyOp0
 70
     0
102
RTVSPropertyOp1
 70
     0
102
RTVSPropertyOp2
 70
     0
102
RTVSPropertyOp3
 70
     0
102
RTVSPropertyOp4
 70
     0
102
RTVSPropertyOp5
 70
     0
102
RTVSPropertyOp6
 70
     0
102
RTVSPropertyOp7
 70
     0
102
RTVSPropertyOp8
 70
     0
102
RTVSPropertyOp9
 70
     0
102
RTVSPropertyOp10
 70
     0
102
RTVSPropertyOp11
 70
     0
102
RTVSPropertyOp12
 70
     0
102
RTVSPropertyOp13
 70
     0
102
RTVSPropertyOp14
 70
     2
102
RTVSPropertyOp15
 70
     0
102
RTVSPropertyOp16
 70
     0
102
RTVSPropertyOp17
 70
     0
102
RTVSPropertyOp18
 70
     0
102
RTVSPropertyOp19
 70
     0
102
RTVSPropertyOp20
 70
     0
102
RTVSPropertyOp21
 70
     0
102
RTVSPropertyOp22
 70
     0
102
RTVSPropertyOp23
 70
     0
102
RTVSPropertyOp24
 70
     0
102
RTVSPropertyOp25
 70
     0
102
RTVSPropertyOp26
 70
     0
102
RTVSPropertyOp27
 70
     0
102
RTVSPropertyOp28
 70
     1
102
RTVSPropertyOp29
 70
     1
102
RTVSPropertyOp30
 70
     1
102
RTVSPropertyOp31
 70
     1
102
RTVSPropertyOp32
 70
     1
102
RTVSPropertyOp33
 70
     1
102
RTVSPropertyOp34
 70
     1
102
RTVSPropertyOp35
 70
     1
102
RTVSPropertyOp36
 70
     1
102
RTVSPropertyOp37
 70
     1
102
RTVSPropertyOp38
 70
     1
102
RTVSPropertyOp39
 70
     1
102
RTVSPropertyOp40
 70
     1
102
RTVSPropertyOp41
 70
     1
102
RTVSPropertyOp42
 70
     1
102
RTVSPropertyOp43
 70
     1
102
RTVSPropertyOp44
 70
     1
102
RTVSPropertyOp45
 70
     1
102
RTVSPropertyOp46
 70
     1
102
RTVSPropertyOp47
 70
     1
102
RTVSPropertyOp48
 70
     1
102
RTVSPropertyOp49
 70
     1
102
RTVSPropertyOp50
 70
     1
102
RTVSPropertyOp51
 70
     0
102
RTVSPropertyOp52
 70
     0
102
RTVSPropertyOp53
 70
     1
102
RTVSPropertyOp54
 70
     1
102
RTVSPropertyOp55
 70
     1
102
RTVSPropertyOp56
 70
     1
102
RTVSPropertyOp57
 70
     1
102
RTVSPropertyOp58
 70
     1
102
RTVSPropertyOp59
 70
     1
102
RTVSPropertyOp60
 70
     1
102
RTVSPropertyOp61
 70
     1
102
RTVSPropertyOp62
 70
     1
  0
XRECORD
  5
4AD8
102
{ACAD_REACTORS
330
4AD7
102
}
330
4AD7
100
AcDbXrecord
280
     1
102
RTVSPost2010Prop28
280
     0
102
RTVSPost2010PropOp28
 70
     1
102
RTVSPost2010Prop29
280
     1
102
RTVSPost2010PropOp29
 70
     1
102
RTVSPost2010Prop30
280
     1
102
RTVSPost2010PropOp30
 70
     1
102
RTVSPost2010Prop31
280
     0
102
RTVSPost2010PropOp31
 70
     1
102
RTVSPost2010Prop32
280
     0
102
RTVSPost2010PropOp32
 70
     1
102
RTVSPost2010Prop33
280
     0
102
RTVSPost2010PropOp33
 70
     1
102
RTVSPost2010Prop34
280
     0
102
RTVSPost2010PropOp34
 70
     1
102
RTVSPost2010Prop35
280
     0
102
RTVSPost2010PropOp35
 70
     1
102
RTVSPost2010Prop36
280
     0
102
RTVSPost2010PropOp36
 70
     1
102
RTVSPost2010Prop37
 90
       50
102
RTVSPost2010PropOp37
 70
     1
102
RTVSPost2010Prop38
140
0.0
102
RTVSPost2010PropOp38
 70
     1
102
RTVSPost2010Prop39
140
1.0
102
RTVSPost2010PropOp39
 70
     1
102
RTVSPost2010Prop40
 90
        0
102
RTVSPost2010PropOp40
 70
     1
102
RTVSPost2010Prop41ColorIndex
 90
       18
102
RTVSPost2010Prop41ColorRGB
 90
        0
102
RTVSPost2010PropOp41
 70
     1
102
RTVSPost2010Prop42
 90
       50
102
RTVSPost2010PropOp42
 70
     1
102
RTVSPost2010Prop43
 90
        3
102
RTVSPost2010PropOp43
 70
     1
102
RTVSPost2010Prop44ColorIndex
 90
        5
102
RTVSPost2010Prop44ColorRGB
 90
      255
102
RTVSPost2010PropOp44
 70
     1
102
RTVSPost2010Prop45
280
     0
102
RTVSPost2010PropOp45
 70
     1
102
RTVSPost2010Prop46
 90
       50
102
RTVSPost2010PropOp46
 70
     1
102
RTVSPost2010Prop47
 90
       50
102
RTVSPost2010PropOp47
 70
     1
102
RTVSPost2010Prop48
 90
       50
102
RTVSPost2010PropOp48
 70
     1
102
RTVSPost2010Prop49
280
     0
102
RTVSPost2010PropOp49
 70
     1
102
RTVSPost2010Prop50
 90
       50
102
RTVSPost2010PropOp50
 70
     1
102
RTVSPost2010Prop51ColorIndex
 90
      256
102
RTVSPost2010Prop51ColorRGB
 90
-16777216
102
RTVSPost2010PropOp51
 70
     0
102
RTVSPost2010Prop52
140
1.0
102
RTVSPost2010PropOp52
 70
     0
102
RTVSPost2010Prop53
 90
        2
102
RTVSPost2010PropOp53
 70
     1
102
RTVSPost2010Prop54
  1
strokes_ogs.tif
102
RTVSPost2010PropOp54
 70
     1
102
RTVSPost2010Prop55
280
     0
102
RTVSPost2010PropOp55
 70
     1
102
RTVSPost2010Prop56
140
1.0
102
RTVSPost2010PropOp56
 70
     1
102
RTVSPost2010Prop57
140
1.0
102
RTVSPost2010PropOp57
 70
     1
102
RTVSPropertyOp0
 70
     1
102
RTVSPropertyOp1
 70
     1
102
RTVSPropertyOp2
 70
     1
102
RTVSPropertyOp3
 70
     1
102
RTVSPropertyOp4
 70
     1
102
RTVSPropertyOp5
 70
     1
102
RTVSPropertyOp6
 70
     1
102
RTVSPropertyOp7
 70
     1
102
RTVSPropertyOp8
 70
     1
102
RTVSPropertyOp9
 70
     1
102
RTVSPropertyOp10
 70
     1
102
RTVSPropertyOp11
 70
     1
102
RTVSPropertyOp12
 70
     1
102
RTVSPropertyOp13
 70
     1
102
RTVSPropertyOp14
 70
     1
102
RTVSPropertyOp15
 70
     1
102
RTVSPropertyOp16
 70
     1
102
RTVSPropertyOp17
 70
     1
102
RTVSPropertyOp18
 70
     1
102
RTVSPropertyOp19
 70
     1
102
RTVSPropertyOp20
 70
     1
102
RTVSPropertyOp21
 70
     1
102
RTVSPropertyOp22
 70
     1
102
RTVSPropertyOp23
 70
     1
102
RTVSPropertyOp24
 70
     1
102
RTVSPropertyOp25
 70
     1
102
RTVSPropertyOp26
 70
     1
102
RTVSPropertyOp27
 70
     1
102
RTVSPropertyOp28
 70
     1
102
RTVSPropertyOp29
 70
     1
102
RTVSPropertyOp30
 70
     1
102
RTVSPropertyOp31
 70
     1
102
RTVSPropertyOp32
 70
     1
102
RTVSPropertyOp33
 70
     1
102
RTVSPropertyOp34
 70
     1
102
RTVSPropertyOp35
 70
     1
102
RTVSPropertyOp36
 70
     1
102
RTVSPropertyOp37
 70
     1
102
RTVSPropertyOp38
 70
     1
102
RTVSPropertyOp39
 70
     1
102
RTVSPropertyOp40
 70
     1
102
RTVSPropertyOp41
 70
     1
102
RTVSPropertyOp42
 70
     1
102
RTVSPropertyOp43
 70
     1
102
RTVSPropertyOp44
 70
     1
102
RTVSPropertyOp45
 70
     1
102
RTVSPropertyOp46
 70
     1
102
RTVSPropertyOp47
 70
     1
102
RTVSPropertyOp48
 70
     1
102
RTVSPropertyOp49
 70
     1
102
RTVSPropertyOp50
 70
     1
102
RTVSPropertyOp51
 70
     0
102
RTVSPropertyOp52
 70
     0
102
RTVSPropertyOp53
 70
     1
102
RTVSPropertyOp54
 70
     1
102
RTVSPropertyOp55
 70
     1
102
RTVSPropertyOp56
 70
     1
102
RTVSPropertyOp57
 70
     1
102
RTVSPropertyOp58
 70
     1
102
RTVSPropertyOp59
 70
     1
102
RTVSPropertyOp60
 70
     1
102
RTVSPropertyOp61
 70
     1
102
RTVSPropertyOp62
 70
     1
  0
XRECORD
  5
4ABC
102
{ACAD_REACTORS
330
4ABB
102
}
330
4ABB
100
AcDbXrecord
280
     1
102
RTVSPost2010Prop28
280
     0
102
RTVSPost2010PropOp28
 70
     1
102
RTVSPost2010Prop29
280
     1
102
RTVSPost2010PropOp29
 70
     1
102
RTVSPost2010Prop30
280
     1
102
RTVSPost2010PropOp30
 70
     1
102
RTVSPost2010Prop31
280
     0
102
RTVSPost2010PropOp31
 70
     1
102
RTVSPost2010Prop32
280
     0
102
RTVSPost2010PropOp32
 70
     1
102
RTVSPost2010Prop33
280
     0
102
RTVSPost2010PropOp33
 70
     1
102
RTVSPost2010Prop34
280
     0
102
RTVSPost2010PropOp34
 70
     1
102
RTVSPost2010Prop35
280
     0
102
RTVSPost2010PropOp35
 70
     1
102
RTVSPost2010Prop36
280
     0
102
RTVSPost2010PropOp36
 70
     1
102
RTVSPost2010Prop37
 90
       50
102
RTVSPost2010PropOp37
 70
     1
102
RTVSPost2010Prop38
140
0.0
102
RTVSPost2010PropOp38
 70
     1
102
RTVSPost2010Prop39
140
1.0
102
RTVSPost2010PropOp39
 70
     1
102
RTVSPost2010Prop40
 90
        0
102
RTVSPost2010PropOp40
 70
     1
102
RTVSPost2010Prop41ColorIndex
 90
       18
102
RTVSPost2010Prop41ColorRGB
 90
        0
102
RTVSPost2010PropOp41
 70
     1
102
RTVSPost2010Prop42
 90
       50
102
RTVSPost2010PropOp42
 70
     1
102
RTVSPost2010Prop43
 90
        3
102
RTVSPost2010PropOp43
 70
     1
102
RTVSPost2010Prop44ColorIndex
 90
        5
102
RTVSPost2010Prop44ColorRGB
 90
      255
102
RTVSPost2010PropOp44
 70
     1
102
RTVSPost2010Prop45
280
     0
102
RTVSPost2010PropOp45
 70
     1
102
RTVSPost2010Prop46
 90
       50
102
RTVSPost2010PropOp46
 70
     1
102
RTVSPost2010Prop47
 90
       50
102
RTVSPost2010PropOp47
 70
     1
102
RTVSPost2010Prop48
 90
       50
102
RTVSPost2010PropOp48
 70
     1
102
RTVSPost2010Prop49
280
     0
102
RTVSPost2010PropOp49
 70
     1
102
RTVSPost2010Prop50
 90
       50
102
RTVSPost2010PropOp50
 70
     1
102
RTVSPost2010Prop51ColorIndex
 90
      256
102
RTVSPost2010Prop51ColorRGB
 90
-16777216
102
RTVSPost2010PropOp51
 70
     0
102
RTVSPost2010Prop52
140
1.0
102
RTVSPost2010PropOp52
 70
     0
102
RTVSPost2010Prop53
 90
        2
102
RTVSPost2010PropOp53
 70
     1
102
RTVSPost2010Prop54
  1
strokes_ogs.tif
102
RTVSPost2010PropOp54
 70
     1
102
RTVSPost2010Prop55
280
     0
102
RTVSPost2010PropOp55
 70
     1
102
RTVSPost2010Prop56
140
1.0
102
RTVSPost2010PropOp56
 70
     1
102
RTVSPost2010Prop57
140
1.0
102
RTVSPost2010PropOp57
 70
     1
102
RTVSPropertyOp0
 70
     1
102
RTVSPropertyOp1
 70
     1
102
RTVSPropertyOp2
 70
     1
102
RTVSPropertyOp3
 70
     1
102
RTVSPropertyOp4
 70
     1
102
RTVSPropertyOp5
 70
     1
102
RTVSPropertyOp6
 70
     1
102
RTVSPropertyOp7
 70
     1
102
RTVSPropertyOp8
 70
     1
102
RTVSPropertyOp9
 70
     1
102
RTVSPropertyOp10
 70
     1
102
RTVSPropertyOp11
 70
     1
102
RTVSPropertyOp12
 70
     1
102
RTVSPropertyOp13
 70
     1
102
RTVSPropertyOp14
 70
     1
102
RTVSPropertyOp15
 70
     1
102
RTVSPropertyOp16
 70
     1
102
RTVSPropertyOp17
 70
     1
102
RTVSPropertyOp18
 70
     1
102
RTVSPropertyOp19
 70
     1
102
RTVSPropertyOp20
 70
     1
102
RTVSPropertyOp21
 70
     1
102
RTVSPropertyOp22
 70
     1
102
RTVSPropertyOp23
 70
     1
102
RTVSPropertyOp24
 70
     1
102
RTVSPropertyOp25
 70
     1
102
RTVSPropertyOp26
 70
     1
102
RTVSPropertyOp27
 70
     1
102
RTVSPropertyOp28
 70
     1
102
RTVSPropertyOp29
 70
     1
102
RTVSPropertyOp30
 70
     1
102
RTVSPropertyOp31
 70
     1
102
RTVSPropertyOp32
 70
     1
102
RTVSPropertyOp33
 70
     1
102
RTVSPropertyOp34
 70
     1
102
RTVSPropertyOp35
 70
     1
102
RTVSPropertyOp36
 70
     1
102
RTVSPropertyOp37
 70
     1
102
RTVSPropertyOp38
 70
     1
102
RTVSPropertyOp39
 70
     1
102
RTVSPropertyOp40
 70
     1
102
RTVSPropertyOp41
 70
     1
102
RTVSPropertyOp42
 70
     1
102
RTVSPropertyOp43
 70
     1
102
RTVSPropertyOp44
 70
     1
102
RTVSPropertyOp45
 70
     1
102
RTVSPropertyOp46
 70
     1
102
RTVSPropertyOp47
 70
     1
102
RTVSPropertyOp48
 70
     1
102
RTVSPropertyOp49
 70
     1
102
RTVSPropertyOp50
 70
     1
102
RTVSPropertyOp51
 70
     0
102
RTVSPropertyOp52
 70
     0
102
RTVSPropertyOp53
 70
     1
102
RTVSPropertyOp54
 70
     1
102
RTVSPropertyOp55
 70
     1
102
RTVSPropertyOp56
 70
     1
102
RTVSPropertyOp57
 70
     1
102
RTVSPropertyOp58
 70
     1
102
RTVSPropertyOp59
 70
     1
102
RTVSPropertyOp60
 70
     1
102
RTVSPropertyOp61
 70
     1
102
RTVSPropertyOp62
 70
     1
  0
XRECORD
  5
4ABE
102
{ACAD_REACTORS
330
4ABD
102
}
330
4ABD
100
AcDbXrecord
280
     1
102
RTVSPost2010Prop28
280
     0
102
RTVSPost2010PropOp28
 70
     1
102
RTVSPost2010Prop29
280
     1
102
RTVSPost2010PropOp29
 70
     1
102
RTVSPost2010Prop30
280
     1
102
RTVSPost2010PropOp30
 70
     1
102
RTVSPost2010Prop31
280
     0
102
RTVSPost2010PropOp31
 70
     1
102
RTVSPost2010Prop32
280
     0
102
RTVSPost2010PropOp32
 70
     1
102
RTVSPost2010Prop33
280
     0
102
RTVSPost2010PropOp33
 70
     1
102
RTVSPost2010Prop34
280
     0
102
RTVSPost2010PropOp34
 70
     1
102
RTVSPost2010Prop35
280
     0
102
RTVSPost2010PropOp35
 70
     1
102
RTVSPost2010Prop36
280
     0
102
RTVSPost2010PropOp36
 70
     1
102
RTVSPost2010Prop37
 90
       50
102
RTVSPost2010PropOp37
 70
     1
102
RTVSPost2010Prop38
140
0.0
102
RTVSPost2010PropOp38
 70
     1
102
RTVSPost2010Prop39
140
1.0
102
RTVSPost2010PropOp39
 70
     1
102
RTVSPost2010Prop40
 90
        0
102
RTVSPost2010PropOp40
 70
     1
102
RTVSPost2010Prop41ColorIndex
 90
       18
102
RTVSPost2010Prop41ColorRGB
 90
        0
102
RTVSPost2010PropOp41
 70
     1
102
RTVSPost2010Prop42
 90
       50
102
RTVSPost2010PropOp42
 70
     1
102
RTVSPost2010Prop43
 90
        3
102
RTVSPost2010PropOp43
 70
     1
102
RTVSPost2010Prop44ColorIndex
 90
        5
102
RTVSPost2010Prop44ColorRGB
 90
      255
102
RTVSPost2010PropOp44
 70
     1
102
RTVSPost2010Prop45
280
     0
102
RTVSPost2010PropOp45
 70
     1
102
RTVSPost2010Prop46
 90
       50
102
RTVSPost2010PropOp46
 70
     1
102
RTVSPost2010Prop47
 90
       50
102
RTVSPost2010PropOp47
 70
     1
102
RTVSPost2010Prop48
 90
       50
102
RTVSPost2010PropOp48
 70
     1
102
RTVSPost2010Prop49
280
     0
102
RTVSPost2010PropOp49
 70
     1
102
RTVSPost2010Prop50
 90
       50
102
RTVSPost2010PropOp50
 70
     1
102
RTVSPost2010Prop51ColorIndex
 90
      256
102
RTVSPost2010Prop51ColorRGB
 90
-16777216
102
RTVSPost2010PropOp51
 70
     0
102
RTVSPost2010Prop52
140
1.0
102
RTVSPost2010PropOp52
 70
     0
102
RTVSPost2010Prop53
 90
        2
102
RTVSPost2010PropOp53
 70
     1
102
RTVSPost2010Prop54
  1
strokes_ogs.tif
102
RTVSPost2010PropOp54
 70
     1
102
RTVSPost2010Prop55
280
     0
102
RTVSPost2010PropOp55
 70
     1
102
RTVSPost2010Prop56
140
1.0
102
RTVSPost2010PropOp56
 70
     1
102
RTVSPost2010Prop57
140
1.0
102
RTVSPost2010PropOp57
 70
     1
102
RTVSPropertyOp0
 70
     1
102
RTVSPropertyOp1
 70
     1
102
RTVSPropertyOp2
 70
     1
102
RTVSPropertyOp3
 70
     1
102
RTVSPropertyOp4
 70
     1
102
RTVSPropertyOp5
 70
     1
102
RTVSPropertyOp6
 70
     1
102
RTVSPropertyOp7
 70
     1
102
RTVSPropertyOp8
 70
     1
102
RTVSPropertyOp9
 70
     1
102
RTVSPropertyOp10
 70
     1
102
RTVSPropertyOp11
 70
     1
102
RTVSPropertyOp12
 70
     1
102
RTVSPropertyOp13
 70
     1
102
RTVSPropertyOp14
 70
     1
102
RTVSPropertyOp15
 70
     1
102
RTVSPropertyOp16
 70
     1
102
RTVSPropertyOp17
 70
     1
102
RTVSPropertyOp18
 70
     1
102
RTVSPropertyOp19
 70
     1
102
RTVSPropertyOp20
 70
     1
102
RTVSPropertyOp21
 70
     1
102
RTVSPropertyOp22
 70
     1
102
RTVSPropertyOp23
 70
     1
102
RTVSPropertyOp24
 70
     1
102
RTVSPropertyOp25
 70
     1
102
RTVSPropertyOp26
 70
     1
102
RTVSPropertyOp27
 70
     1
102
RTVSPropertyOp28
 70
     1
102
RTVSPropertyOp29
 70
     1
102
RTVSPropertyOp30
 70
     1
102
RTVSPropertyOp31
 70
     1
102
RTVSPropertyOp32
 70
     1
102
RTVSPropertyOp33
 70
     1
102
RTVSPropertyOp34
 70
     1
102
RTVSPropertyOp35
 70
     1
102
RTVSPropertyOp36
 70
     1
102
RTVSPropertyOp37
 70
     1
102
RTVSPropertyOp38
 70
     1
102
RTVSPropertyOp39
 70
     1
102
RTVSPropertyOp40
 70
     1
102
RTVSPropertyOp41
 70
     1
102
RTVSPropertyOp42
 70
     1
102
RTVSPropertyOp43
 70
     1
102
RTVSPropertyOp44
 70
     1
102
RTVSPropertyOp45
 70
     1
102
RTVSPropertyOp46
 70
     1
102
RTVSPropertyOp47
 70
     1
102
RTVSPropertyOp48
 70
     1
102
RTVSPropertyOp49
 70
     1
102
RTVSPropertyOp50
 70
     1
102
RTVSPropertyOp51
 70
     0
102
RTVSPropertyOp52
 70
     0
102
RTVSPropertyOp53
 70
     1
102
RTVSPropertyOp54
 70
     1
102
RTVSPropertyOp55
 70
     1
102
RTVSPropertyOp56
 70
     1
102
RTVSPropertyOp57
 70
     1
102
RTVSPropertyOp58
 70
     1
102
RTVSPropertyOp59
 70
     1
102
RTVSPropertyOp60
 70
     1
102
RTVSPropertyOp61
 70
     1
102
RTVSPropertyOp62
 70
     1
  0
XRECORD
  5
4AC0
102
{ACAD_REACTORS
330
4ABF
102
}
330
4ABF
100
AcDbXrecord
280
     1
102
RTVSPost2010Prop28
280
     0
102
RTVSPost2010PropOp28
 70
     1
102
RTVSPost2010Prop29
280
     1
102
RTVSPost2010PropOp29
 70
     1
102
RTVSPost2010Prop30
280
     1
102
RTVSPost2010PropOp30
 70
     1
102
RTVSPost2010Prop31
280
     0
102
RTVSPost2010PropOp31
 70
     1
102
RTVSPost2010Prop32
280
     0
102
RTVSPost2010PropOp32
 70
     1
102
RTVSPost2010Prop33
280
     0
102
RTVSPost2010PropOp33
 70
     1
102
RTVSPost2010Prop34
280
     0
102
RTVSPost2010PropOp34
 70
     1
102
RTVSPost2010Prop35
280
     0
102
RTVSPost2010PropOp35
 70
     1
102
RTVSPost2010Prop36
280
     0
102
RTVSPost2010PropOp36
 70
     1
102
RTVSPost2010Prop37
 90
       50
102
RTVSPost2010PropOp37
 70
     1
102
RTVSPost2010Prop38
140
0.0
102
RTVSPost2010PropOp38
 70
     1
102
RTVSPost2010Prop39
140
1.0
102
RTVSPost2010PropOp39
 70
     1
102
RTVSPost2010Prop40
 90
        0
102
RTVSPost2010PropOp40
 70
     1
102
RTVSPost2010Prop41ColorIndex
 90
       18
102
RTVSPost2010Prop41ColorRGB
 90
        0
102
RTVSPost2010PropOp41
 70
     1
102
RTVSPost2010Prop42
 90
       50
102
RTVSPost2010PropOp42
 70
     1
102
RTVSPost2010Prop43
 90
        3
102
RTVSPost2010PropOp43
 70
     1
102
RTVSPost2010Prop44ColorIndex
 90
        5
102
RTVSPost2010Prop44ColorRGB
 90
      255
102
RTVSPost2010PropOp44
 70
     1
102
RTVSPost2010Prop45
280
     0
102
RTVSPost2010PropOp45
 70
     1
102
RTVSPost2010Prop46
 90
       50
102
RTVSPost2010PropOp46
 70
     1
102
RTVSPost2010Prop47
 90
       50
102
RTVSPost2010PropOp47
 70
     1
102
RTVSPost2010Prop48
 90
       50
102
RTVSPost2010PropOp48
 70
     1
102
RTVSPost2010Prop49
280
     0
102
RTVSPost2010PropOp49
 70
     1
102
RTVSPost2010Prop50
 90
       50
102
RTVSPost2010PropOp50
 70
     1
102
RTVSPost2010Prop51ColorIndex
 90
      256
102
RTVSPost2010Prop51ColorRGB
 90
-16777216
102
RTVSPost2010PropOp51
 70
     0
102
RTVSPost2010Prop52
140
1.0
102
RTVSPost2010PropOp52
 70
     0
102
RTVSPost2010Prop53
 90
        2
102
RTVSPost2010PropOp53
 70
     1
102
RTVSPost2010Prop54
  1
strokes_ogs.tif
102
RTVSPost2010PropOp54
 70
     1
102
RTVSPost2010Prop55
280
     0
102
RTVSPost2010PropOp55
 70
     1
102
RTVSPost2010Prop56
140
1.0
102
RTVSPost2010PropOp56
 70
     1
102
RTVSPost2010Prop57
140
1.0
102
RTVSPost2010PropOp57
 70
     1
102
RTVSPropertyOp0
 70
     1
102
RTVSPropertyOp1
 70
     1
102
RTVSPropertyOp2
 70
     1
102
RTVSPropertyOp3
 70
     1
102
RTVSPropertyOp4
 70
     1
102
RTVSPropertyOp5
 70
     1
102
RTVSPropertyOp6
 70
     1
102
RTVSPropertyOp7
 70
     1
102
RTVSPropertyOp8
 70
     1
102
RTVSPropertyOp9
 70
     1
102
RTVSPropertyOp10
 70
     1
102
RTVSPropertyOp11
 70
     1
102
RTVSPropertyOp12
 70
     1
102
RTVSPropertyOp13
 70
     1
102
RTVSPropertyOp14
 70
     1
102
RTVSPropertyOp15
 70
     1
102
RTVSPropertyOp16
 70
     1
102
RTVSPropertyOp17
 70
     1
102
RTVSPropertyOp18
 70
     1
102
RTVSPropertyOp19
 70
     1
102
RTVSPropertyOp20
 70
     1
102
RTVSPropertyOp21
 70
     1
102
RTVSPropertyOp22
 70
     1
102
RTVSPropertyOp23
 70
     1
102
RTVSPropertyOp24
 70
     1
102
RTVSPropertyOp25
 70
     1
102
RTVSPropertyOp26
 70
     1
102
RTVSPropertyOp27
 70
     1
102
RTVSPropertyOp28
 70
     1
102
RTVSPropertyOp29
 70
     1
102
RTVSPropertyOp30
 70
     1
102
RTVSPropertyOp31
 70
     1
102
RTVSPropertyOp32
 70
     1
102
RTVSPropertyOp33
 70
     1
102
RTVSPropertyOp34
 70
     1
102
RTVSPropertyOp35
 70
     1
102
RTVSPropertyOp36
 70
     1
102
RTVSPropertyOp37
 70
     1
102
RTVSPropertyOp38
 70
     1
102
RTVSPropertyOp39
 70
     1
102
RTVSPropertyOp40
 70
     1
102
RTVSPropertyOp41
 70
     1
102
RTVSPropertyOp42
 70
     1
102
RTVSPropertyOp43
 70
     1
102
RTVSPropertyOp44
 70
     1
102
RTVSPropertyOp45
 70
     1
102
RTVSPropertyOp46
 70
     1
102
RTVSPropertyOp47
 70
     1
102
RTVSPropertyOp48
 70
     1
102
RTVSPropertyOp49
 70
     1
102
RTVSPropertyOp50
 70
     1
102
RTVSPropertyOp51
 70
     0
102
RTVSPropertyOp52
 70
     0
102
RTVSPropertyOp53
 70
     1
102
RTVSPropertyOp54
 70
     1
102
RTVSPropertyOp55
 70
     1
102
RTVSPropertyOp56
 70
     1
102
RTVSPropertyOp57
 70
     1
102
RTVSPropertyOp58
 70
     1
102
RTVSPropertyOp59
 70
     1
102
RTVSPropertyOp60
 70
     1
102
RTVSPropertyOp61
 70
     1
102
RTVSPropertyOp62
 70
     1
  0
XRECORD
  5
4AC2
102
{ACAD_REACTORS
330
4AC1
102
}
330
4AC1
100
AcDbXrecord
280
     1
102
RTVSPost2010Prop28
280
     0
102
RTVSPost2010PropOp28
 70
     1
102
RTVSPost2010Prop29
280
     1
102
RTVSPost2010PropOp29
 70
     1
102
RTVSPost2010Prop30
280
     1
102
RTVSPost2010PropOp30
 70
     1
102
RTVSPost2010Prop31
280
     0
102
RTVSPost2010PropOp31
 70
     1
102
RTVSPost2010Prop32
280
     0
102
RTVSPost2010PropOp32
 70
     1
102
RTVSPost2010Prop33
280
     0
102
RTVSPost2010PropOp33
 70
     1
102
RTVSPost2010Prop34
280
     0
102
RTVSPost2010PropOp34
 70
     1
102
RTVSPost2010Prop35
280
     0
102
RTVSPost2010PropOp35
 70
     1
102
RTVSPost2010Prop36
280
     0
102
RTVSPost2010PropOp36
 70
     1
102
RTVSPost2010Prop37
 90
       50
102
RTVSPost2010PropOp37
 70
     1
102
RTVSPost2010Prop38
140
0.0
102
RTVSPost2010PropOp38
 70
     1
102
RTVSPost2010Prop39
140
1.0
102
RTVSPost2010PropOp39
 70
     1
102
RTVSPost2010Prop40
 90
        0
102
RTVSPost2010PropOp40
 70
     1
102
RTVSPost2010Prop41ColorIndex
 90
       18
102
RTVSPost2010Prop41ColorRGB
 90
        0
102
RTVSPost2010PropOp41
 70
     1
102
RTVSPost2010Prop42
 90
       50
102
RTVSPost2010PropOp42
 70
     1
102
RTVSPost2010Prop43
 90
        3
102
RTVSPost2010PropOp43
 70
     1
102
RTVSPost2010Prop44ColorIndex
 90
        5
102
RTVSPost2010Prop44ColorRGB
 90
      255
102
RTVSPost2010PropOp44
 70
     1
102
RTVSPost2010Prop45
280
     0
102
RTVSPost2010PropOp45
 70
     1
102
RTVSPost2010Prop46
 90
       50
102
RTVSPost2010PropOp46
 70
     1
102
RTVSPost2010Prop47
 90
       50
102
RTVSPost2010PropOp47
 70
     1
102
RTVSPost2010Prop48
 90
       50
102
RTVSPost2010PropOp48
 70
     1
102
RTVSPost2010Prop49
280
     0
102
RTVSPost2010PropOp49
 70
     1
102
RTVSPost2010Prop50
 90
       50
102
RTVSPost2010PropOp50
 70
     1
102
RTVSPost2010Prop51ColorIndex
 90
      256
102
RTVSPost2010Prop51ColorRGB
 90
-16777216
102
RTVSPost2010PropOp51
 70
     0
102
RTVSPost2010Prop52
140
1.0
102
RTVSPost2010PropOp52
 70
     0
102
RTVSPost2010Prop53
 90
        2
102
RTVSPost2010PropOp53
 70
     1
102
RTVSPost2010Prop54
  1
strokes_ogs.tif
102
RTVSPost2010PropOp54
 70
     1
102
RTVSPost2010Prop55
280
     0
102
RTVSPost2010PropOp55
 70
     1
102
RTVSPost2010Prop56
140
1.0
102
RTVSPost2010PropOp56
 70
     1
102
RTVSPost2010Prop57
140
1.0
102
RTVSPost2010PropOp57
 70
     1
102
RTVSPropertyOp0
 70
     1
102
RTVSPropertyOp1
 70
     1
102
RTVSPropertyOp2
 70
     1
102
RTVSPropertyOp3
 70
     1
102
RTVSPropertyOp4
 70
     1
102
RTVSPropertyOp5
 70
     1
102
RTVSPropertyOp6
 70
     1
102
RTVSPropertyOp7
 70
     1
102
RTVSPropertyOp8
 70
     1
102
RTVSPropertyOp9
 70
     1
102
RTVSPropertyOp10
 70
     1
102
RTVSPropertyOp11
 70
     1
102
RTVSPropertyOp12
 70
     1
102
RTVSPropertyOp13
 70
     1
102
RTVSPropertyOp14
 70
     1
102
RTVSPropertyOp15
 70
     1
102
RTVSPropertyOp16
 70
     1
102
RTVSPropertyOp17
 70
     1
102
RTVSPropertyOp18
 70
     1
102
RTVSPropertyOp19
 70
     1
102
RTVSPropertyOp20
 70
     1
102
RTVSPropertyOp21
 70
     1
102
RTVSPropertyOp22
 70
     1
102
RTVSPropertyOp23
 70
     1
102
RTVSPropertyOp24
 70
     1
102
RTVSPropertyOp25
 70
     1
102
RTVSPropertyOp26
 70
     1
102
RTVSPropertyOp27
 70
     1
102
RTVSPropertyOp28
 70
     1
102
RTVSPropertyOp29
 70
     1
102
RTVSPropertyOp30
 70
     1
102
RTVSPropertyOp31
 70
     1
102
RTVSPropertyOp32
 70
     1
102
RTVSPropertyOp33
 70
     1
102
RTVSPropertyOp34
 70
     1
102
RTVSPropertyOp35
 70
     1
102
RTVSPropertyOp36
 70
     1
102
RTVSPropertyOp37
 70
     1
102
RTVSPropertyOp38
 70
     1
102
RTVSPropertyOp39
 70
     1
102
RTVSPropertyOp40
 70
     1
102
RTVSPropertyOp41
 70
     1
102
RTVSPropertyOp42
 70
     1
102
RTVSPropertyOp43
 70
     1
102
RTVSPropertyOp44
 70
     1
102
RTVSPropertyOp45
 70
     1
102
RTVSPropertyOp46
 70
     1
102
RTVSPropertyOp47
 70
     1
102
RTVSPropertyOp48
 70
     1
102
RTVSPropertyOp49
 70
     1
102
RTVSPropertyOp50
 70
     1
102
RTVSPropertyOp51
 70
     0
102
RTVSPropertyOp52
 70
     0
102
RTVSPropertyOp53
 70
     1
102
RTVSPropertyOp54
 70
     1
102
RTVSPropertyOp55
 70
     1
102
RTVSPropertyOp56
 70
     1
102
RTVSPropertyOp57
 70
     1
102
RTVSPropertyOp58
 70
     1
102
RTVSPropertyOp59
 70
     1
102
RTVSPropertyOp60
 70
     1
102
RTVSPropertyOp61
 70
     1
102
RTVSPropertyOp62
 70
     1
  0
XRECORD
  5
4ACA
102
{ACAD_REACTORS
330
4AC9
102
}
330
4AC9
100
AcDbXrecord
280
     1
102
RTVSPost2010Prop28
280
     0
102
RTVSPost2010PropOp28
 70
     1
102
RTVSPost2010Prop29
280
     1
102
RTVSPost2010PropOp29
 70
     1
102
RTVSPost2010Prop30
280
     1
102
RTVSPost2010PropOp30
 70
     1
102
RTVSPost2010Prop31
280
     0
102
RTVSPost2010PropOp31
 70
     1
102
RTVSPost2010Prop32
280
     0
102
RTVSPost2010PropOp32
 70
     1
102
RTVSPost2010Prop33
280
     0
102
RTVSPost2010PropOp33
 70
     1
102
RTVSPost2010Prop34
280
     0
102
RTVSPost2010PropOp34
 70
     1
102
RTVSPost2010Prop35
280
     0
102
RTVSPost2010PropOp35
 70
     1
102
RTVSPost2010Prop36
280
     0
102
RTVSPost2010PropOp36
 70
     1
102
RTVSPost2010Prop37
 90
       50
102
RTVSPost2010PropOp37
 70
     1
102
RTVSPost2010Prop38
140
0.0
102
RTVSPost2010PropOp38
 70
     1
102
RTVSPost2010Prop39
140
1.0
102
RTVSPost2010PropOp39
 70
     1
102
RTVSPost2010Prop40
 90
        0
102
RTVSPost2010PropOp40
 70
     1
102
RTVSPost2010Prop41ColorIndex
 90
       18
102
RTVSPost2010Prop41ColorRGB
 90
        0
102
RTVSPost2010PropOp41
 70
     1
102
RTVSPost2010Prop42
 90
       50
102
RTVSPost2010PropOp42
 70
     1
102
RTVSPost2010Prop43
 90
        3
102
RTVSPost2010PropOp43
 70
     1
102
RTVSPost2010Prop44ColorIndex
 90
        5
102
RTVSPost2010Prop44ColorRGB
 90
      255
102
RTVSPost2010PropOp44
 70
     1
102
RTVSPost2010Prop45
280
     0
102
RTVSPost2010PropOp45
 70
     1
102
RTVSPost2010Prop46
 90
       50
102
RTVSPost2010PropOp46
 70
     1
102
RTVSPost2010Prop47
 90
       50
102
RTVSPost2010PropOp47
 70
     1
102
RTVSPost2010Prop48
 90
       50
102
RTVSPost2010PropOp48
 70
     1
102
RTVSPost2010Prop49
280
     0
102
RTVSPost2010PropOp49
 70
     1
102
RTVSPost2010Prop50
 90
       50
102
RTVSPost2010PropOp50
 70
     1
102
RTVSPost2010Prop51ColorIndex
 90
      256
102
RTVSPost2010Prop51ColorRGB
 90
-16777216
102
RTVSPost2010PropOp51
 70
     0
102
RTVSPost2010Prop52
140
1.0
102
RTVSPost2010PropOp52
 70
     0
102
RTVSPost2010Prop53
 90
        2
102
RTVSPost2010PropOp53
 70
     1
102
RTVSPost2010Prop54
  1
strokes_ogs.tif
102
RTVSPost2010PropOp54
 70
     1
102
RTVSPost2010Prop55
280
     0
102
RTVSPost2010PropOp55
 70
     1
102
RTVSPost2010Prop56
140
1.0
102
RTVSPost2010PropOp56
 70
     1
102
RTVSPost2010Prop57
140
1.0
102
RTVSPost2010PropOp57
 70
     1
102
RTVSPropertyOp0
 70
     1
102
RTVSPropertyOp1
 70
     1
102
RTVSPropertyOp2
 70
     1
102
RTVSPropertyOp3
 70
     1
102
RTVSPropertyOp4
 70
     1
102
RTVSPropertyOp5
 70
     1
102
RTVSPropertyOp6
 70
     1
102
RTVSPropertyOp7
 70
     1
102
RTVSPropertyOp8
 70
     1
102
RTVSPropertyOp9
 70
     1
102
RTVSPropertyOp10
 70
     1
102
RTVSPropertyOp11
 70
     1
102
RTVSPropertyOp12
 70
     1
102
RTVSPropertyOp13
 70
     1
102
RTVSPropertyOp14
 70
     1
102
RTVSPropertyOp15
 70
     1
102
RTVSPropertyOp16
 70
     1
102
RTVSPropertyOp17
 70
     1
102
RTVSPropertyOp18
 70
     1
102
RTVSPropertyOp19
 70
     1
102
RTVSPropertyOp20
 70
     1
102
RTVSPropertyOp21
 70
     1
102
RTVSPropertyOp22
 70
     1
102
RTVSPropertyOp23
 70
     1
102
RTVSPropertyOp24
 70
     1
102
RTVSPropertyOp25
 70
     1
102
RTVSPropertyOp26
 70
     1
102
RTVSPropertyOp27
 70
     1
102
RTVSPropertyOp28
 70
     1
102
RTVSPropertyOp29
 70
     1
102
RTVSPropertyOp30
 70
     1
102
RTVSPropertyOp31
 70
     1
102
RTVSPropertyOp32
 70
     1
102
RTVSPropertyOp33
 70
     1
102
RTVSPropertyOp34
 70
     1
102
RTVSPropertyOp35
 70
     1
102
RTVSPropertyOp36
 70
     1
102
RTVSPropertyOp37
 70
     1
102
RTVSPropertyOp38
 70
     1
102
RTVSPropertyOp39
 70
     1
102
RTVSPropertyOp40
 70
     1
102
RTVSPropertyOp41
 70
     1
102
RTVSPropertyOp42
 70
     1
102
RTVSPropertyOp43
 70
     1
102
RTVSPropertyOp44
 70
     1
102
RTVSPropertyOp45
 70
     1
102
RTVSPropertyOp46
 70
     1
102
RTVSPropertyOp47
 70
     1
102
RTVSPropertyOp48
 70
     1
102
RTVSPropertyOp49
 70
     1
102
RTVSPropertyOp50
 70
     1
102
RTVSPropertyOp51
 70
     0
102
RTVSPropertyOp52
 70
     0
102
RTVSPropertyOp53
 70
     1
102
RTVSPropertyOp54
 70
     1
102
RTVSPropertyOp55
 70
     1
102
RTVSPropertyOp56
 70
     1
102
RTVSPropertyOp57
 70
     1
102
RTVSPropertyOp58
 70
     1
102
RTVSPropertyOp59
 70
     1
102
RTVSPropertyOp60
 70
     1
102
RTVSPropertyOp61
 70
     1
102
RTVSPropertyOp62
 70
     1
  0
XRECORD
  5
4ADE
102
{ACAD_REACTORS
330
4ADD
102
}
330
4ADD
100
AcDbXrecord
280
     1
102
RTVSPost2010Prop28
280
     0
102
RTVSPost2010PropOp28
 70
     1
102
RTVSPost2010Prop29
280
     1
102
RTVSPost2010PropOp29
 70
     1
102
RTVSPost2010Prop30
280
     1
102
RTVSPost2010PropOp30
 70
     1
102
RTVSPost2010Prop31
280
     0
102
RTVSPost2010PropOp31
 70
     1
102
RTVSPost2010Prop32
280
     0
102
RTVSPost2010PropOp32
 70
     1
102
RTVSPost2010Prop33
280
     0
102
RTVSPost2010PropOp33
 70
     1
102
RTVSPost2010Prop34
280
     0
102
RTVSPost2010PropOp34
 70
     1
102
RTVSPost2010Prop35
280
     0
102
RTVSPost2010PropOp35
 70
     1
102
RTVSPost2010Prop36
280
     0
102
RTVSPost2010PropOp36
 70
     1
102
RTVSPost2010Prop37
 90
       50
102
RTVSPost2010PropOp37
 70
     1
102
RTVSPost2010Prop38
140
0.0
102
RTVSPost2010PropOp38
 70
     1
102
RTVSPost2010Prop39
140
1.0
102
RTVSPost2010PropOp39
 70
     1
102
RTVSPost2010Prop40
 90
        0
102
RTVSPost2010PropOp40
 70
     1
102
RTVSPost2010Prop41ColorIndex
 90
       18
102
RTVSPost2010Prop41ColorRGB
 90
        0
102
RTVSPost2010PropOp41
 70
     1
102
RTVSPost2010Prop42
 90
       50
102
RTVSPost2010PropOp42
 70
     1
102
RTVSPost2010Prop43
 90
        3
102
RTVSPost2010PropOp43
 70
     1
102
RTVSPost2010Prop44ColorIndex
 90
        5
102
RTVSPost2010Prop44ColorRGB
 90
      255
102
RTVSPost2010PropOp44
 70
     1
102
RTVSPost2010Prop45
280
     0
102
RTVSPost2010PropOp45
 70
     1
102
RTVSPost2010Prop46
 90
       50
102
RTVSPost2010PropOp46
 70
     1
102
RTVSPost2010Prop47
 90
       50
102
RTVSPost2010PropOp47
 70
     1
102
RTVSPost2010Prop48
 90
       50
102
RTVSPost2010PropOp48
 70
     1
102
RTVSPost2010Prop49
280
     0
102
RTVSPost2010PropOp49
 70
     1
102
RTVSPost2010Prop50
 90
       50
102
RTVSPost2010PropOp50
 70
     1
102
RTVSPost2010Prop51ColorIndex
 90
      256
102
RTVSPost2010Prop51ColorRGB
 90
-16777216
102
RTVSPost2010PropOp51
 70
     0
102
RTVSPost2010Prop52
140
1.0
102
RTVSPost2010PropOp52
 70
     0
102
RTVSPost2010Prop53
 90
        2
102
RTVSPost2010PropOp53
 70
     1
102
RTVSPost2010Prop54
  1
strokes_ogs.tif
102
RTVSPost2010PropOp54
 70
     1
102
RTVSPost2010Prop55
280
     0
102
RTVSPost2010PropOp55
 70
     1
102
RTVSPost2010Prop56
140
1.0
102
RTVSPost2010PropOp56
 70
     1
102
RTVSPost2010Prop57
140
1.0
102
RTVSPost2010PropOp57
 70
     1
102
RTVSPropertyOp0
 70
     0
102
RTVSPropertyOp1
 70
     0
102
RTVSPropertyOp2
 70
     0
102
RTVSPropertyOp3
 70
     0
102
RTVSPropertyOp4
 70
     0
102
RTVSPropertyOp5
 70
     0
102
RTVSPropertyOp6
 70
     0
102
RTVSPropertyOp7
 70
     0
102
RTVSPropertyOp8
 70
     0
102
RTVSPropertyOp9
 70
     0
102
RTVSPropertyOp10
 70
     0
102
RTVSPropertyOp11
 70
     0
102
RTVSPropertyOp12
 70
     0
102
RTVSPropertyOp13
 70
     0
102
RTVSPropertyOp14
 70
     2
102
RTVSPropertyOp15
 70
     0
102
RTVSPropertyOp16
 70
     0
102
RTVSPropertyOp17
 70
     0
102
RTVSPropertyOp18
 70
     0
102
RTVSPropertyOp19
 70
     0
102
RTVSPropertyOp20
 70
     0
102
RTVSPropertyOp21
 70
     0
102
RTVSPropertyOp22
 70
     0
102
RTVSPropertyOp23
 70
     0
102
RTVSPropertyOp24
 70
     0
102
RTVSPropertyOp25
 70
     0
102
RTVSPropertyOp26
 70
     0
102
RTVSPropertyOp27
 70
     0
102
RTVSPropertyOp28
 70
     1
102
RTVSPropertyOp29
 70
     1
102
RTVSPropertyOp30
 70
     1
102
RTVSPropertyOp31
 70
     1
102
RTVSPropertyOp32
 70
     1
102
RTVSPropertyOp33
 70
     1
102
RTVSPropertyOp34
 70
     1
102
RTVSPropertyOp35
 70
     1
102
RTVSPropertyOp36
 70
     1
102
RTVSPropertyOp37
 70
     1
102
RTVSPropertyOp38
 70
     1
102
RTVSPropertyOp39
 70
     1
102
RTVSPropertyOp40
 70
     1
102
RTVSPropertyOp41
 70
     1
102
RTVSPropertyOp42
 70
     1
102
RTVSPropertyOp43
 70
     1
102
RTVSPropertyOp44
 70
     1
102
RTVSPropertyOp45
 70
     1
102
RTVSPropertyOp46
 70
     1
102
RTVSPropertyOp47
 70
     1
102
RTVSPropertyOp48
 70
     1
102
RTVSPropertyOp49
 70
     1
102
RTVSPropertyOp50
 70
     1
102
RTVSPropertyOp51
 70
     0
102
RTVSPropertyOp52
 70
     0
102
RTVSPropertyOp53
 70
     1
102
RTVSPropertyOp54
 70
     1
102
RTVSPropertyOp55
 70
     1
102
RTVSPropertyOp56
 70
     1
102
RTVSPropertyOp57
 70
     1
102
RTVSPropertyOp58
 70
     1
102
RTVSPropertyOp59
 70
     1
102
RTVSPropertyOp60
 70
     1
102
RTVSPropertyOp61
 70
     1
102
RTVSPropertyOp62
 70
     1
  0
XRECORD
  5
4AD6
102
{ACAD_REACTORS
330
4AD5
102
}
330
4AD5
100
AcDbXrecord
280
     1
102
RTVSPost2010Prop28
280
     0
102
RTVSPost2010PropOp28
 70
     1
102
RTVSPost2010Prop29
280
     1
102
RTVSPost2010PropOp29
 70
     1
102
RTVSPost2010Prop30
280
     1
102
RTVSPost2010PropOp30
 70
     1
102
RTVSPost2010Prop31
280
     0
102
RTVSPost2010PropOp31
 70
     1
102
RTVSPost2010Prop32
280
     0
102
RTVSPost2010PropOp32
 70
     1
102
RTVSPost2010Prop33
280
     0
102
RTVSPost2010PropOp33
 70
     1
102
RTVSPost2010Prop34
280
     0
102
RTVSPost2010PropOp34
 70
     1
102
RTVSPost2010Prop35
280
     0
102
RTVSPost2010PropOp35
 70
     1
102
RTVSPost2010Prop36
280
     0
102
RTVSPost2010PropOp36
 70
     1
102
RTVSPost2010Prop37
 90
       50
102
RTVSPost2010PropOp37
 70
     1
102
RTVSPost2010Prop38
140
0.0
102
RTVSPost2010PropOp38
 70
     1
102
RTVSPost2010Prop39
140
1.0
102
RTVSPost2010PropOp39
 70
     1
102
RTVSPost2010Prop40
 90
        0
102
RTVSPost2010PropOp40
 70
     1
102
RTVSPost2010Prop41ColorIndex
 90
       18
102
RTVSPost2010Prop41ColorRGB
 90
        0
102
RTVSPost2010PropOp41
 70
     1
102
RTVSPost2010Prop42
 90
       50
102
RTVSPost2010PropOp42
 70
     1
102
RTVSPost2010Prop43
 90
        3
102
RTVSPost2010PropOp43
 70
     1
102
RTVSPost2010Prop44ColorIndex
 90
        5
102
RTVSPost2010Prop44ColorRGB
 90
      255
102
RTVSPost2010PropOp44
 70
     1
102
RTVSPost2010Prop45
280
     0
102
RTVSPost2010PropOp45
 70
     1
102
RTVSPost2010Prop46
 90
       50
102
RTVSPost2010PropOp46
 70
     1
102
RTVSPost2010Prop47
 90
       50
102
RTVSPost2010PropOp47
 70
     1
102
RTVSPost2010Prop48
 90
       50
102
RTVSPost2010PropOp48
 70
     1
102
RTVSPost2010Prop49
280
     0
102
RTVSPost2010PropOp49
 70
     1
102
RTVSPost2010Prop50
 90
       50
102
RTVSPost2010PropOp50
 70
     1
102
RTVSPost2010Prop51ColorIndex
 90
      256
102
RTVSPost2010Prop51ColorRGB
 90
-16777216
102
RTVSPost2010PropOp51
 70
     0
102
RTVSPost2010Prop52
140
1.0
102
RTVSPost2010PropOp52
 70
     0
102
RTVSPost2010Prop53
 90
        2
102
RTVSPost2010PropOp53
 70
     1
102
RTVSPost2010Prop54
  1
strokes_ogs.tif
102
RTVSPost2010PropOp54
 70
     1
102
RTVSPost2010Prop55
280
     0
102
RTVSPost2010PropOp55
 70
     1
102
RTVSPost2010Prop56
140
1.0
102
RTVSPost2010PropOp56
 70
     1
102
RTVSPost2010Prop57
140
1.0
102
RTVSPost2010PropOp57
 70
     1
102
RTVSPropertyOp0
 70
     1
102
RTVSPropertyOp1
 70
     1
102
RTVSPropertyOp2
 70
     1
102
RTVSPropertyOp3
 70
     1
102
RTVSPropertyOp4
 70
     1
102
RTVSPropertyOp5
 70
     1
102
RTVSPropertyOp6
 70
     1
102
RTVSPropertyOp7
 70
     1
102
RTVSPropertyOp8
 70
     1
102
RTVSPropertyOp9
 70
     1
102
RTVSPropertyOp10
 70
     1
102
RTVSPropertyOp11
 70
     1
102
RTVSPropertyOp12
 70
     1
102
RTVSPropertyOp13
 70
     1
102
RTVSPropertyOp14
 70
     1
102
RTVSPropertyOp15
 70
     1
102
RTVSPropertyOp16
 70
     1
102
RTVSPropertyOp17
 70
     1
102
RTVSPropertyOp18
 70
     1
102
RTVSPropertyOp19
 70
     1
102
RTVSPropertyOp20
 70
     1
102
RTVSPropertyOp21
 70
     1
102
RTVSPropertyOp22
 70
     1
102
RTVSPropertyOp23
 70
     1
102
RTVSPropertyOp24
 70
     1
102
RTVSPropertyOp25
 70
     1
102
RTVSPropertyOp26
 70
     1
102
RTVSPropertyOp27
 70
     1
102
RTVSPropertyOp28
 70
     1
102
RTVSPropertyOp29
 70
     1
102
RTVSPropertyOp30
 70
     1
102
RTVSPropertyOp31
 70
     1
102
RTVSPropertyOp32
 70
     1
102
RTVSPropertyOp33
 70
     1
102
RTVSPropertyOp34
 70
     1
102
RTVSPropertyOp35
 70
     1
102
RTVSPropertyOp36
 70
     1
102
RTVSPropertyOp37
 70
     1
102
RTVSPropertyOp38
 70
     1
102
RTVSPropertyOp39
 70
     1
102
RTVSPropertyOp40
 70
     1
102
RTVSPropertyOp41
 70
     1
102
RTVSPropertyOp42
 70
     1
102
RTVSPropertyOp43
 70
     1
102
RTVSPropertyOp44
 70
     1
102
RTVSPropertyOp45
 70
     1
102
RTVSPropertyOp46
 70
     1
102
RTVSPropertyOp47
 70
     1
102
RTVSPropertyOp48
 70
     1
102
RTVSPropertyOp49
 70
     1
102
RTVSPropertyOp50
 70
     1
102
RTVSPropertyOp51
 70
     0
102
RTVSPropertyOp52
 70
     0
102
RTVSPropertyOp53
 70
     1
102
RTVSPropertyOp54
 70
     1
102
RTVSPropertyOp55
 70
     1
102
RTVSPropertyOp56
 70
     1
102
RTVSPropertyOp57
 70
     1
102
RTVSPropertyOp58
 70
     1
102
RTVSPropertyOp59
 70
     1
102
RTVSPropertyOp60
 70
     1
102
RTVSPropertyOp61
 70
     1
102
RTVSPropertyOp62
 70
     1
  0
XRECORD
  5
4AE0
102
{ACAD_REACTORS
330
4ADF
102
}
330
4ADF
100
AcDbXrecord
280
     1
102
RTVSPost2010Prop28
280
     0
102
RTVSPost2010PropOp28
 70
     1
102
RTVSPost2010Prop29
280
     1
102
RTVSPost2010PropOp29
 70
     1
102
RTVSPost2010Prop30
280
     1
102
RTVSPost2010PropOp30
 70
     1
102
RTVSPost2010Prop31
280
     0
102
RTVSPost2010PropOp31
 70
     1
102
RTVSPost2010Prop32
280
     0
102
RTVSPost2010PropOp32
 70
     1
102
RTVSPost2010Prop33
280
     0
102
RTVSPost2010PropOp33
 70
     1
102
RTVSPost2010Prop34
280
     0
102
RTVSPost2010PropOp34
 70
     1
102
RTVSPost2010Prop35
280
     0
102
RTVSPost2010PropOp35
 70
     1
102
RTVSPost2010Prop36
280
     0
102
RTVSPost2010PropOp36
 70
     1
102
RTVSPost2010Prop37
 90
       50
102
RTVSPost2010PropOp37
 70
     1
102
RTVSPost2010Prop38
140
0.0
102
RTVSPost2010PropOp38
 70
     1
102
RTVSPost2010Prop39
140
1.0
102
RTVSPost2010PropOp39
 70
     1
102
RTVSPost2010Prop40
 90
        0
102
RTVSPost2010PropOp40
 70
     1
102
RTVSPost2010Prop41ColorIndex
 90
       18
102
RTVSPost2010Prop41ColorRGB
 90
        0
102
RTVSPost2010PropOp41
 70
     1
102
RTVSPost2010Prop42
 90
       50
102
RTVSPost2010PropOp42
 70
     1
102
RTVSPost2010Prop43
 90
        3
102
RTVSPost2010PropOp43
 70
     1
102
RTVSPost2010Prop44ColorIndex
 90
        5
102
RTVSPost2010Prop44ColorRGB
 90
      255
102
RTVSPost2010PropOp44
 70
     1
102
RTVSPost2010Prop45
280
     0
102
RTVSPost2010PropOp45
 70
     1
102
RTVSPost2010Prop46
 90
       50
102
RTVSPost2010PropOp46
 70
     1
102
RTVSPost2010Prop47
 90
       50
102
RTVSPost2010PropOp47
 70
     1
102
RTVSPost2010Prop48
 90
       50
102
RTVSPost2010PropOp48
 70
     1
102
RTVSPost2010Prop49
280
     0
102
RTVSPost2010PropOp49
 70
     1
102
RTVSPost2010Prop50
 90
       50
102
RTVSPost2010PropOp50
 70
     1
102
RTVSPost2010Prop51ColorIndex
 90
      256
102
RTVSPost2010Prop51ColorRGB
 90
-16777216
102
RTVSPost2010PropOp51
 70
     0
102
RTVSPost2010Prop52
140
1.0
102
RTVSPost2010PropOp52
 70
     0
102
RTVSPost2010Prop53
 90
        2
102
RTVSPost2010PropOp53
 70
     1
102
RTVSPost2010Prop54
  1
strokes_ogs.tif
102
RTVSPost2010PropOp54
 70
     1
102
RTVSPost2010Prop55
280
     0
102
RTVSPost2010PropOp55
 70
     1
102
RTVSPost2010Prop56
140
1.0
102
RTVSPost2010PropOp56
 70
     1
102
RTVSPost2010Prop57
140
1.0
102
RTVSPost2010PropOp57
 70
     1
102
RTVSPropertyOp0
 70
     0
102
RTVSPropertyOp1
 70
     0
102
RTVSPropertyOp2
 70
     0
102
RTVSPropertyOp3
 70
     0
102
RTVSPropertyOp4
 70
     0
102
RTVSPropertyOp5
 70
     0
102
RTVSPropertyOp6
 70
     0
102
RTVSPropertyOp7
 70
     0
102
RTVSPropertyOp8
 70
     0
102
RTVSPropertyOp9
 70
     0
102
RTVSPropertyOp10
 70
     0
102
RTVSPropertyOp11
 70
     0
102
RTVSPropertyOp12
 70
     0
102
RTVSPropertyOp13
 70
     0
102
RTVSPropertyOp14
 70
     2
102
RTVSPropertyOp15
 70
     0
102
RTVSPropertyOp16
 70
     0
102
RTVSPropertyOp17
 70
     0
102
RTVSPropertyOp18
 70
     0
102
RTVSPropertyOp19
 70
     0
102
RTVSPropertyOp20
 70
     0
102
RTVSPropertyOp21
 70
     0
102
RTVSPropertyOp22
 70
     0
102
RTVSPropertyOp23
 70
     0
102
RTVSPropertyOp24
 70
     0
102
RTVSPropertyOp25
 70
     0
102
RTVSPropertyOp26
 70
     0
102
RTVSPropertyOp27
 70
     0
102
RTVSPropertyOp28
 70
     1
102
RTVSPropertyOp29
 70
     1
102
RTVSPropertyOp30
 70
     1
102
RTVSPropertyOp31
 70
     1
102
RTVSPropertyOp32
 70
     1
102
RTVSPropertyOp33
 70
     1
102
RTVSPropertyOp34
 70
     1
102
RTVSPropertyOp35
 70
     1
102
RTVSPropertyOp36
 70
     1
102
RTVSPropertyOp37
 70
     1
102
RTVSPropertyOp38
 70
     1
102
RTVSPropertyOp39
 70
     1
102
RTVSPropertyOp40
 70
     1
102
RTVSPropertyOp41
 70
     1
102
RTVSPropertyOp42
 70
     1
102
RTVSPropertyOp43
 70
     1
102
RTVSPropertyOp44
 70
     1
102
RTVSPropertyOp45
 70
     1
102
RTVSPropertyOp46
 70
     1
102
RTVSPropertyOp47
 70
     1
102
RTVSPropertyOp48
 70
     1
102
RTVSPropertyOp49
 70
     1
102
RTVSPropertyOp50
 70
     1
102
RTVSPropertyOp51
 70
     0
102
RTVSPropertyOp52
 70
     0
102
RTVSPropertyOp53
 70
     1
102
RTVSPropertyOp54
 70
     1
102
RTVSPropertyOp55
 70
     1
102
RTVSPropertyOp56
 70
     1
102
RTVSPropertyOp57
 70
     1
102
RTVSPropertyOp58
 70
     1
102
RTVSPropertyOp59
 70
     1
102
RTVSPropertyOp60
 70
     1
102
RTVSPropertyOp61
 70
     1
102
RTVSPropertyOp62
 70
     1
  0
XRECORD
  5
4ACE
102
{ACAD_REACTORS
330
4ACD
102
}
330
4ACD
100
AcDbXrecord
280
     1
102
RTVSPost2010Prop28
280
     0
102
RTVSPost2010PropOp28
 70
     1
102
RTVSPost2010Prop29
280
     1
102
RTVSPost2010PropOp29
 70
     1
102
RTVSPost2010Prop30
280
     1
102
RTVSPost2010PropOp30
 70
     1
102
RTVSPost2010Prop31
280
     0
102
RTVSPost2010PropOp31
 70
     1
102
RTVSPost2010Prop32
280
     0
102
RTVSPost2010PropOp32
 70
     1
102
RTVSPost2010Prop33
280
     0
102
RTVSPost2010PropOp33
 70
     1
102
RTVSPost2010Prop34
280
     0
102
RTVSPost2010PropOp34
 70
     1
102
RTVSPost2010Prop35
280
     0
102
RTVSPost2010PropOp35
 70
     1
102
RTVSPost2010Prop36
280
     0
102
RTVSPost2010PropOp36
 70
     1
102
RTVSPost2010Prop37
 90
       50
102
RTVSPost2010PropOp37
 70
     1
102
RTVSPost2010Prop38
140
0.0
102
RTVSPost2010PropOp38
 70
     1
102
RTVSPost2010Prop39
140
1.0
102
RTVSPost2010PropOp39
 70
     1
102
RTVSPost2010Prop40
 90
        0
102
RTVSPost2010PropOp40
 70
     1
102
RTVSPost2010Prop41ColorIndex
 90
       18
102
RTVSPost2010Prop41ColorRGB
 90
        0
102
RTVSPost2010PropOp41
 70
     1
102
RTVSPost2010Prop42
 90
       50
102
RTVSPost2010PropOp42
 70
     1
102
RTVSPost2010Prop43
 90
        3
102
RTVSPost2010PropOp43
 70
     1
102
RTVSPost2010Prop44ColorIndex
 90
        5
102
RTVSPost2010Prop44ColorRGB
 90
      255
102
RTVSPost2010PropOp44
 70
     1
102
RTVSPost2010Prop45
280
     0
102
RTVSPost2010PropOp45
 70
     1
102
RTVSPost2010Prop46
 90
       50
102
RTVSPost2010PropOp46
 70
     1
102
RTVSPost2010Prop47
 90
       50
102
RTVSPost2010PropOp47
 70
     1
102
RTVSPost2010Prop48
 90
       50
102
RTVSPost2010PropOp48
 70
     1
102
RTVSPost2010Prop49
280
     0
102
RTVSPost2010PropOp49
 70
     1
102
RTVSPost2010Prop50
 90
       50
102
RTVSPost2010PropOp50
 70
     1
102
RTVSPost2010Prop51ColorIndex
 90
      256
102
RTVSPost2010Prop51ColorRGB
 90
-16777216
102
RTVSPost2010PropOp51
 70
     0
102
RTVSPost2010Prop52
140
1.0
102
RTVSPost2010PropOp52
 70
     0
102
RTVSPost2010Prop53
 90
        2
102
RTVSPost2010PropOp53
 70
     1
102
RTVSPost2010Prop54
  1
strokes_ogs.tif
102
RTVSPost2010PropOp54
 70
     1
102
RTVSPost2010Prop55
280
     0
102
RTVSPost2010PropOp55
 70
     1
102
RTVSPost2010Prop56
140
1.0
102
RTVSPost2010PropOp56
 70
     1
102
RTVSPost2010Prop57
140
1.0
102
RTVSPost2010PropOp57
 70
     1
102
RTVSPropertyOp0
 70
     1
102
RTVSPropertyOp1
 70
     1
102
RTVSPropertyOp2
 70
     1
102
RTVSPropertyOp3
 70
     1
102
RTVSPropertyOp4
 70
     1
102
RTVSPropertyOp5
 70
     1
102
RTVSPropertyOp6
 70
     1
102
RTVSPropertyOp7
 70
     1
102
RTVSPropertyOp8
 70
     1
102
RTVSPropertyOp9
 70
     1
102
RTVSPropertyOp10
 70
     1
102
RTVSPropertyOp11
 70
     1
102
RTVSPropertyOp12
 70
     1
102
RTVSPropertyOp13
 70
     1
102
RTVSPropertyOp14
 70
     1
102
RTVSPropertyOp15
 70
     1
102
RTVSPropertyOp16
 70
     1
102
RTVSPropertyOp17
 70
     1
102
RTVSPropertyOp18
 70
     1
102
RTVSPropertyOp19
 70
     1
102
RTVSPropertyOp20
 70
     1
102
RTVSPropertyOp21
 70
     1
102
RTVSPropertyOp22
 70
     1
102
RTVSPropertyOp23
 70
     1
102
RTVSPropertyOp24
 70
     1
102
RTVSPropertyOp25
 70
     1
102
RTVSPropertyOp26
 70
     1
102
RTVSPropertyOp27
 70
     1
102
RTVSPropertyOp28
 70
     1
102
RTVSPropertyOp29
 70
     1
102
RTVSPropertyOp30
 70
     1
102
RTVSPropertyOp31
 70
     1
102
RTVSPropertyOp32
 70
     1
102
RTVSPropertyOp33
 70
     1
102
RTVSPropertyOp34
 70
     1
102
RTVSPropertyOp35
 70
     1
102
RTVSPropertyOp36
 70
     1
102
RTVSPropertyOp37
 70
     1
102
RTVSPropertyOp38
 70
     1
102
RTVSPropertyOp39
 70
     1
102
RTVSPropertyOp40
 70
     1
102
RTVSPropertyOp41
 70
     1
102
RTVSPropertyOp42
 70
     1
102
RTVSPropertyOp43
 70
     1
102
RTVSPropertyOp44
 70
     1
102
RTVSPropertyOp45
 70
     1
102
RTVSPropertyOp46
 70
     1
102
RTVSPropertyOp47
 70
     1
102
RTVSPropertyOp48
 70
     1
102
RTVSPropertyOp49
 70
     1
102
RTVSPropertyOp50
 70
     1
102
RTVSPropertyOp51
 70
     0
102
RTVSPropertyOp52
 70
     0
102
RTVSPropertyOp53
 70
     1
102
RTVSPropertyOp54
 70
     1
102
RTVSPropertyOp55
 70
     1
102
RTVSPropertyOp56
 70
     1
102
RTVSPropertyOp57
 70
     1
102
RTVSPropertyOp58
 70
     1
102
RTVSPropertyOp59
 70
     1
102
RTVSPropertyOp60
 70
     1
102
RTVSPropertyOp61
 70
     1
102
RTVSPropertyOp62
 70
     1
  0
XRECORD
  5
4AEC
102
{ACAD_REACTORS
330
4AEB
102
}
330
4AEB
100
AcDbXrecord
280
     1
102
RTVSPost2010Prop28
280
     0
102
RTVSPost2010PropOp28
 70
     1
102
RTVSPost2010Prop29
280
     1
102
RTVSPost2010PropOp29
 70
     1
102
RTVSPost2010Prop30
280
     1
102
RTVSPost2010PropOp30
 70
     1
102
RTVSPost2010Prop31
280
     0
102
RTVSPost2010PropOp31
 70
     1
102
RTVSPost2010Prop32
280
     0
102
RTVSPost2010PropOp32
 70
     1
102
RTVSPost2010Prop33
280
     0
102
RTVSPost2010PropOp33
 70
     1
102
RTVSPost2010Prop34
280
     0
102
RTVSPost2010PropOp34
 70
     1
102
RTVSPost2010Prop35
280
     0
102
RTVSPost2010PropOp35
 70
     1
102
RTVSPost2010Prop36
280
     0
102
RTVSPost2010PropOp36
 70
     1
102
RTVSPost2010Prop37
 90
       50
102
RTVSPost2010PropOp37
 70
     1
102
RTVSPost2010Prop38
140
0.0
102
RTVSPost2010PropOp38
 70
     1
102
RTVSPost2010Prop39
140
1.0
102
RTVSPost2010PropOp39
 70
     1
102
RTVSPost2010Prop40
 90
        0
102
RTVSPost2010PropOp40
 70
     1
102
RTVSPost2010Prop41ColorIndex
 90
       18
102
RTVSPost2010Prop41ColorRGB
 90
        0
102
RTVSPost2010PropOp41
 70
     1
102
RTVSPost2010Prop42
 90
       50
102
RTVSPost2010PropOp42
 70
     1
102
RTVSPost2010Prop43
 90
        3
102
RTVSPost2010PropOp43
 70
     1
102
RTVSPost2010Prop44ColorIndex
 90
        5
102
RTVSPost2010Prop44ColorRGB
 90
      255
102
RTVSPost2010PropOp44
 70
     1
102
RTVSPost2010Prop45
280
     0
102
RTVSPost2010PropOp45
 70
     1
102
RTVSPost2010Prop46
 90
       50
102
RTVSPost2010PropOp46
 70
     1
102
RTVSPost2010Prop47
 90
       50
102
RTVSPost2010PropOp47
 70
     1
102
RTVSPost2010Prop48
 90
       50
102
RTVSPost2010PropOp48
 70
     1
102
RTVSPost2010Prop49
280
     0
102
RTVSPost2010PropOp49
 70
     1
102
RTVSPost2010Prop50
 90
       50
102
RTVSPost2010PropOp50
 70
     1
102
RTVSPost2010Prop51ColorIndex
 90
      256
102
RTVSPost2010Prop51ColorRGB
 90
-16777216
102
RTVSPost2010PropOp51
 70
     0
102
RTVSPost2010Prop52
140
1.0
102
RTVSPost2010PropOp52
 70
     0
102
RTVSPost2010Prop53
 90
        2
102
RTVSPost2010PropOp53
 70
     1
102
RTVSPost2010Prop54
  1
strokes_ogs.tif
102
RTVSPost2010PropOp54
 70
     1
102
RTVSPost2010Prop55
280
     0
102
RTVSPost2010PropOp55
 70
     1
102
RTVSPost2010Prop56
140
1.0
102
RTVSPost2010PropOp56
 70
     1
102
RTVSPost2010Prop57
140
1.0
102
RTVSPost2010PropOp57
 70
     1
102
RTVSPropertyOp0
 70
     1
102
RTVSPropertyOp1
 70
     1
102
RTVSPropertyOp2
 70
     1
102
RTVSPropertyOp3
 70
     1
102
RTVSPropertyOp4
 70
     1
102
RTVSPropertyOp5
 70
     1
102
RTVSPropertyOp6
 70
     1
102
RTVSPropertyOp7
 70
     1
102
RTVSPropertyOp8
 70
     1
102
RTVSPropertyOp9
 70
     1
102
RTVSPropertyOp10
 70
     1
102
RTVSPropertyOp11
 70
     1
102
RTVSPropertyOp12
 70
     1
102
RTVSPropertyOp13
 70
     1
102
RTVSPropertyOp14
 70
     1
102
RTVSPropertyOp15
 70
     1
102
RTVSPropertyOp16
 70
     1
102
RTVSPropertyOp17
 70
     1
102
RTVSPropertyOp18
 70
     1
102
RTVSPropertyOp19
 70
     1
102
RTVSPropertyOp20
 70
     1
102
RTVSPropertyOp21
 70
     1
102
RTVSPropertyOp22
 70
     1
102
RTVSPropertyOp23
 70
     1
102
RTVSPropertyOp24
 70
     1
102
RTVSPropertyOp25
 70
     1
102
RTVSPropertyOp26
 70
     1
102
RTVSPropertyOp27
 70
     1
102
RTVSPropertyOp28
 70
     1
102
RTVSPropertyOp29
 70
     1
102
RTVSPropertyOp30
 70
     1
102
RTVSPropertyOp31
 70
     1
102
RTVSPropertyOp32
 70
     1
102
RTVSPropertyOp33
 70
     1
102
RTVSPropertyOp34
 70
     1
102
RTVSPropertyOp35
 70
     1
102
RTVSPropertyOp36
 70
     1
102
RTVSPropertyOp37
 70
     1
102
RTVSPropertyOp38
 70
     1
102
RTVSPropertyOp39
 70
     1
102
RTVSPropertyOp40
 70
     1
102
RTVSPropertyOp41
 70
     1
102
RTVSPropertyOp42
 70
     1
102
RTVSPropertyOp43
 70
     1
102
RTVSPropertyOp44
 70
     1
102
RTVSPropertyOp45
 70
     1
102
RTVSPropertyOp46
 70
     1
102
RTVSPropertyOp47
 70
     1
102
RTVSPropertyOp48
 70
     1
102
RTVSPropertyOp49
 70
     1
102
RTVSPropertyOp50
 70
     1
102
RTVSPropertyOp51
 70
     0
102
RTVSPropertyOp52
 70
     0
102
RTVSPropertyOp53
 70
     1
102
RTVSPropertyOp54
 70
     1
102
RTVSPropertyOp55
 70
     1
102
RTVSPropertyOp56
 70
     1
102
RTVSPropertyOp57
 70
     1
102
RTVSPropertyOp58
 70
     1
102
RTVSPropertyOp59
 70
     1
102
RTVSPropertyOp60
 70
     1
102
RTVSPropertyOp61
 70
     1
102
RTVSPropertyOp62
 70
     1
  0
XRECORD
  5
4AEA
102
{ACAD_REACTORS
330
4AE9
102
}
330
4AE9
100
AcDbXrecord
280
     1
102
RTVSPost2010Prop28
280
     0
102
RTVSPost2010PropOp28
 70
     1
102
RTVSPost2010Prop29
280
     1
102
RTVSPost2010PropOp29
 70
     1
102
RTVSPost2010Prop30
280
     1
102
RTVSPost2010PropOp30
 70
     1
102
RTVSPost2010Prop31
280
     0
102
RTVSPost2010PropOp31
 70
     1
102
RTVSPost2010Prop32
280
     0
102
RTVSPost2010PropOp32
 70
     1
102
RTVSPost2010Prop33
280
     0
102
RTVSPost2010PropOp33
 70
     1
102
RTVSPost2010Prop34
280
     0
102
RTVSPost2010PropOp34
 70
     1
102
RTVSPost2010Prop35
280
     0
102
RTVSPost2010PropOp35
 70
     1
102
RTVSPost2010Prop36
280
     0
102
RTVSPost2010PropOp36
 70
     1
102
RTVSPost2010Prop37
 90
       50
102
RTVSPost2010PropOp37
 70
     1
102
RTVSPost2010Prop38
140
0.0
102
RTVSPost2010PropOp38
 70
     1
102
RTVSPost2010Prop39
140
1.0
102
RTVSPost2010PropOp39
 70
     1
102
RTVSPost2010Prop40
 90
        0
102
RTVSPost2010PropOp40
 70
     1
102
RTVSPost2010Prop41ColorIndex
 90
       18
102
RTVSPost2010Prop41ColorRGB
 90
        0
102
RTVSPost2010PropOp41
 70
     1
102
RTVSPost2010Prop42
 90
       50
102
RTVSPost2010PropOp42
 70
     1
102
RTVSPost2010Prop43
 90
        3
102
RTVSPost2010PropOp43
 70
     1
102
RTVSPost2010Prop44ColorIndex
 90
        5
102
RTVSPost2010Prop44ColorRGB
 90
      255
102
RTVSPost2010PropOp44
 70
     1
102
RTVSPost2010Prop45
280
     0
102
RTVSPost2010PropOp45
 70
     1
102
RTVSPost2010Prop46
 90
       50
102
RTVSPost2010PropOp46
 70
     1
102
RTVSPost2010Prop47
 90
       50
102
RTVSPost2010PropOp47
 70
     1
102
RTVSPost2010Prop48
 90
       50
102
RTVSPost2010PropOp48
 70
     1
102
RTVSPost2010Prop49
280
     0
102
RTVSPost2010PropOp49
 70
     1
102
RTVSPost2010Prop50
 90
       50
102
RTVSPost2010PropOp50
 70
     1
102
RTVSPost2010Prop51ColorIndex
 90
      256
102
RTVSPost2010Prop51ColorRGB
 90
-16777216
102
RTVSPost2010PropOp51
 70
     0
102
RTVSPost2010Prop52
140
1.0
102
RTVSPost2010PropOp52
 70
     0
102
RTVSPost2010Prop53
 90
        2
102
RTVSPost2010PropOp53
 70
     1
102
RTVSPost2010Prop54
  1
strokes_ogs.tif
102
RTVSPost2010PropOp54
 70
     1
102
RTVSPost2010Prop55
280
     0
102
RTVSPost2010PropOp55
 70
     1
102
RTVSPost2010Prop56
140
1.0
102
RTVSPost2010PropOp56
 70
     1
102
RTVSPost2010Prop57
140
1.0
102
RTVSPost2010PropOp57
 70
     1
102
RTVSPropertyOp0
 70
     1
102
RTVSPropertyOp1
 70
     1
102
RTVSPropertyOp2
 70
     1
102
RTVSPropertyOp3
 70
     1
102
RTVSPropertyOp4
 70
     1
102
RTVSPropertyOp5
 70
     1
102
RTVSPropertyOp6
 70
     1
102
RTVSPropertyOp7
 70
     1
102
RTVSPropertyOp8
 70
     1
102
RTVSPropertyOp9
 70
     1
102
RTVSPropertyOp10
 70
     1
102
RTVSPropertyOp11
 70
     1
102
RTVSPropertyOp12
 70
     1
102
RTVSPropertyOp13
 70
     1
102
RTVSPropertyOp14
 70
     1
102
RTVSPropertyOp15
 70
     1
102
RTVSPropertyOp16
 70
     1
102
RTVSPropertyOp17
 70
     1
102
RTVSPropertyOp18
 70
     1
102
RTVSPropertyOp19
 70
     1
102
RTVSPropertyOp20
 70
     1
102
RTVSPropertyOp21
 70
     1
102
RTVSPropertyOp22
 70
     1
102
RTVSPropertyOp23
 70
     1
102
RTVSPropertyOp24
 70
     1
102
RTVSPropertyOp25
 70
     1
102
RTVSPropertyOp26
 70
     1
102
RTVSPropertyOp27
 70
     1
102
RTVSPropertyOp28
 70
     1
102
RTVSPropertyOp29
 70
     1
102
RTVSPropertyOp30
 70
     1
102
RTVSPropertyOp31
 70
     1
102
RTVSPropertyOp32
 70
     1
102
RTVSPropertyOp33
 70
     1
102
RTVSPropertyOp34
 70
     1
102
RTVSPropertyOp35
 70
     1
102
RTVSPropertyOp36
 70
     1
102
RTVSPropertyOp37
 70
     1
102
RTVSPropertyOp38
 70
     1
102
RTVSPropertyOp39
 70
     1
102
RTVSPropertyOp40
 70
     1
102
RTVSPropertyOp41
 70
     1
102
RTVSPropertyOp42
 70
     1
102
RTVSPropertyOp43
 70
     1
102
RTVSPropertyOp44
 70
     1
102
RTVSPropertyOp45
 70
     1
102
RTVSPropertyOp46
 70
     1
102
RTVSPropertyOp47
 70
     1
102
RTVSPropertyOp48
 70
     1
102
RTVSPropertyOp49
 70
     1
102
RTVSPropertyOp50
 70
     1
102
RTVSPropertyOp51
 70
     0
102
RTVSPropertyOp52
 70
     0
102
RTVSPropertyOp53
 70
     1
102
RTVSPropertyOp54
 70
     1
102
RTVSPropertyOp55
 70
     1
102
RTVSPropertyOp56
 70
     1
102
RTVSPropertyOp57
 70
     1
102
RTVSPropertyOp58
 70
     1
102
RTVSPropertyOp59
 70
     1
102
RTVSPropertyOp60
 70
     1
102
RTVSPropertyOp61
 70
     1
102
RTVSPropertyOp62
 70
     1
  0
XRECORD
  5
4AE4
102
{ACAD_REACTORS
330
4AE3
102
}
330
4AE3
100
AcDbXrecord
280
     1
102
RTVSPost2010Prop28
280
     0
102
RTVSPost2010PropOp28
 70
     1
102
RTVSPost2010Prop29
280
     1
102
RTVSPost2010PropOp29
 70
     1
102
RTVSPost2010Prop30
280
     1
102
RTVSPost2010PropOp30
 70
     1
102
RTVSPost2010Prop31
280
     0
102
RTVSPost2010PropOp31
 70
     1
102
RTVSPost2010Prop32
280
     0
102
RTVSPost2010PropOp32
 70
     1
102
RTVSPost2010Prop33
280
     0
102
RTVSPost2010PropOp33
 70
     1
102
RTVSPost2010Prop34
280
     0
102
RTVSPost2010PropOp34
 70
     1
102
RTVSPost2010Prop35
280
     0
102
RTVSPost2010PropOp35
 70
     1
102
RTVSPost2010Prop36
280
     0
102
RTVSPost2010PropOp36
 70
     1
102
RTVSPost2010Prop37
 90
       50
102
RTVSPost2010PropOp37
 70
     1
102
RTVSPost2010Prop38
140
0.0
102
RTVSPost2010PropOp38
 70
     1
102
RTVSPost2010Prop39
140
1.0
102
RTVSPost2010PropOp39
 70
     1
102
RTVSPost2010Prop40
 90
        0
102
RTVSPost2010PropOp40
 70
     1
102
RTVSPost2010Prop41ColorIndex
 90
       18
102
RTVSPost2010Prop41ColorRGB
 90
        0
102
RTVSPost2010PropOp41
 70
     1
102
RTVSPost2010Prop42
 90
       50
102
RTVSPost2010PropOp42
 70
     1
102
RTVSPost2010Prop43
 90
        3
102
RTVSPost2010PropOp43
 70
     1
102
RTVSPost2010Prop44ColorIndex
 90
        5
102
RTVSPost2010Prop44ColorRGB
 90
      255
102
RTVSPost2010PropOp44
 70
     1
102
RTVSPost2010Prop45
280
     0
102
RTVSPost2010PropOp45
 70
     1
102
RTVSPost2010Prop46
 90
       50
102
RTVSPost2010PropOp46
 70
     1
102
RTVSPost2010Prop47
 90
       50
102
RTVSPost2010PropOp47
 70
     1
102
RTVSPost2010Prop48
 90
       50
102
RTVSPost2010PropOp48
 70
     1
102
RTVSPost2010Prop49
280
     0
102
RTVSPost2010PropOp49
 70
     1
102
RTVSPost2010Prop50
 90
       50
102
RTVSPost2010PropOp50
 70
     1
102
RTVSPost2010Prop51ColorIndex
 90
      256
102
RTVSPost2010Prop51ColorRGB
 90
-16777216
102
RTVSPost2010PropOp51
 70
     0
102
RTVSPost2010Prop52
140
1.0
102
RTVSPost2010PropOp52
 70
     0
102
RTVSPost2010Prop53
 90
        2
102
RTVSPost2010PropOp53
 70
     1
102
RTVSPost2010Prop54
  1
strokes_ogs.tif
102
RTVSPost2010PropOp54
 70
     1
102
RTVSPost2010Prop55
280
     0
102
RTVSPost2010PropOp55
 70
     1
102
RTVSPost2010Prop56
140
1.0
102
RTVSPost2010PropOp56
 70
     1
102
RTVSPost2010Prop57
140
1.0
102
RTVSPost2010PropOp57
 70
     1
102
RTVSPropertyOp0
 70
     1
102
RTVSPropertyOp1
 70
     1
102
RTVSPropertyOp2
 70
     1
102
RTVSPropertyOp3
 70
     1
102
RTVSPropertyOp4
 70
     1
102
RTVSPropertyOp5
 70
     1
102
RTVSPropertyOp6
 70
     1
102
RTVSPropertyOp7
 70
     1
102
RTVSPropertyOp8
 70
     1
102
RTVSPropertyOp9
 70
     1
102
RTVSPropertyOp10
 70
     1
102
RTVSPropertyOp11
 70
     1
102
RTVSPropertyOp12
 70
     1
102
RTVSPropertyOp13
 70
     1
102
RTVSPropertyOp14
 70
     1
102
RTVSPropertyOp15
 70
     1
102
RTVSPropertyOp16
 70
     1
102
RTVSPropertyOp17
 70
     1
102
RTVSPropertyOp18
 70
     1
102
RTVSPropertyOp19
 70
     1
102
RTVSPropertyOp20
 70
     1
102
RTVSPropertyOp21
 70
     1
102
RTVSPropertyOp22
 70
     1
102
RTVSPropertyOp23
 70
     1
102
RTVSPropertyOp24
 70
     1
102
RTVSPropertyOp25
 70
     1
102
RTVSPropertyOp26
 70
     1
102
RTVSPropertyOp27
 70
     1
102
RTVSPropertyOp28
 70
     1
102
RTVSPropertyOp29
 70
     1
102
RTVSPropertyOp30
 70
     1
102
RTVSPropertyOp31
 70
     1
102
RTVSPropertyOp32
 70
     1
102
RTVSPropertyOp33
 70
     1
102
RTVSPropertyOp34
 70
     1
102
RTVSPropertyOp35
 70
     1
102
RTVSPropertyOp36
 70
     1
102
RTVSPropertyOp37
 70
     1
102
RTVSPropertyOp38
 70
     1
102
RTVSPropertyOp39
 70
     1
102
RTVSPropertyOp40
 70
     1
102
RTVSPropertyOp41
 70
     1
102
RTVSPropertyOp42
 70
     1
102
RTVSPropertyOp43
 70
     1
102
RTVSPropertyOp44
 70
     1
102
RTVSPropertyOp45
 70
     1
102
RTVSPropertyOp46
 70
     1
102
RTVSPropertyOp47
 70
     1
102
RTVSPropertyOp48
 70
     1
102
RTVSPropertyOp49
 70
     1
102
RTVSPropertyOp50
 70
     1
102
RTVSPropertyOp51
 70
     0
102
RTVSPropertyOp52
 70
     0
102
RTVSPropertyOp53
 70
     1
102
RTVSPropertyOp54
 70
     1
102
RTVSPropertyOp55
 70
     1
102
RTVSPropertyOp56
 70
     1
102
RTVSPropertyOp57
 70
     1
102
RTVSPropertyOp58
 70
     1
102
RTVSPropertyOp59
 70
     1
102
RTVSPropertyOp60
 70
     1
102
RTVSPropertyOp61
 70
     1
102
RTVSPropertyOp62
 70
     1
  0
XRECORD
  5
4AE6
102
{ACAD_REACTORS
330
4AE5
102
}
330
4AE5
100
AcDbXrecord
280
     1
102
RTVSPost2010Prop28
280
     0
102
RTVSPost2010PropOp28
 70
     1
102
RTVSPost2010Prop29
280
     1
102
RTVSPost2010PropOp29
 70
     1
102
RTVSPost2010Prop30
280
     1
102
RTVSPost2010PropOp30
 70
     1
102
RTVSPost2010Prop31
280
     0
102
RTVSPost2010PropOp31
 70
     1
102
RTVSPost2010Prop32
280
     0
102
RTVSPost2010PropOp32
 70
     1
102
RTVSPost2010Prop33
280
     0
102
RTVSPost2010PropOp33
 70
     1
102
RTVSPost2010Prop34
280
     0
102
RTVSPost2010PropOp34
 70
     1
102
RTVSPost2010Prop35
280
     0
102
RTVSPost2010PropOp35
 70
     1
102
RTVSPost2010Prop36
280
     0
102
RTVSPost2010PropOp36
 70
     1
102
RTVSPost2010Prop37
 90
       50
102
RTVSPost2010PropOp37
 70
     1
102
RTVSPost2010Prop38
140
0.0
102
RTVSPost2010PropOp38
 70
     1
102
RTVSPost2010Prop39
140
1.0
102
RTVSPost2010PropOp39
 70
     1
102
RTVSPost2010Prop40
 90
        0
102
RTVSPost2010PropOp40
 70
     1
102
RTVSPost2010Prop41ColorIndex
 90
       18
102
RTVSPost2010Prop41ColorRGB
 90
        0
102
RTVSPost2010PropOp41
 70
     1
102
RTVSPost2010Prop42
 90
       50
102
RTVSPost2010PropOp42
 70
     1
102
RTVSPost2010Prop43
 90
        3
102
RTVSPost2010PropOp43
 70
     1
102
RTVSPost2010Prop44ColorIndex
 90
        5
102
RTVSPost2010Prop44ColorRGB
 90
      255
102
RTVSPost2010PropOp44
 70
     1
102
RTVSPost2010Prop45
280
     0
102
RTVSPost2010PropOp45
 70
     1
102
RTVSPost2010Prop46
 90
       50
102
RTVSPost2010PropOp46
 70
     1
102
RTVSPost2010Prop47
 90
       50
102
RTVSPost2010PropOp47
 70
     1
102
RTVSPost2010Prop48
 90
       50
102
RTVSPost2010PropOp48
 70
     1
102
RTVSPost2010Prop49
280
     0
102
RTVSPost2010PropOp49
 70
     1
102
RTVSPost2010Prop50
 90
       50
102
RTVSPost2010PropOp50
 70
     1
102
RTVSPost2010Prop51ColorIndex
 90
      256
102
RTVSPost2010Prop51ColorRGB
 90
-16777216
102
RTVSPost2010PropOp51
 70
     0
102
RTVSPost2010Prop52
140
1.0
102
RTVSPost2010PropOp52
 70
     0
102
RTVSPost2010Prop53
 90
        2
102
RTVSPost2010PropOp53
 70
     1
102
RTVSPost2010Prop54
  1
strokes_ogs.tif
102
RTVSPost2010PropOp54
 70
     1
102
RTVSPost2010Prop55
280
     0
102
RTVSPost2010PropOp55
 70
     1
102
RTVSPost2010Prop56
140
1.0
102
RTVSPost2010PropOp56
 70
     1
102
RTVSPost2010Prop57
140
1.0
102
RTVSPost2010PropOp57
 70
     1
102
RTVSPropertyOp0
 70
     1
102
RTVSPropertyOp1
 70
     1
102
RTVSPropertyOp2
 70
     1
102
RTVSPropertyOp3
 70
     1
102
RTVSPropertyOp4
 70
     1
102
RTVSPropertyOp5
 70
     1
102
RTVSPropertyOp6
 70
     1
102
RTVSPropertyOp7
 70
     1
102
RTVSPropertyOp8
 70
     1
102
RTVSPropertyOp9
 70
     1
102
RTVSPropertyOp10
 70
     1
102
RTVSPropertyOp11
 70
     1
102
RTVSPropertyOp12
 70
     1
102
RTVSPropertyOp13
 70
     1
102
RTVSPropertyOp14
 70
     1
102
RTVSPropertyOp15
 70
     1
102
RTVSPropertyOp16
 70
     1
102
RTVSPropertyOp17
 70
     1
102
RTVSPropertyOp18
 70
     1
102
RTVSPropertyOp19
 70
     1
102
RTVSPropertyOp20
 70
     1
102
RTVSPropertyOp21
 70
     1
102
RTVSPropertyOp22
 70
     1
102
RTVSPropertyOp23
 70
     1
102
RTVSPropertyOp24
 70
     1
102
RTVSPropertyOp25
 70
     1
102
RTVSPropertyOp26
 70
     1
102
RTVSPropertyOp27
 70
     1
102
RTVSPropertyOp28
 70
     1
102
RTVSPropertyOp29
 70
     1
102
RTVSPropertyOp30
 70
     1
102
RTVSPropertyOp31
 70
     1
102
RTVSPropertyOp32
 70
     1
102
RTVSPropertyOp33
 70
     1
102
RTVSPropertyOp34
 70
     1
102
RTVSPropertyOp35
 70
     1
102
RTVSPropertyOp36
 70
     1
102
RTVSPropertyOp37
 70
     1
102
RTVSPropertyOp38
 70
     1
102
RTVSPropertyOp39
 70
     1
102
RTVSPropertyOp40
 70
     1
102
RTVSPropertyOp41
 70
     1
102
RTVSPropertyOp42
 70
     1
102
RTVSPropertyOp43
 70
     1
102
RTVSPropertyOp44
 70
     1
102
RTVSPropertyOp45
 70
     1
102
RTVSPropertyOp46
 70
     1
102
RTVSPropertyOp47
 70
     1
102
RTVSPropertyOp48
 70
     1
102
RTVSPropertyOp49
 70
     1
102
RTVSPropertyOp50
 70
     1
102
RTVSPropertyOp51
 70
     0
102
RTVSPropertyOp52
 70
     0
102
RTVSPropertyOp53
 70
     1
102
RTVSPropertyOp54
 70
     1
102
RTVSPropertyOp55
 70
     1
102
RTVSPropertyOp56
 70
     1
102
RTVSPropertyOp57
 70
     1
102
RTVSPropertyOp58
 70
     1
102
RTVSPropertyOp59
 70
     1
102
RTVSPropertyOp60
 70
     1
102
RTVSPropertyOp61
 70
     1
102
RTVSPropertyOp62
 70
     1
  0
XRECORD
  5
4AD4
102
{ACAD_REACTORS
330
4AD3
102
}
330
4AD3
100
AcDbXrecord
280
     1
102
RTVSPost2010Prop28
280
     0
102
RTVSPost2010PropOp28
 70
     1
102
RTVSPost2010Prop29
280
     1
102
RTVSPost2010PropOp29
 70
     1
102
RTVSPost2010Prop30
280
     1
102
RTVSPost2010PropOp30
 70
     1
102
RTVSPost2010Prop31
280
     0
102
RTVSPost2010PropOp31
 70
     1
102
RTVSPost2010Prop32
280
     0
102
RTVSPost2010PropOp32
 70
     1
102
RTVSPost2010Prop33
280
     0
102
RTVSPost2010PropOp33
 70
     1
102
RTVSPost2010Prop34
280
     0
102
RTVSPost2010PropOp34
 70
     1
102
RTVSPost2010Prop35
280
     0
102
RTVSPost2010PropOp35
 70
     1
102
RTVSPost2010Prop36
280
     0
102
RTVSPost2010PropOp36
 70
     1
102
RTVSPost2010Prop37
 90
       50
102
RTVSPost2010PropOp37
 70
     1
102
RTVSPost2010Prop38
140
0.0
102
RTVSPost2010PropOp38
 70
     1
102
RTVSPost2010Prop39
140
1.0
102
RTVSPost2010PropOp39
 70
     1
102
RTVSPost2010Prop40
 90
        0
102
RTVSPost2010PropOp40
 70
     1
102
RTVSPost2010Prop41ColorIndex
 90
       18
102
RTVSPost2010Prop41ColorRGB
 90
        0
102
RTVSPost2010PropOp41
 70
     1
102
RTVSPost2010Prop42
 90
       50
102
RTVSPost2010PropOp42
 70
     1
102
RTVSPost2010Prop43
 90
        3
102
RTVSPost2010PropOp43
 70
     1
102
RTVSPost2010Prop44ColorIndex
 90
        5
102
RTVSPost2010Prop44ColorRGB
 90
      255
102
RTVSPost2010PropOp44
 70
     1
102
RTVSPost2010Prop45
280
     0
102
RTVSPost2010PropOp45
 70
     1
102
RTVSPost2010Prop46
 90
       50
102
RTVSPost2010PropOp46
 70
     1
102
RTVSPost2010Prop47
 90
       50
102
RTVSPost2010PropOp47
 70
     1
102
RTVSPost2010Prop48
 90
       50
102
RTVSPost2010PropOp48
 70
     1
102
RTVSPost2010Prop49
280
     0
102
RTVSPost2010PropOp49
 70
     1
102
RTVSPost2010Prop50
 90
       50
102
RTVSPost2010PropOp50
 70
     1
102
RTVSPost2010Prop51ColorIndex
 90
      256
102
RTVSPost2010Prop51ColorRGB
 90
-16777216
102
RTVSPost2010PropOp51
 70
     0
102
RTVSPost2010Prop52
140
1.0
102
RTVSPost2010PropOp52
 70
     0
102
RTVSPost2010Prop53
 90
        2
102
RTVSPost2010PropOp53
 70
     1
102
RTVSPost2010Prop54
  1
strokes_ogs.tif
102
RTVSPost2010PropOp54
 70
     1
102
RTVSPost2010Prop55
280
     0
102
RTVSPost2010PropOp55
 70
     1
102
RTVSPost2010Prop56
140
1.0
102
RTVSPost2010PropOp56
 70
     1
102
RTVSPost2010Prop57
140
1.0
102
RTVSPost2010PropOp57
 70
     1
102
RTVSPropertyOp0
 70
     1
102
RTVSPropertyOp1
 70
     1
102
RTVSPropertyOp2
 70
     1
102
RTVSPropertyOp3
 70
     1
102
RTVSPropertyOp4
 70
     1
102
RTVSPropertyOp5
 70
     1
102
RTVSPropertyOp6
 70
     1
102
RTVSPropertyOp7
 70
     1
102
RTVSPropertyOp8
 70
     1
102
RTVSPropertyOp9
 70
     1
102
RTVSPropertyOp10
 70
     1
102
RTVSPropertyOp11
 70
     1
102
RTVSPropertyOp12
 70
     1
102
RTVSPropertyOp13
 70
     1
102
RTVSPropertyOp14
 70
     1
102
RTVSPropertyOp15
 70
     1
102
RTVSPropertyOp16
 70
     1
102
RTVSPropertyOp17
 70
     1
102
RTVSPropertyOp18
 70
     1
102
RTVSPropertyOp19
 70
     1
102
RTVSPropertyOp20
 70
     1
102
RTVSPropertyOp21
 70
     1
102
RTVSPropertyOp22
 70
     1
102
RTVSPropertyOp23
 70
     1
102
RTVSPropertyOp24
 70
     1
102
RTVSPropertyOp25
 70
     1
102
RTVSPropertyOp26
 70
     1
102
RTVSPropertyOp27
 70
     1
102
RTVSPropertyOp28
 70
     1
102
RTVSPropertyOp29
 70
     1
102
RTVSPropertyOp30
 70
     1
102
RTVSPropertyOp31
 70
     1
102
RTVSPropertyOp32
 70
     1
102
RTVSPropertyOp33
 70
     1
102
RTVSPropertyOp34
 70
     1
102
RTVSPropertyOp35
 70
     1
102
RTVSPropertyOp36
 70
     1
102
RTVSPropertyOp37
 70
     1
102
RTVSPropertyOp38
 70
     1
102
RTVSPropertyOp39
 70
     1
102
RTVSPropertyOp40
 70
     1
102
RTVSPropertyOp41
 70
     1
102
RTVSPropertyOp42
 70
     1
102
RTVSPropertyOp43
 70
     1
102
RTVSPropertyOp44
 70
     1
102
RTVSPropertyOp45
 70
     1
102
RTVSPropertyOp46
 70
     1
102
RTVSPropertyOp47
 70
     1
102
RTVSPropertyOp48
 70
     1
102
RTVSPropertyOp49
 70
     1
102
RTVSPropertyOp50
 70
     1
102
RTVSPropertyOp51
 70
     0
102
RTVSPropertyOp52
 70
     0
102
RTVSPropertyOp53
 70
     1
102
RTVSPropertyOp54
 70
     1
102
RTVSPropertyOp55
 70
     1
102
RTVSPropertyOp56
 70
     1
102
RTVSPropertyOp57
 70
     1
102
RTVSPropertyOp58
 70
     1
102
RTVSPropertyOp59
 70
     1
102
RTVSPropertyOp60
 70
     1
102
RTVSPropertyOp61
 70
     1
102
RTVSPropertyOp62
 70
     1
  0
XRECORD
  5
4AC8
102
{ACAD_REACTORS
330
4AC7
102
}
330
4AC7
100
AcDbXrecord
280
     1
102
RTVSPost2010Prop28
280
     0
102
RTVSPost2010PropOp28
 70
     1
102
RTVSPost2010Prop29
280
     1
102
RTVSPost2010PropOp29
 70
     1
102
RTVSPost2010Prop30
280
     1
102
RTVSPost2010PropOp30
 70
     1
102
RTVSPost2010Prop31
280
     0
102
RTVSPost2010PropOp31
 70
     1
102
RTVSPost2010Prop32
280
     0
102
RTVSPost2010PropOp32
 70
     1
102
RTVSPost2010Prop33
280
     0
102
RTVSPost2010PropOp33
 70
     1
102
RTVSPost2010Prop34
280
     0
102
RTVSPost2010PropOp34
 70
     1
102
RTVSPost2010Prop35
280
     0
102
RTVSPost2010PropOp35
 70
     1
102
RTVSPost2010Prop36
280
     0
102
RTVSPost2010PropOp36
 70
     1
102
RTVSPost2010Prop37
 90
       50
102
RTVSPost2010PropOp37
 70
     1
102
RTVSPost2010Prop38
140
0.0
102
RTVSPost2010PropOp38
 70
     1
102
RTVSPost2010Prop39
140
1.0
102
RTVSPost2010PropOp39
 70
     1
102
RTVSPost2010Prop40
 90
        0
102
RTVSPost2010PropOp40
 70
     1
102
RTVSPost2010Prop41ColorIndex
 90
       18
102
RTVSPost2010Prop41ColorRGB
 90
        0
102
RTVSPost2010PropOp41
 70
     1
102
RTVSPost2010Prop42
 90
       50
102
RTVSPost2010PropOp42
 70
     1
102
RTVSPost2010Prop43
 90
        3
102
RTVSPost2010PropOp43
 70
     1
102
RTVSPost2010Prop44ColorIndex
 90
        5
102
RTVSPost2010Prop44ColorRGB
 90
      255
102
RTVSPost2010PropOp44
 70
     1
102
RTVSPost2010Prop45
280
     0
102
RTVSPost2010PropOp45
 70
     1
102
RTVSPost2010Prop46
 90
       50
102
RTVSPost2010PropOp46
 70
     1
102
RTVSPost2010Prop47
 90
       50
102
RTVSPost2010PropOp47
 70
     1
102
RTVSPost2010Prop48
 90
       50
102
RTVSPost2010PropOp48
 70
     1
102
RTVSPost2010Prop49
280
     0
102
RTVSPost2010PropOp49
 70
     1
102
RTVSPost2010Prop50
 90
       50
102
RTVSPost2010PropOp50
 70
     1
102
RTVSPost2010Prop51ColorIndex
 90
      256
102
RTVSPost2010Prop51ColorRGB
 90
-16777216
102
RTVSPost2010PropOp51
 70
     0
102
RTVSPost2010Prop52
140
1.0
102
RTVSPost2010PropOp52
 70
     0
102
RTVSPost2010Prop53
 90
        2
102
RTVSPost2010PropOp53
 70
     1
102
RTVSPost2010Prop54
  1
strokes_ogs.tif
102
RTVSPost2010PropOp54
 70
     1
102
RTVSPost2010Prop55
280
     0
102
RTVSPost2010PropOp55
 70
     1
102
RTVSPost2010Prop56
140
1.0
102
RTVSPost2010PropOp56
 70
     1
102
RTVSPost2010Prop57
140
1.0
102
RTVSPost2010PropOp57
 70
     1
102
RTVSPropertyOp0
 70
     1
102
RTVSPropertyOp1
 70
     1
102
RTVSPropertyOp2
 70
     1
102
RTVSPropertyOp3
 70
     1
102
RTVSPropertyOp4
 70
     1
102
RTVSPropertyOp5
 70
     1
102
RTVSPropertyOp6
 70
     1
102
RTVSPropertyOp7
 70
     1
102
RTVSPropertyOp8
 70
     1
102
RTVSPropertyOp9
 70
     1
102
RTVSPropertyOp10
 70
     1
102
RTVSPropertyOp11
 70
     1
102
RTVSPropertyOp12
 70
     1
102
RTVSPropertyOp13
 70
     1
102
RTVSPropertyOp14
 70
     1
102
RTVSPropertyOp15
 70
     1
102
RTVSPropertyOp16
 70
     1
102
RTVSPropertyOp17
 70
     1
102
RTVSPropertyOp18
 70
     1
102
RTVSPropertyOp19
 70
     1
102
RTVSPropertyOp20
 70
     1
102
RTVSPropertyOp21
 70
     1
102
RTVSPropertyOp22
 70
     1
102
RTVSPropertyOp23
 70
     1
102
RTVSPropertyOp24
 70
     1
102
RTVSPropertyOp25
 70
     1
102
RTVSPropertyOp26
 70
     1
102
RTVSPropertyOp27
 70
     1
102
RTVSPropertyOp28
 70
     1
102
RTVSPropertyOp29
 70
     1
102
RTVSPropertyOp30
 70
     1
102
RTVSPropertyOp31
 70
     1
102
RTVSPropertyOp32
 70
     1
102
RTVSPropertyOp33
 70
     1
102
RTVSPropertyOp34
 70
     1
102
RTVSPropertyOp35
 70
     1
102
RTVSPropertyOp36
 70
     1
102
RTVSPropertyOp37
 70
     1
102
RTVSPropertyOp38
 70
     1
102
RTVSPropertyOp39
 70
     1
102
RTVSPropertyOp40
 70
     1
102
RTVSPropertyOp41
 70
     1
102
RTVSPropertyOp42
 70
     1
102
RTVSPropertyOp43
 70
     1
102
RTVSPropertyOp44
 70
     1
102
RTVSPropertyOp45
 70
     1
102
RTVSPropertyOp46
 70
     1
102
RTVSPropertyOp47
 70
     1
102
RTVSPropertyOp48
 70
     1
102
RTVSPropertyOp49
 70
     1
102
RTVSPropertyOp50
 70
     1
102
RTVSPropertyOp51
 70
     0
102
RTVSPropertyOp52
 70
     0
102
RTVSPropertyOp53
 70
     1
102
RTVSPropertyOp54
 70
     1
102
RTVSPropertyOp55
 70
     1
102
RTVSPropertyOp56
 70
     1
102
RTVSPropertyOp57
 70
     1
102
RTVSPropertyOp58
 70
     1
102
RTVSPropertyOp59
 70
     1
102
RTVSPropertyOp60
 70
     1
102
RTVSPropertyOp61
 70
     1
102
RTVSPropertyOp62
 70
     1
  0
XRECORD
  5
4AE8
102
{ACAD_REACTORS
330
4AE7
102
}
330
4AE7
100
AcDbXrecord
280
     1
102
RTVSPost2010Prop28
280
     0
102
RTVSPost2010PropOp28
 70
     1
102
RTVSPost2010Prop29
280
     1
102
RTVSPost2010PropOp29
 70
     1
102
RTVSPost2010Prop30
280
     1
102
RTVSPost2010PropOp30
 70
     1
102
RTVSPost2010Prop31
280
     0
102
RTVSPost2010PropOp31
 70
     1
102
RTVSPost2010Prop32
280
     0
102
RTVSPost2010PropOp32
 70
     1
102
RTVSPost2010Prop33
280
     0
102
RTVSPost2010PropOp33
 70
     1
102
RTVSPost2010Prop34
280
     0
102
RTVSPost2010PropOp34
 70
     1
102
RTVSPost2010Prop35
280
     0
102
RTVSPost2010PropOp35
 70
     1
102
RTVSPost2010Prop36
280
     0
102
RTVSPost2010PropOp36
 70
     1
102
RTVSPost2010Prop37
 90
       50
102
RTVSPost2010PropOp37
 70
     1
102
RTVSPost2010Prop38
140
0.0
102
RTVSPost2010PropOp38
 70
     1
102
RTVSPost2010Prop39
140
1.0
102
RTVSPost2010PropOp39
 70
     1
102
RTVSPost2010Prop40
 90
        0
102
RTVSPost2010PropOp40
 70
     1
102
RTVSPost2010Prop41ColorIndex
 90
       18
102
RTVSPost2010Prop41ColorRGB
 90
        0
102
RTVSPost2010PropOp41
 70
     1
102
RTVSPost2010Prop42
 90
       50
102
RTVSPost2010PropOp42
 70
     1
102
RTVSPost2010Prop43
 90
        3
102
RTVSPost2010PropOp43
 70
     1
102
RTVSPost2010Prop44ColorIndex
 90
        5
102
RTVSPost2010Prop44ColorRGB
 90
      255
102
RTVSPost2010PropOp44
 70
     1
102
RTVSPost2010Prop45
280
     0
102
RTVSPost2010PropOp45
 70
     1
102
RTVSPost2010Prop46
 90
       50
102
RTVSPost2010PropOp46
 70
     1
102
RTVSPost2010Prop47
 90
       50
102
RTVSPost2010PropOp47
 70
     1
102
RTVSPost2010Prop48
 90
       50
102
RTVSPost2010PropOp48
 70
     1
102
RTVSPost2010Prop49
280
     0
102
RTVSPost2010PropOp49
 70
     1
102
RTVSPost2010Prop50
 90
       50
102
RTVSPost2010PropOp50
 70
     1
102
RTVSPost2010Prop51ColorIndex
 90
      256
102
RTVSPost2010Prop51ColorRGB
 90
-16777216
102
RTVSPost2010PropOp51
 70
     0
102
RTVSPost2010Prop52
140
1.0
102
RTVSPost2010PropOp52
 70
     0
102
RTVSPost2010Prop53
 90
        2
102
RTVSPost2010PropOp53
 70
     1
102
RTVSPost2010Prop54
  1
strokes_ogs.tif
102
RTVSPost2010PropOp54
 70
     1
102
RTVSPost2010Prop55
280
     0
102
RTVSPost2010PropOp55
 70
     1
102
RTVSPost2010Prop56
140
1.0
102
RTVSPost2010PropOp56
 70
     1
102
RTVSPost2010Prop57
140
1.0
102
RTVSPost2010PropOp57
 70
     1
102
RTVSPropertyOp0
 70
     1
102
RTVSPropertyOp1
 70
     1
102
RTVSPropertyOp2
 70
     1
102
RTVSPropertyOp3
 70
     1
102
RTVSPropertyOp4
 70
     1
102
RTVSPropertyOp5
 70
     1
102
RTVSPropertyOp6
 70
     1
102
RTVSPropertyOp7
 70
     1
102
RTVSPropertyOp8
 70
     1
102
RTVSPropertyOp9
 70
     1
102
RTVSPropertyOp10
 70
     1
102
RTVSPropertyOp11
 70
     1
102
RTVSPropertyOp12
 70
     1
102
RTVSPropertyOp13
 70
     1
102
RTVSPropertyOp14
 70
     1
102
RTVSPropertyOp15
 70
     1
102
RTVSPropertyOp16
 70
     1
102
RTVSPropertyOp17
 70
     1
102
RTVSPropertyOp18
 70
     1
102
RTVSPropertyOp19
 70
     1
102
RTVSPropertyOp20
 70
     1
102
RTVSPropertyOp21
 70
     1
102
RTVSPropertyOp22
 70
     1
102
RTVSPropertyOp23
 70
     1
102
RTVSPropertyOp24
 70
     1
102
RTVSPropertyOp25
 70
     1
102
RTVSPropertyOp26
 70
     1
102
RTVSPropertyOp27
 70
     1
102
RTVSPropertyOp28
 70
     1
102
RTVSPropertyOp29
 70
     1
102
RTVSPropertyOp30
 70
     1
102
RTVSPropertyOp31
 70
     1
102
RTVSPropertyOp32
 70
     1
102
RTVSPropertyOp33
 70
     1
102
RTVSPropertyOp34
 70
     1
102
RTVSPropertyOp35
 70
     1
102
RTVSPropertyOp36
 70
     1
102
RTVSPropertyOp37
 70
     1
102
RTVSPropertyOp38
 70
     1
102
RTVSPropertyOp39
 70
     1
102
RTVSPropertyOp40
 70
     1
102
RTVSPropertyOp41
 70
     1
102
RTVSPropertyOp42
 70
     1
102
RTVSPropertyOp43
 70
     1
102
RTVSPropertyOp44
 70
     1
102
RTVSPropertyOp45
 70
     1
102
RTVSPropertyOp46
 70
     1
102
RTVSPropertyOp47
 70
     1
102
RTVSPropertyOp48
 70
     1
102
RTVSPropertyOp49
 70
     1
102
RTVSPropertyOp50
 70
     1
102
RTVSPropertyOp51
 70
     0
102
RTVSPropertyOp52
 70
     0
102
RTVSPropertyOp53
 70
     1
102
RTVSPropertyOp54
 70
     1
102
RTVSPropertyOp55
 70
     1
102
RTVSPropertyOp56
 70
     1
102
RTVSPropertyOp57
 70
     1
102
RTVSPropertyOp58
 70
     1
102
RTVSPropertyOp59
 70
     1
102
RTVSPropertyOp60
 70
     1
102
RTVSPropertyOp61
 70
     1
102
RTVSPropertyOp62
 70
     1
  0
ENDSEC
  0
EOF
