  0
SECTION
  2
HEADER
  9
$ACADVER
  1
AC1015
  9
$ACADMAINTVER
 70
    18
  9
$DWGCODEPAGE
  3
ANSI_1252
  9
$INSBASE
 10
0.0
 20
0.0
 30
0.0
  9
$EXTMIN
 10
-181.5069572412257
 20
-188.6930689861684
 30
-0.0015258207003583
  9
$EXTMAX
 10
207.3403937967266
 20
241.5164343427359
 30
0.0000000349246037
  9
$LIMMIN
 10
0.0
 20
0.0
  9
$LIMMAX
 10
420.0
 20
297.0
  9
$ORTHOMODE
 70
     0
  9
$REGENMODE
 70
     1
  9
$FILLMODE
 70
     1
  9
$QTEXTMODE
 70
     0
  9
$MIRRTEXT
 70
     0
  9
$LTSCALE
 40
1.0
  9
$ATTMODE
 70
     1
  9
$TEXTSIZE
 40
2.5
  9
$TRACEWID
 40
1.0
  9
$TEXTSTYLE
  7
Standard
  9
$CLAYER
  8
0
  9
$CELTYPE
  6
ByLayer
  9
$CECOLOR
 62
   256
  9
$CELTSCALE
 40
1.0
  9
$DISPSILH
 70
     0
  9
$DIMSCALE
 40
1.0
  9
$DIMASZ
 40
2.5
  9
$DIMEXO
 40
0.625
  9
$DIMDLI
 40
3.75
  9
$DIMRND
 40
0.0
  9
$DIMDLE
 40
0.0
  9
$DIMEXE
 40
1.25
  9
$DIMTP
 40
0.0
  9
$DIMTM
 40
0.0
  9
$DIMTXT
 40
2.5
  9
$DIMCEN
 40
2.5
  9
$DIMTSZ
 40
0.0
  9
$DIMTOL
 70
     0
  9
$DIMLIM
 70
     0
  9
$DIMTIH
 70
     0
  9
$DIMTOH
 70
     0
  9
$DIMSE1
 70
     0
  9
$DIMSE2
 70
     0
  9
$DIMTAD
 70
     1
  9
$DIMZIN
 70
     8
  9
$DIMBLK
  1

  9
$DIMASO
 70
     1
  9
$DIMSHO
 70
     1
  9
$DIMPOST
  1

  9
$DIMAPOST
  1

  9
$DIMALT
 70
     0
  9
$DIMALTD
 70
     3
  9
$DIMALTF
 40
0.03937007874016
  9
$DIMLFAC
 40
1.0
  9
$DIMTOFL
 70
     1
  9
$DIMTVP
 40
0.0
  9
$DIMTIX
 70
     0
  9
$DIMSOXD
 70
     0
  9
$DIMSAH
 70
     0
  9
$DIMBLK1
  1

  9
$DIMBLK2
  1

  9
$DIMSTYLE
  2
ISO-25
  9
$DIMCLRD
 70
     0
  9
$DIMCLRE
 70
     0
  9
$DIMCLRT
 70
     0
  9
$DIMTFAC
 40
1.0
  9
$DIMGAP
 40
0.625
  9
$DIMJUST
 70
     0
  9
$DIMSD1
 70
     0
  9
$DIMSD2
 70
     0
  9
$DIMTOLJ
 70
     0
  9
$DIMTZIN
 70
     8
  9
$DIMALTZ
 70
     0
  9
$DIMALTTZ
 70
     0
  9
$DIMUPT
 70
     0
  9
$DIMDEC
 70
     2
  9
$DIMTDEC
 70
     2
  9
$DIMALTU
 70
     2
  9
$DIMALTTD
 70
     3
  9
$DIMTXSTY
  7
Standard
  9
$DIMAUNIT
 70
     0
  9
$DIMADEC
 70
     0
  9
$DIMALTRND
 40
0.0
  9
$DIMAZIN
 70
     0
  9
$DIMDSEP
 70
    44
  9
$DIMATFIT
 70
     3
  9
$DIMFRAC
 70
     0
  9
$DIMLDRBLK
  1

  9
$DIMLUNIT
 70
     2
  9
$DIMLWD
 70
    -2
  9
$DIMLWE
 70
    -2
  9
$DIMTMOVE
 70
     0
  9
$LUNITS
 70
     2
  9
$LUPREC
 70
     4
  9
$SKETCHINC
 40
1.0
  9
$FILLETRAD
 40
0.0
  9
$AUNITS
 70
     0
  9
$AUPREC
 70
     0
  9
$MENU
  1
.
  9
$ELEVATION
 40
0.0
  9
$PELEVATION
 40
0.0
  9
$THICKNESS
 40
0.0
  9
$LIMCHECK
 70
     0
  9
$CHAMFERA
 40
0.0
  9
$CHAMFERB
 40
0.0
  9
$CHAMFERC
 40
0.0
  9
$CHAMFERD
 40
0.0
  9
$SKPOLY
 70
     0
  9
$TDCREATE
 40
2460367.705740741
  9
$TDUCREATE
 40
2460367.414074074
  9
$TDUPDATE
 40
2460367.710601852
  9
$TDUUPDATE
 40
2460367.418935185
  9
$TDINDWG
 40
0.0034490741
  9
$TDUSRTIMER
 40
0.0034490741
  9
$USRTIMER
 70
     1
  9
$ANGBASE
 50
0.0
  9
$ANGDIR
 70
     0
  9
$PDMODE
 70
     0
  9
$PDSIZE
 40
0.0
  9
$PLINEWID
 40
0.0
  9
$SPLFRAME
 70
     0
  9
$SPLINETYPE
 70
     6
  9
$SPLINESEGS
 70
     8
  9
$HANDSEED
  5
1440
  9
$SURFTAB1
 70
     6
  9
$SURFTAB2
 70
     6
  9
$SURFTYPE
 70
     6
  9
$SURFU
 70
     6
  9
$SURFV
 70
     6
  9
$UCSBASE
  2

  9
$UCSNAME
  2

  9
$UCSORG
 10
0.0
 20
0.0
 30
0.0
  9
$UCSXDIR
 10
1.0
 20
0.0
 30
0.0
  9
$UCSYDIR
 10
0.0
 20
1.0
 30
0.0
  9
$UCSORTHOREF
  2

  9
$UCSORTHOVIEW
 70
     0
  9
$UCSORGTOP
 10
0.0
 20
0.0
 30
0.0
  9
$UCSORGBOTTOM
 10
0.0
 20
0.0
 30
0.0
  9
$UCSORGLEFT
 10
0.0
 20
0.0
 30
0.0
  9
$UCSORGRIGHT
 10
0.0
 20
0.0
 30
0.0
  9
$UCSORGFRONT
 10
0.0
 20
0.0
 30
0.0
  9
$UCSORGBACK
 10
0.0
 20
0.0
 30
0.0
  9
$PUCSBASE
  2

  9
$PUCSNAME
  2

  9
$PUCSORG
 10
0.0
 20
0.0
 30
0.0
  9
$PUCSXDIR
 10
1.0
 20
0.0
 30
0.0
  9
$PUCSYDIR
 10
0.0
 20
1.0
 30
0.0
  9
$PUCSORTHOREF
  2

  9
$PUCSORTHOVIEW
 70
     0
  9
$PUCSORGTOP
 10
0.0
 20
0.0
 30
0.0
  9
$PUCSORGBOTTOM
 10
0.0
 20
0.0
 30
0.0
  9
$PUCSORGLEFT
 10
0.0
 20
0.0
 30
0.0
  9
$PUCSORGRIGHT
 10
0.0
 20
0.0
 30
0.0
  9
$PUCSORGFRONT
 10
0.0
 20
0.0
 30
0.0
  9
$PUCSORGBACK
 10
0.0
 20
0.0
 30
0.0
  9
$USERI1
 70
     0
  9
$USERI2
 70
     0
  9
$USERI3
 70
     0
  9
$USERI4
 70
     0
  9
$USERI5
 70
     0
  9
$USERR1
 40
0.0
  9
$USERR2
 40
0.0
  9
$USERR3
 40
0.0
  9
$USERR4
 40
0.0
  9
$USERR5
 40
0.0
  9
$WORLDVIEW
 70
     1
  9
$SHADEDGE
 70
     3
  9
$SHADEDIF
 70
    70
  9
$TILEMODE
 70
     1
  9
$MAXACTVP
 70
    48
  9
$PINSBASE
 10
0.0
 20
0.0
 30
0.0
  9
$PLIMCHECK
 70
     0
  9
$PEXTMIN
 10
0.0
 20
0.0
 30
0.0
  9
$PEXTMAX
 10
0.0
 20
0.0
 30
0.0
  9
$PLIMMIN
 10
0.0
 20
0.0
  9
$PLIMMAX
 10
12.0
 20
9.0
  9
$UNITMODE
 70
     0
  9
$VISRETAIN
 70
     1
  9
$PLINEGEN
 70
     0
  9
$PSLTSCALE
 70
     1
  9
$TREEDEPTH
 70
  3020
  9
$CMLSTYLE
  2
Standard
  9
$CMLJUST
 70
     0
  9
$CMLSCALE
 40
20.0
  9
$PROXYGRAPHICS
 70
     1
  9
$MEASUREMENT
 70
     1
  9
$CELWEIGHT
370
    -1
  9
$ENDCAPS
280
     0
  9
$JOINSTYLE
280
     0
  9
$LWDISPLAY
290
     0
  9
$INSUNITS
 70
     4
  9
$HYPERLINKBASE
  1

  9
$STYLESHEET
  1

  9
$XEDIT
290
     1
  9
$CEPSNTYPE
380
     0
  9
$PSTYLEMODE
290
     1
  9
$FINGERPRINTGUID
  2
{09ACAAAA-6FF3-F94C-B944-1C0D1F37C415}
  9
$VERSIONGUID
  2
{05DF7B61-EB02-854F-9C11-19CC6ACABC64}
  9
$EXTNAMES
290
     1
  9
$PSVPSCALE
 40
0.0
  9
$OLESTARTUP
290
     0
  0
ENDSEC
  0
SECTION
  2
CLASSES
  0
CLASS
  1
ACDBDICTIONARYWDFLT
  2
AcDbDictionaryWithDefault
  3
ObjectDBX Classes
 90
        0
280
     0
281
     0
  0
CLASS
  1
ACDBPLACEHOLDER
  2
AcDbPlaceHolder
  3
ObjectDBX Classes
 90
        0
280
     0
281
     0
  0
CLASS
  1
LAYOUT
  2
AcDbLayout
  3
ObjectDBX Classes
 90
        0
280
     0
281
     0
  0
CLASS
  1
DICTIONARYVAR
  2
AcDbDictionaryVar
  3
ObjectDBX Classes
 90
        0
280
     0
281
     0
  0
CLASS
  1
TABLESTYLE
  2
AcDbTableStyle
  3
ObjectDBX Classes
 90
     4095
280
     0
281
     0
  0
CLASS
  1
MATERIAL
  2
AcDbMaterial
  3
ObjectDBX Classes
 90
     1153
280
     0
281
     0
  0
CLASS
  1
VISUALSTYLE
  2
AcDbVisualStyle
  3
ObjectDBX Classes
 90
     4095
280
     0
281
     0
  0
CLASS
  1
SCALE
  2
AcDbScale
  3
ObjectDBX Classes
 90
     1153
280
     0
281
     0
  0
CLASS
  1
MLEADERSTYLE
  2
AcDbMLeaderStyle
  3
ACDB_MLEADERSTYLE_CLASS
 90
     4095
280
     0
281
     0
  0
CLASS
  1
CELLSTYLEMAP
  2
AcDbCellStyleMap
  3
ObjectDBX Classes
 90
     1152
280
     0
281
     0
  0
CLASS
  1
EXACXREFPANELOBJECT
  2
ExAcXREFPanelObject
  3
EXAC_ESW
 90
    33793
280
     0
281
     0
  0
CLASS
  1
NPOCOLLECTION
  2
AcDbImpNonPersistentObjectsCollection
  3
ObjectDBX Classes
 90
    33921
280
     0
281
     0
  0
CLASS
  1
LAYER_INDEX
  2
AcDbLayerIndex
  3
ObjectDBX Classes
 90
    32768
280
     0
281
     0
  0
CLASS
  1
SPATIAL_INDEX
  2
AcDbSpatialIndex
  3
ObjectDBX Classes
 90
    32768
280
     0
281
     0
  0
CLASS
  1
IDBUFFER
  2
AcDbIdBuffer
  3
ObjectDBX Classes
 90
    32768
280
     0
281
     0
  0
CLASS
  1
ACDBSECTIONVIEWSTYLE
  2
AcDbSectionViewStyle
  3
ObjectDBX Classes
 90
     1025
280
     0
281
     0
  0
CLASS
  1
ACDBDETAILVIEWSTYLE
  2
AcDbDetailViewStyle
  3
ObjectDBX Classes
 90
     1025
280
     0
281
     0
  0
CLASS
  1
XRECORD
  2
AcDbXrecord
  3
ObjectDBX Classes
 90
        0
280
     0
281
     0
  0
ENDSEC
  0
SECTION
  2
TABLES
  0
TABLE
  2
VPORT
  5
8
102
{ACAD_XDICTIONARY
360
134E
102
}
330
0
100
AcDbSymbolTable
 70
     1
  0
VPORT
  5
EA
330
8
100
AcDbSymbolTableRecord
100
AcDbViewportTableRecord
  2
*Active
 70
     0
 10
0.0
 20
0.0
 11
1.0
 21
1.0
 12
12.91671827775046
 22
26.41168267828374
 13
0.0
 23
0.0
 14
10.0
 24
10.0
 15
10.0
 25
10.0
 16
0.0
 26
0.0
 36
1.0
 17
0.0
 27
0.0
 37
0.0
 40
457.4888197785367
 41
0.9846153846153846
 42
50.0
 43
0.0
 44
0.0
 50
0.0
 51
0.0
 71
     0
 72
  1000
 73
     1
 74
     3
 75
     0
 76
     1
 77
     0
 78
     0
281
     0
 65
     1
110
0.0
120
0.0
130
0.0
111
1.0
121
0.0
131
0.0
112
0.0
122
1.0
132
0.0
 79
     0
146
0.0
1001
ACAD_NAV_VCDISPLAY
1070
     3
  0
ENDTAB
  0
TABLE
  2
LTYPE
  5
5
330
0
100
AcDbSymbolTable
 70
     1
  0
LTYPE
  5
14
330
5
100
AcDbSymbolTableRecord
100
AcDbLinetypeTableRecord
  2
ByBlock
 70
     0
  3

 72
    65
 73
     0
 40
0.0
  0
LTYPE
  5
15
330
5
100
AcDbSymbolTableRecord
100
AcDbLinetypeTableRecord
  2
ByLayer
 70
     0
  3

 72
    65
 73
     0
 40
0.0
  0
LTYPE
  5
16
330
5
100
AcDbSymbolTableRecord
100
AcDbLinetypeTableRecord
  2
Continuous
 70
     0
  3
Solid line
 72
    65
 73
     0
 40
0.0
  0
ENDTAB
  0
TABLE
  2
LAYER
  5
2
102
{ACAD_XDICTIONARY
360
1FF
102
}
330
0
100
AcDbSymbolTable
 70
     1
  0
LAYER
  5
10
102
{ACAD_XDICTIONARY
360
13C
102
}
330
2
100
AcDbSymbolTableRecord
100
AcDbLayerTableRecord
  2
0
 70
     0
 62
     7
  6
Continuous
370
    -3
390
F
  0
ENDTAB
  0
TABLE
  2
STYLE
  5
3
330
0
100
AcDbSymbolTable
 70
     1
  0
STYLE
  5
11
330
3
100
AcDbSymbolTableRecord
100
AcDbTextStyleTableRecord
  2
Standard
 70
     0
 40
0.0
 41
1.0
 50
0.0
 71
     0
 42
2.5
  3
arial.ttf
  4

1001
ACAD
1000
Arial
1071
       34
  0
ENDTAB
  0
TABLE
  2
VIEW
  5
6
330
0
100
AcDbSymbolTable
 70
     0
  0
ENDTAB
  0
TABLE
  2
UCS
  5
7
330
0
100
AcDbSymbolTable
 70
     0
  0
ENDTAB
  0
TABLE
  2
APPID
  5
9
330
0
100
AcDbSymbolTable
 70
     8
  0
APPID
  5
12
330
9
100
AcDbSymbolTableRecord
100
AcDbRegAppTableRecord
  2
ACAD
 70
     0
  0
APPID
  5
9E
330
9
100
AcDbSymbolTableRecord
100
AcDbRegAppTableRecord
  2
ACAD_PSEXT
 70
     0
  0
APPID
  5
133
330
9
100
AcDbSymbolTableRecord
100
AcDbRegAppTableRecord
  2
AcadAnnoPO
 70
     0
  0
APPID
  5
134
330
9
100
AcDbSymbolTableRecord
100
AcDbRegAppTableRecord
  2
AcadAnnotative
 70
     0
  0
APPID
  5
135
330
9
100
AcDbSymbolTableRecord
100
AcDbRegAppTableRecord
  2
ACAD_DSTYLE_DIMJAG
 70
     0
  0
APPID
  5
136
330
9
100
AcDbSymbolTableRecord
100
AcDbRegAppTableRecord
  2
ACAD_DSTYLE_DIMTALN
 70
     0
  0
APPID
  5
165
330
9
100
AcDbSymbolTableRecord
100
AcDbRegAppTableRecord
  2
ACAD_MLEADERVER
 70
     0
  0
APPID
  5
217
330
9
100
AcDbSymbolTableRecord
100
AcDbRegAppTableRecord
  2
ACAD_NAV_VCDISPLAY
 70
     0
  0
ENDTAB
  0
TABLE
  2
DIMSTYLE
  5
A
330
0
100
AcDbSymbolTable
 70
     1
100
AcDbDimStyleTable
 71
     0
  0
DIMSTYLE
105
27
330
A
100
AcDbSymbolTableRecord
100
AcDbDimStyleTableRecord
  2
ISO-25
 70
     0
 41
2.5
 42
0.625
 43
3.75
 44
1.25
 73
     0
 74
     0
 77
     1
 78
     8
140
2.5
141
2.5
143
0.03937007874016
147
0.625
171
     3
172
     1
271
     2
272
     2
274
     3
278
    44
283
     0
284
     8
340
11
  0
ENDTAB
  0
TABLE
  2
BLOCK_RECORD
  5
1
330
0
100
AcDbSymbolTable
 70
     7
  0
BLOCK_RECORD
  5
1F
102
{ACAD_XDICTIONARY
360
1CE
102
}
330
1
100
AcDbSymbolTableRecord
100
AcDbBlockTableRecord
  2
*Model_Space
340
22
  0
BLOCK_RECORD
  5
D2
102
{ACAD_XDICTIONARY
360
1301
102
}
330
1
100
AcDbSymbolTableRecord
100
AcDbBlockTableRecord
  2
*Paper_Space
340
D3
  0
BLOCK_RECORD
  5
D6
102
{ACAD_XDICTIONARY
360
1303
102
}
330
1
100
AcDbSymbolTableRecord
100
AcDbBlockTableRecord
  2
*Paper_Space0
340
D7
  0
BLOCK_RECORD
  5
1128
330
1
100
AcDbSymbolTableRecord
100
AcDbBlockTableRecord
  2
ABR105-Front
340
0
102
{BLKREFS
331
12F7
102
}
  0
BLOCK_RECORD
  5
1168
330
1
100
AcDbSymbolTableRecord
100
AcDbBlockTableRecord
  2
ABR105-Left
340
0
102
{BLKREFS
331
12F8
102
}
  0
BLOCK_RECORD
  5
1192
330
1
100
AcDbSymbolTableRecord
100
AcDbBlockTableRecord
  2
ABR105-Right
340
0
102
{BLKREFS
331
12F9
102
}
  0
BLOCK_RECORD
  5
11BC
330
1
100
AcDbSymbolTableRecord
100
AcDbBlockTableRecord
  2
ABR105-Top
340
0
102
{BLKREFS
331
12FA
102
}
  0
BLOCK_RECORD
  5
11FE
330
1
100
AcDbSymbolTableRecord
100
AcDbBlockTableRecord
  2
ABR105-Bottom
340
0
102
{BLKREFS
331
12FB
102
}
  0
BLOCK_RECORD
  5
1251
330
1
100
AcDbSymbolTableRecord
100
AcDbBlockTableRecord
  2
ABR105-ISO
340
0
102
{BLKREFS
331
12FC
102
}
  0
ENDTAB
  0
ENDSEC
  0
SECTION
  2
BLOCKS
  0
BLOCK
  5
20
330
1F
100
AcDbEntity
  8
0
100
AcDbBlockBegin
  2
*Model_Space
 70
     0
 10
0.0
 20
0.0
 30
0.0
  3
*Model_Space
  1

  0
ENDBLK
  5
21
330
1F
100
AcDbEntity
  8
0
100
AcDbBlockEnd
  0
BLOCK
  5
D4
330
D2
100
AcDbEntity
 67
     1
  8
0
100
AcDbBlockBegin
  2
*Paper_Space
 70
     0
 10
0.0
 20
0.0
 30
0.0
  3
*Paper_Space
  1

  0
ENDBLK
  5
D5
330
D2
100
AcDbEntity
 67
     1
  8
0
100
AcDbBlockEnd
  0
BLOCK
  5
D8
330
D6
100
AcDbEntity
 67
     1
  8
0
100
AcDbBlockBegin
  2
*Paper_Space0
 70
     0
 10
0.0
 20
0.0
 30
0.0
  3
*Paper_Space0
  1

  0
ENDBLK
  5
D9
330
D6
100
AcDbEntity
 67
     1
  8
0
100
AcDbBlockEnd
  0
BLOCK
  5
1129
330
1128
100
AcDbEntity
  8
0
100
AcDbBlockBegin
  2
ABR105-Front
 70
     0
 10
0.0
 20
0.0
 30
0.0
  3
ABR105-Front
  1

  0
ARC
  5
112B
330
1128
100
AcDbEntity
  8
0
100
AcDbCircle
 10
11.45835670304613
 20
12.00000000000002
 30
0.0
 40
9.0
100
AcDbArc
 50
256.2666383355434
 51
270.0
  0
ARC
  5
112C
330
1128
100
AcDbEntity
  8
0
100
AcDbCircle
 10
-11.45835670304613
 20
12.00000000000002
 30
0.0
 40
9.000000000000001
100
AcDbArc
 50
270.0
 51
283.7333616644565
  0
LINE
  5
112D
330
1128
100
AcDbEntity
  8
0
100
AcDbLine
 10
9.321722407156068
 20
3.257300537841528
 30
0.0
 11
6.109513960715325
 21
4.042334355133307
 31
0.0
  0
LINE
  5
112E
330
1128
100
AcDbEntity
  8
0
100
AcDbLine
 10
6.109513960715325
 20
4.042334355133307
 30
0.0
 11
1.899230485235615
 21
5.071288410807569
 31
0.0
  0
SPLINE
  5
112F
330
1128
100
AcDbEntity
  8
0
100
AcDbSpline
210
0.0
220
0.0
230
1.0
 70
     8
 71
     3
 72
    17
 73
    13
 74
     0
 42
0.000000001
 43
0.0000000001
 40
-3.141592653589793
 40
-3.141592653589793
 40
-3.141592653589793
 40
-3.141592653589793
 40
-2.468556457995917
 40
-2.468556457995917
 40
-2.468556457995917
 40
-1.325974666077672
 40
-1.325974666077672
 40
-1.325974666077672
 40
-0.4425708088625762
 40
-0.4425708088625762
 40
-0.4425708088625762
 40
0.0
 40
0.0
 40
0.0
 40
0.0
 10
-1.899230485235611
 20
5.071288410807567
 30
0.0
 10
-1.898118235562383
 20
5.066412234493592
 30
0.0
 10
-1.749669677371181
 20
5.071425244648192
 30
0.0
 10
-1.484666666976055
 20
5.071338785744537
 30
0.0
 10
-1.034783560445924
 20
5.071192008543381
 30
0.0
 10
-0.241636155014643
 20
5.07130142974853
 30
0.0
 10
0.4605207411756429
 20
5.07128299046395
 30
0.0
 10
1.003403635732623
 20
5.071268733860846
 30
0.0
 10
1.476317593107341
 20
5.071314691501501
 30
0.0
 10
1.715357658074133
 20
5.071424983965473
 30
0.0
 10
1.835112800684018
 20
5.071480238676659
 30
0.0
 10
1.898456330542267
 20
5.067891314497892
 30
0.0
 10
1.899230485235588
 20
5.071288410807571
 30
0.0
  0
LINE
  5
1130
330
1128
100
AcDbEntity
  8
0
100
AcDbLine
 10
-1.899230485235612
 20
5.071288410807569
 30
0.0
 11
-6.109513960715648
 21
4.042334355133227
 31
0.0
  0
LINE
  5
1131
330
1128
100
AcDbEntity
  8
0
100
AcDbLine
 10
-6.109513960715648
 20
4.042334355133227
 30
0.0
 11
-9.32172240715607
 21
3.257300537841531
 31
0.0
  0
SPLINE
  5
1132
330
1128
100
AcDbEntity
  8
0
100
AcDbSpline
210
0.0
220
0.0
230
1.0
 70
     8
 71
     3
 72
    10
 73
     6
 74
     0
 42
0.000000001
 43
0.0000000001
 40
-0.2922631889727876
 40
-0.2922631889727876
 40
-0.2922631889727876
 40
-0.2922631889727876
 40
-0.199503211011641
 40
-0.199503211011641
 40
-0.1759221179271869
 40
-0.1759221179271869
 40
-0.1759221179271869
 40
-0.1759221179271869
 10
9.070251352537642
 20
4.416781653556773
 30
0.0
 10
9.217739257271086
 20
4.145077929023658
 30
0.0
 10
9.410860373548823
 20
3.900790618964173
 30
0.0
 10
9.699554689145621
 20
3.641910984834666
 30
0.0
 10
9.760244832114462
 20
3.59208382574855
 30
0.0
 10
9.82292012913704
 20
3.54501574954579
 30
0.0
  0
SPLINE
  5
1133
330
1128
100
AcDbEntity
  8
0
100
AcDbSpline
210
0.0
220
0.0
230
1.0
 70
     8
 71
     3
 72
    10
 73
     6
 74
     0
 42
0.000000001
 43
0.0000000001
 40
2.573816172548014
 40
2.573816172548014
 40
2.573816172548014
 40
2.573816172548014
 40
2.685071626218183
 40
2.685071626218183
 40
2.823336266648309
 40
2.823336266648309
 40
2.823336266648309
 40
2.823336266648309
 10
1.911570314763384
 20
12.28576703083894
 30
0.0
 10
2.300946649377575
 20
12.18427562070446
 30
0.0
 10
2.676904035526686
 20
12.05422918252867
 30
0.0
 10
3.441893383678134
 20
11.72777527036283
 30
0.0
 10
3.884630384601408
 20
11.49191196792895
 30
0.0
 10
4.303107412128675
 20
11.21416288398206
 30
0.0
  0
SPLINE
  5
1134
330
1128
100
AcDbEntity
  8
0
100
AcDbSpline
210
0.0
220
0.0
230
1.0
 70
     8
 71
     3
 72
    14
 73
    10
 74
     0
 42
0.000000001
 43
0.0000000001
 40
2.211186435545556
 40
2.211186435545556
 40
2.211186435545556
 40
2.211186435545556
 40
2.246216142961086
 40
2.246216142961086
 40
2.392501304046785
 40
2.392501304046785
 40
2.538786465132484
 40
2.538786465132484
 40
2.573816172548014
 40
2.573816172548014
 40
2.573816172548014
 40
2.573816172548014
 10
-1.911570314763398
 20
12.28576703083894
 30
0.0
 10
-1.788869915229697
 20
12.31732983592559
 30
0.0
 10
-1.664909111437197
 20
12.34633081090104
 30
0.0
 10
-1.019811080032676
 20
12.47947961246717
 30
0.0
 10
-0.4876172036190035
 20
12.52963099072879
 30
0.0
 10
0.4876172036189886
 20
12.52963099072879
 30
0.0
 10
1.019811080032661
 20
12.47947961246717
 30
0.0
 10
1.664909111437182
 20
12.34633081090105
 30
0.0
 10
1.788869915229682
 20
12.31732983592559
 30
0.0
 10
1.911570314763384
 20
12.28576703083894
 30
0.0
  0
SPLINE
  5
1135
330
1128
100
AcDbEntity
  8
0
100
AcDbSpline
210
0.0
220
0.0
230
1.0
 70
     8
 71
     3
 72
    10
 73
     6
 74
     0
 42
0.000000001
 43
0.0000000001
 40
1.961666341445273
 40
1.961666341445273
 40
1.961666341445273
 40
1.961666341445273
 40
2.099930981875387
 40
2.099930981875387
 40
2.211186435545556
 40
2.211186435545556
 40
2.211186435545556
 40
2.211186435545556
 10
-4.303107412128574
 20
11.21416288398212
 30
0.0
 10
-3.884630384601341
 20
11.49191196792899
 30
0.0
 10
-3.441893383678109
 20
11.72777527036284
 30
0.0
 10
-2.676904035526699
 20
12.05422918252866
 30
0.0
 10
-2.30094664937759
 20
12.18427562070446
 30
0.0
 10
-1.911570314763398
 20
12.28576703083894
 30
0.0
  0
SPLINE
  5
1136
330
1128
100
AcDbEntity
  8
0
100
AcDbSpline
210
0.0
220
0.0
230
1.0
 70
     8
 71
     3
 72
    10
 73
     6
 74
     0
 42
0.000000001
 43
0.0000000001
 40
-0.116392547241366
 40
-0.116392547241366
 40
-0.116392547241366
 40
-0.116392547241366
 40
-0.1053942641991665
 40
-0.1053942641991665
 40
0.0
 40
0.0
 40
0.0
 40
0.0
 10
-9.822858472788754
 20
3.545062064520303
 30
0.0
 10
-9.793586380916973
 20
3.567046266225072
 30
0.0
 10
-9.764740313422294
 20
3.589637596279795
 30
0.0
 10
-9.46418608428554
 20
3.8350291264497
 30
0.0
 10
-9.237853129958084
 20
4.108023947317724
 30
0.0
 10
-9.070251352537653
 20
4.416781653556771
 30
0.0
  0
LINE
  5
1137
330
1128
100
AcDbEntity
  8
0
100
AcDbLine
 10
11.45835670304612
 20
19.18998372341745
 30
0.0
 11
9.07025135253764
 21
19.18998372341745
 31
0.0
  0
LINE
  5
1138
330
1128
100
AcDbEntity
  8
0
100
AcDbLine
 10
11.45835670304612
 20
62.54164329695386
 30
0.0
 11
11.45835670304612
 21
19.18998372341745
 31
0.0
  0
LINE
  5
1139
330
1128
100
AcDbEntity
  8
0
100
AcDbLine
 10
4.303107412128549
 20
19.18998372341748
 30
0.0
 11
1.911570314763382
 21
19.1899837234175
 31
0.0
  0
LINE
  5
113A
330
1128
100
AcDbEntity
  8
0
100
AcDbLine
 10
1.911570314763382
 20
19.1899837234175
 30
0.0
 11
-1.911570314763401
 21
19.18998372341751
 31
0.0
  0
LINE
  5
113B
330
1128
100
AcDbEntity
  8
0
100
AcDbLine
 10
-1.9115703147634
 20
19.18998372341751
 30
0.0
 11
-4.3031074121285
 21
19.18998372341753
 31
0.0
  0
LINE
  5
113C
330
1128
100
AcDbEntity
  8
0
100
AcDbLine
 10
-9.070251352537656
 20
19.18998372341755
 30
0.0
 11
-11.45835670304614
 21
19.18998372341755
 31
0.0
  0
LINE
  5
113D
330
1128
100
AcDbEntity
  8
0
100
AcDbLine
 10
-11.45835670304614
 20
19.18998372341756
 30
0.0
 11
-11.45835670304614
 21
62.54164329695386
 31
0.0
  0
SPLINE
  5
113E
330
1128
100
AcDbEntity
  8
0
100
AcDbSpline
210
0.0
220
0.0
230
1.0
 70
     8
 71
     3
 72
    36
 73
    32
 74
     0
 42
0.000000001
 43
0.0000000001
 40
1.154685122698334
 40
1.154685122698334
 40
1.154685122698334
 40
1.154685122698334
 40
1.155934923452143
 40
1.155934923452143
 40
1.746062802296947
 40
1.746062802296947
 40
2.049450203116585
 40
2.049450203116585
 40
2.203890326518376
 40
2.203890326518376
 40
2.319769953695432
 40
2.319769953695432
 40
2.363268867585412
 40
2.363268867585412
 40
2.380004118198633
 40
2.380004118198633
 40
2.384197490541714
 40
2.384197490541714
 40
2.38629235064942
 40
2.38629235064942
 40
2.388400187324105
 40
2.388400187324105
 40
2.390503478223287
 40
2.390503478223287
 40
2.394744155073083
 40
2.394744155073083
 40
2.403149723055876
 40
2.403149723055876
 40
2.410629264953128
 40
2.410629264953128
 40
2.418156840923245
 40
2.418156840923245
 40
2.418156840923245
 40
2.418156840923245
 10
9.490442752787409
 20
3.713441105930111
 30
0.0
 10
9.490442752787615
 20
3.71344110593
 30
0.0
 10
9.490443168363674
 20
3.713440883114038
 30
0.0
 10
9.490836808153979
 20
3.713229861977427
 30
0.0
 10
9.592030994189283
 20
3.657744145148866
 30
0.0
 10
9.947147189688024
 20
3.484362690681042
 30
0.0
 10
10.10103271791275
 20
3.41051783864504
 30
0.0
 10
10.39965327087698
 20
3.28260971291275
 30
0.0
 10
10.51147405272041
 20
3.236725575356961
 30
0.0
 10
10.73861797049265
 20
3.154131843026483
 30
0.0
 10
10.84343705321608
 20
3.118148445663429
 30
0.0
 10
11.02806593821447
 20
3.068116823234823
 30
0.0
 10
11.08132916572778
 20
3.054514648076913
 30
0.0
 10
11.1805628873223
 20
3.03414878703402
 30
0.0
 10
11.21056260726755
 20
3.02828194777913
 30
0.0
 10
11.26351959658653
 20
3.019802779869324
 30
0.0
 10
11.27528363181936
 20
3.017999597171066
 30
0.0
 10
11.29463961999295
 20
3.015240322598024
 30
0.0
 10
11.30148070810395
 20
3.0142980273928
 30
0.0
 10
11.31532069832677
 20
3.012470051330236
 30
0.0
 10
11.32247821044665
 20
3.011565172602559
 30
0.0
 10
11.33591674497182
 20
3.009940066431297
 30
0.0
 10
11.34235830478926
 20
3.009198952511832
 30
0.0
 10
11.35997952525975
 20
3.007252897498891
 30
0.0
 10
11.36981552739989
 20
3.006278779910551
 30
0.0
 10
11.39465266721597
 20
3.003962789235613
 30
0.0
 10
11.40649443658594
 20
3.00306656713108
 30
0.0
 10
11.42564628982194
 20
3.001727996154679
 30
0.0
 10
11.43321873163504
 20
3.001270787258439
 30
0.0
 10
11.44683533598109
 20
3.000522399328052
 30
0.0
 10
11.45223795383985
 20
3.000262001022826
 30
0.0
 10
11.45835670304613
 20
3.000000000000015
 30
0.0
  0
SPLINE
  5
113F
330
1128
100
AcDbEntity
  8
0
100
AcDbSpline
210
0.0
220
0.0
230
1.0
 70
     8
 71
     3
 72
     8
 73
     4
 74
     0
 42
0.000000001
 43
0.0000000001
 40
0.0
 40
0.0
 40
0.0
 40
0.0
 40
0.8775724267736425
 40
0.8775724267736425
 40
0.8775724267736425
 40
0.8775724267736425
 10
8.135905307671597
 20
4.067915128564971
 30
0.0
 10
8.192327280818505
 20
4.248118626961241
 30
0.0
 10
8.287529459401895
 20
4.223838444996721
 30
0.0
 10
8.378207476162934
 20
4.260223890052757
 30
0.0
  0
SPLINE
  5
1140
330
1128
100
AcDbEntity
  8
0
100
AcDbSpline
210
0.0
220
0.0
230
1.0
 70
     8
 71
     3
 72
    40
 73
    36
 74
     0
 42
0.000000001
 43
0.0000000001
 40
0.0
 40
0.0
 40
0.0
 40
0.0
 40
0.0089355490879961
 40
0.0089355490879961
 40
0.0177586645770741
 40
0.0177586645770741
 40
0.0242247846094358
 40
0.0242247846094358
 40
0.0274647508111111
 40
0.0274647508111111
 40
0.0290740034164409
 40
0.0290740034164409
 40
0.0306868669057595
 40
0.0306868669057595
 40
0.0322975939365566
 40
0.0322975939365566
 40
0.0339033262175388
 40
0.0339033262175388
 40
0.0371218885580561
 40
0.0371218885580561
 40
0.0403248879736387
 40
0.0403248879736387
 40
0.0467309498288186
 40
0.0467309498288186
 40
0.098037869195255
 40
0.098037869195255
 40
0.2139069890388843
 40
0.2139069890388843
 40
0.3683334510713215
 40
0.3683334510713215
 40
0.6717452682332106
 40
0.6717452682332106
 40
1.261885744953799
 40
1.261885744953799
 40
1.263251763827377
 40
1.263251763827377
 40
1.263251763827377
 40
1.263251763827377
 10
-11.45835670304613
 20
3.000000000000016
 30
0.0
 10
-11.45091260628729
 20
3.000318751841918
 30
0.0
 10
-11.44455392101923
 20
3.000630937072285
 30
0.0
 10
-11.42761627726928
 20
3.001605561985716
 30
0.0
 10
-11.41802866299278
 20
3.00221474093269
 30
0.0
 10
-11.39683723171333
 20
3.0038383549172
 30
0.0
 10
-11.38640989906614
 20
3.004696828371352
 30
0.0
 10
-11.36589212143212
 20
3.00667504332341
 30
0.0
 10
-11.35805410382301
 20
3.007470422924334
 30
0.0
 10
-11.3446249792665
 20
3.008946955483779
 30
0.0
 10
-11.33983728257456
 20
3.009490356729175
 30
0.0
 10
-11.3298278553806
 20
3.010670041336634
 30
0.0
 10
-11.32452864497107
 20
3.011316021550292
 30
0.0
 10
-11.3139051804072
 20
3.01265810162654
 30
0.0
 10
-11.30850035843375
 20
3.013364285309987
 30
0.0
 10
-11.29803766234826
 20
3.014774399518873
 30
0.0
 10
-11.29290752225527
 20
3.01548750432201
 30
0.0
 10
-11.27813767254791
 20
3.017594679210803
 30
0.0
 10
-11.2689627001487
 20
3.018977681051641
 30
0.0
 10
-11.25209993229627
 20
3.021615385183369
 30
0.0
 10
-11.2442781359405
 20
3.022890043714751
 30
0.0
 10
-11.22214920766793
 20
3.026603270430697
 30
0.0
 10
-11.20900984911714
 20
3.028956137490286
 30
0.0
 10
-11.09871944391765
 20
3.04949992194311
 30
0.0
 10
-11.03916978120944
 20
3.065157362335497
 30
0.0
 10
-10.84575410463213
 20
3.117439568197865
 30
0.0
 10
-10.74106456277976
 20
3.153318038847776
 30
0.0
 10
-10.51404927989038
 20
3.235749478720766
 30
0.0
 10
-10.40219046492897
 20
3.281601259326724
 30
0.0
 10
-10.10318944220388
 20
3.409569613164657
 30
0.0
 10
-9.948081893619388
 20
3.483942921173956
 30
0.0
 10
-9.591554025537778
 20
3.657954973455602
 30
0.0
 10
-9.490466085698574
 20
3.713400567595804
 30
0.0
 10
-9.490035043132712
 20
3.713631591901733
 30
0.0
 10
-9.490034545903382
 20
3.713631858446069
 30
0.0
 10
-9.490034545903085
 20
3.713631858446228
 30
0.0
  0
SPLINE
  5
1141
330
1128
100
AcDbEntity
  8
0
100
AcDbSpline
210
0.0
220
0.0
230
1.0
 70
     8
 71
     3
 72
     8
 73
     4
 74
     0
 42
0.000000001
 43
0.0000000001
 40
0.0
 40
0.0
 40
0.0
 40
0.0
 40
0.8775594624585373
 40
0.8775594624585373
 40
0.8775594624585373
 40
0.8775594624585373
 10
-8.378202959768348
 20
4.260222077793873
 30
0.0
 10
-8.287428761089344
 20
4.22379758938637
 30
0.0
 10
-8.192304168594786
 20
4.248041025853802
 30
0.0
 10
-8.135905575167761
 20
4.067915982899394
 30
0.0
  0
LINE
  5
1142
330
1128
100
AcDbEntity
  8
0
100
AcDbLine
 10
-35.0
 20
3.0
 30
0.0
 11
-44.99999999999999
 21
3.000000000000002
 31
0.0
  0
LINE
  5
1143
330
1128
100
AcDbEntity
  8
0
100
AcDbLine
 10
45.0
 20
3.000000000000002
 30
0.0
 11
35.00000000000001
 21
3.0
 31
0.0
  0
LINE
  5
1144
330
1128
100
AcDbEntity
  8
0
100
AcDbLine
 10
34.99999999999999
 20
105.0
 30
0.0
 11
44.99999999999999
 21
95.0
 31
0.0
  0
LINE
  5
1145
330
1128
100
AcDbEntity
  8
0
100
AcDbLine
 10
-45.0
 20
95.0
 30
0.0
 11
-35.00000000000002
 21
105.0
 31
0.0
  0
LINE
  5
1146
330
1128
100
AcDbEntity
  8
0
100
AcDbLine
 10
35.00000000000001
 20
0.0
 30
0.0
 11
45.0
 21
0.0
 31
0.0
  0
LINE
  5
1147
330
1128
100
AcDbEntity
  8
0
100
AcDbLine
 10
-44.99999999999999
 20
0.0
 30
0.0
 11
-35.0
 21
0.0
 31
0.0
  0
LINE
  5
1148
330
1128
100
AcDbEntity
  8
0
100
AcDbLine
 10
-35.0
 20
0.0
 30
0.0
 11
-35.0
 21
3.0
 31
0.0
  0
LINE
  5
1149
330
1128
100
AcDbEntity
  8
0
100
AcDbLine
 10
35.00000000000001
 20
3.0
 30
0.0
 11
35.00000000000001
 21
0.0
 31
0.0
  0
LINE
  5
114A
330
1128
100
AcDbEntity
  8
0
100
AcDbLine
 10
-35.0
 20
3.0
 30
0.0
 11
35.00000000000001
 21
3.0
 31
0.0
  0
LINE
  5
114B
330
1128
100
AcDbEntity
  8
0
100
AcDbLine
 10
-35.00000000000002
 20
105.0
 30
0.0
 11
34.99999999999999
 21
105.0
 31
0.0
  0
LINE
  5
114C
330
1128
100
AcDbEntity
  8
0
100
AcDbLine
 10
-35.0
 20
0.0
 30
0.0
 11
35.00000000000001
 21
0.0
 31
0.0
  0
ARC
  5
114D
330
1128
100
AcDbEntity
  8
0
100
AcDbCircle
 10
-0.0000000000000106
 20
62.54164329695386
 30
0.0
 40
1.899230485235613
100
AcDbArc
 50
0.0
 51
180.0
  0
LINE
  5
114E
330
1128
100
AcDbEntity
  8
0
100
AcDbLine
 10
11.45835670304612
 20
62.54164329695386
 30
0.0
 11
9.321722407156054
 21
62.54164329695386
 31
0.0
  0
LINE
  5
114F
330
1128
100
AcDbEntity
  8
0
100
AcDbLine
 10
-9.321722407156084
 20
62.54164329695386
 30
0.0
 11
-11.45835670304613
 21
62.54164329695386
 31
0.0
  0
LINE
  5
1150
330
1128
100
AcDbEntity
  8
0
100
AcDbLine
 10
9.321722407156055
 20
62.54164329695386
 30
0.0
 11
6.109513960715321
 21
62.54164329695386
 31
0.0
  0
LINE
  5
1151
330
1128
100
AcDbEntity
  8
0
100
AcDbLine
 10
-6.109513960715662
 20
62.54164329695386
 30
0.0
 11
-9.321722407156084
 21
62.54164329695386
 31
0.0
  0
LINE
  5
1152
330
1128
100
AcDbEntity
  8
0
100
AcDbLine
 10
-1.899230485235626
 20
62.54164329695386
 30
0.0
 11
-6.109513960715662
 21
62.54164329695386
 31
0.0
  0
LINE
  5
1153
330
1128
100
AcDbEntity
  8
0
100
AcDbLine
 10
6.109513960715321
 20
62.54164329695386
 30
0.0
 11
1.899230485235603
 21
62.54164329695386
 31
0.0
  0
CIRCLE
  5
1154
330
1128
100
AcDbEntity
  8
0
100
AcDbCircle
 10
27.29999999999999
 20
21.49999999999999
 30
0.0
 40
5.5
  0
CIRCLE
  5
1155
330
1128
100
AcDbEntity
  8
0
100
AcDbCircle
 10
-0.000000000000011
 20
85.0
 30
0.0
 40
5.5
  0
CIRCLE
  5
1156
330
1128
100
AcDbEntity
  8
0
100
AcDbCircle
 10
-27.30000000000001
 20
21.49999999999999
 30
0.0
 40
5.5
  0
CIRCLE
  5
1157
330
1128
100
AcDbEntity
  8
0
100
AcDbCircle
 10
19.01041531752269
 20
32.5
 30
0.0
 40
2.5
  0
CIRCLE
  5
1158
330
1128
100
AcDbEntity
  8
0
100
AcDbCircle
 10
19.73246523920266
 20
62.5
 30
0.0
 40
2.5
  0
CIRCLE
  5
1159
330
1128
100
AcDbEntity
  8
0
100
AcDbCircle
 10
14.99841706070838
 20
97.5
 30
0.0
 40
2.5
  0
CIRCLE
  5
115A
330
1128
100
AcDbEntity
  8
0
100
AcDbCircle
 10
-15.00000000000001
 20
95.0
 30
0.0
 40
2.5
  0
CIRCLE
  5
115B
330
1128
100
AcDbEntity
  8
0
100
AcDbCircle
 10
-19.28353052265768
 20
62.5
 30
0.0
 40
2.5
  0
CIRCLE
  5
115C
330
1128
100
AcDbEntity
  8
0
100
AcDbCircle
 10
-33.8977392656272
 20
45.0
 30
0.0
 40
2.5
  0
CIRCLE
  5
115D
330
1128
100
AcDbEntity
  8
0
100
AcDbCircle
 10
-24.72443481640681
 20
82.5
 30
0.0
 40
2.5
  0
CIRCLE
  5
115E
330
1128
100
AcDbEntity
  8
0
100
AcDbCircle
 10
-18.62217408203398
 20
32.5
 30
0.0
 40
2.5
  0
CIRCLE
  5
115F
330
1128
100
AcDbEntity
  8
0
100
AcDbCircle
 10
24.974672819026
 20
85.0
 30
0.0
 40
2.5
  0
CIRCLE
  5
1160
330
1128
100
AcDbEntity
  8
0
100
AcDbCircle
 10
34.36672296579501
 20
45.0
 30
0.0
 40
2.5
  0
ARC
  5
1161
330
1128
100
AcDbEntity
  8
0
100
AcDbCircle
 10
-1929.17631203538
 20
94.99999999965625
 30
0.0
 40
1974.17631203538
100
AcDbArc
 50
357.4742135971114
 51
0.0
  0
LINE
  5
1162
330
1128
100
AcDbEntity
  8
0
100
AcDbLine
 10
-45.0
 20
95.0
 30
0.0
 11
-43.08206632218529
 21
7.999999999728046
 31
0.0
  0
SPLINE
  5
1163
330
1128
100
AcDbEntity
  8
0
100
AcDbSpline
210
0.0
220
0.0
230
1.0
 70
     8
 71
     3
 72
     8
 73
     4
 74
     0
 42
0.000000001
 43
0.0000000001
 40
0.0
 40
0.0
 40
0.0
 40
0.0
 40
0.3556582329805955
 40
0.3556582329805955
 40
0.3556582329805955
 40
0.3556582329805955
 10
43.08206632218557
 20
7.999999999564869
 30
0.0
 10
43.03018362377394
 20
6.511187448529809
 30
0.0
 10
42.9967513094479
 20
5.057911546290427
 30
0.0
 10
42.98177175708571
 20
3.807917414419215
 30
0.0
  0
SPLINE
  5
1164
330
1128
100
AcDbEntity
  8
0
100
AcDbSpline
210
0.0
220
0.0
230
1.0
 70
     8
 71
     3
 72
    11
 73
     7
 74
     0
 42
0.000000001
 43
0.0000000001
 40
-1.0
 40
-1.0
 40
-1.0
 40
-1.0
 40
-0.9086138718154927
 40
-0.9086138718154927
 40
-0.9086138718154927
 40
0.0
 40
0.0
 40
0.0
 40
0.0
 10
-43.08206632218527
 20
7.999999999728019
 30
0.0
 10
-43.07540071109026
 20
7.76079042186839
 30
0.0
 10
-43.06934414655802
 20
7.521571816292869
 30
0.0
 10
-43.06389667773635
 20
7.28480292739818
 30
0.0
 10
-43.00973478428504
 20
4.930709356110114
 30
0.0
 10
-43.01579295197599
 20
3.000000000000003
 30
0.0
 10
-43.08206632218571
 20
3.000000000000007
 30
0.0
  0
SPLINE
  5
1165
330
1128
100
AcDbEntity
  8
0
100
AcDbSpline
210
0.0
220
0.0
230
1.0
 70
     8
 71
     3
 72
    11
 73
     7
 74
     0
 42
0.000000001
 43
0.0000000001
 40
-1.0
 40
-1.0
 40
-1.0
 40
-1.0
 40
-0.9067919713980618
 40
-0.9067919713980618
 40
-0.9067919713980618
 40
0.0
 40
0.0
 40
0.0
 40
0.0
 10
43.08206632218551
 20
3.000000000000007
 30
0.0
 10
43.06846932487462
 20
3.000000000000011
 30
0.0
 10
43.05613886293797
 20
3.017872506291054
 30
0.0
 10
43.04507535272702
 20
3.053443629712455
 30
0.0
 10
42.93744189684081
 20
3.399504045493689
 30
0.0
 10
42.94978535688961
 20
5.627562180558896
 30
0.0
 10
43.08206632218557
 20
7.999999999728045
 30
0.0
  0
LINE
  5
1166
330
1128
100
AcDbEntity
  8
0
100
AcDbLine
 10
45.0
 20
0.0
 30
0.0
 11
45.0
 21
3.000000000000002
 31
0.0
  0
LINE
  5
1167
330
1128
100
AcDbEntity
  8
0
100
AcDbLine
 10
-44.99999999999999
 20
3.000000000000002
 30
0.0
 11
-44.99999999999999
 21
0.0
 31
0.0
  0
ENDBLK
  5
112A
330
1128
100
AcDbEntity
  8
0
100
AcDbBlockEnd
  0
BLOCK
  5
1169
330
1168
100
AcDbEntity
  8
0
100
AcDbBlockBegin
  2
ABR105-Left
 70
     0
 10
0.0
 20
0.0
 30
0.0
  3
ABR105-Left
  1

  0
LINE
  5
116B
330
1168
100
AcDbEntity
  8
0
100
AcDbLine
 10
62.54164329695385
 20
3.257300537841528
 30
0.0
 11
62.54164329695385
 21
3.00000000000002
 31
0.0
  0
ARC
  5
116C
330
1168
100
AcDbEntity
  8
0
100
AcDbCircle
 10
74.0
 20
12.00000000000002
 30
0.0
 40
9.0
100
AcDbArc
 50
256.2666383355436
 51
270.0
  0
SPLINE
  5
116D
330
1168
100
AcDbEntity
  8
0
100
AcDbSpline
210
0.0
220
0.0
230
1.0
 70
     8
 71
     3
 72
    11
 73
     7
 74
     0
 42
0.000000001
 43
0.0000000001
 40
-3.141592653589793
 40
-3.141592653589793
 40
-3.141592653589793
 40
-3.141592653589793
 40
-2.468556457995917
 40
-2.468556457995917
 40
-2.468556457995917
 40
-1.570744346530433
 40
-1.570744346530433
 40
-1.570744346530433
 40
-1.570744346530433
 10
62.54164329695386
 20
5.071288410807567
 30
0.0
 10
62.96626781271847
 20
5.066412234493592
 30
0.0
 10
63.39237192267551
 20
5.071425244648192
 30
0.0
 10
63.72554372992219
 20
5.071338785744537
 30
0.0
 10
64.16998592441808
 20
5.071223451901642
 30
0.0
 10
64.43093662486984
 20
5.071266305771104
 30
0.0
 10
64.43727088396679
 20
5.071281013265096
 30
0.0
  0
LINE
  5
116E
330
1168
100
AcDbEntity
  8
0
100
AcDbLine
 10
62.54164329695385
 20
5.071288410807569
 30
0.0
 11
62.54164329695385
 21
4.042334355133227
 31
0.0
  0
LINE
  5
116F
330
1168
100
AcDbEntity
  8
0
100
AcDbLine
 10
62.54164329695385
 20
4.042334355133227
 30
0.0
 11
62.54164329695385
 21
3.257300537841531
 31
0.0
  0
LINE
  5
1170
330
1168
100
AcDbEntity
  8
0
100
AcDbLine
 10
64.44086930829941
 20
5.071289504184615
 30
0.0
 11
71.86336570410993
 21
3.257300537841527
 31
0.0
  0
LINE
  5
1171
330
1168
100
AcDbEntity
  8
0
100
AcDbLine
 10
19.1899837234175
 20
12.28576703083894
 30
0.0
 11
19.1899837234175
 21
12.52963099072879
 31
0.0
  0
LINE
  5
1172
330
1168
100
AcDbEntity
  8
0
100
AcDbLine
 10
19.18998372341751
 20
11.21416288398212
 30
0.0
 11
19.1899837234175
 21
12.28576703083894
 31
0.0
  0
LINE
  5
1173
330
1168
100
AcDbEntity
  8
0
100
AcDbLine
 10
19.18998372341755
 20
3.000000000000005
 30
0.0
 11
19.18998372341753
 21
4.416781653556772
 31
0.0
  0
LINE
  5
1174
330
1168
100
AcDbEntity
  8
0
100
AcDbLine
 10
12.52963099072879
 20
19.1899837234175
 30
0.0
 11
12.28576703083893
 21
19.18998372341751
 31
0.0
  0
LINE
  5
1175
330
1168
100
AcDbEntity
  8
0
100
AcDbLine
 10
12.28576703083893
 20
19.18998372341751
 30
0.0
 11
11.21416288398217
 21
19.18998372341753
 31
0.0
  0
LINE
  5
1176
330
1168
100
AcDbEntity
  8
0
100
AcDbLine
 10
4.416781653556769
 20
19.18998372341755
 30
0.0
 11
3.000000000000002
 21
19.18998372341755
 31
0.0
  0
SPLINE
  5
1177
330
1168
100
AcDbEntity
  8
0
100
AcDbSpline
210
0.0
220
0.0
230
1.0
 70
     8
 71
     3
 72
    10
 73
     6
 74
     0
 42
0.000000001
 43
0.0000000001
 40
0.0
 40
0.0
 40
0.0
 40
0.0
 40
3.83064936940396
 40
3.83064936940396
 40
4.398681336028503
 40
4.398681336028503
 40
4.398681336028503
 40
4.398681336028503
 10
19.1899837234175
 20
12.5296309907288
 30
0.0
 10
31.43549641501157
 20
8.911555544497879
 30
0.0
 10
44.13829033520568
 20
6.592496391160077
 30
0.0
 10
58.7594960010749
 20
5.495892873234767
 30
0.0
 10
60.65004490586199
 20
5.383487359058289
 30
0.0
 10
62.54164329695385
 20
5.300000000000019
 30
0.0
  0
SPLINE
  5
1178
330
1168
100
AcDbEntity
  8
0
100
AcDbSpline
210
0.0
220
0.0
230
1.0
 70
     8
 71
     3
 72
    14
 73
    10
 74
     0
 42
0.000000001
 43
0.0000000001
 40
0.0
 40
0.0
 40
0.0
 40
0.0
 40
1.633510516758345
 40
1.633510516758345
 40
2.452250310511175
 40
2.452250310511175
 40
2.861629370263167
 40
2.861629370263167
 40
3.271357231516024
 40
3.271357231516024
 40
3.271357231516024
 40
3.271357231516024
 10
27.81662555197981
 20
4.28383062094963
 30
0.0
 10
33.25835978924985
 20
4.184604674736922
 30
0.0
 10
38.70945251640396
 20
4.201996023033924
 30
0.0
 10
46.87713063518035
 20
3.986023284224433
 30
0.0
 10
49.60235727803021
 20
3.888182603185899
 30
0.0
 10
53.68481420852313
 20
3.701701004073374
 30
0.0
 10
55.0447956047079
 20
3.632822596857693
 30
0.0
 10
57.7662230593905
 20
3.484886340216926
 30
0.0
 10
59.14190742580045
 20
3.393061879533869
 30
0.0
 10
60.49568979555722
 20
3.339542671482014
 30
0.0
  0
SPLINE
  5
1179
330
1168
100
AcDbEntity
  8
0
100
AcDbSpline
210
0.0
220
0.0
230
1.0
 70
     8
 71
     3
 72
    10
 73
     6
 74
     0
 42
0.000000001
 43
0.0000000001
 40
0.0
 40
0.0
 40
0.0
 40
0.0
 40
3.873503068359027
 40
3.873503068359027
 40
4.398480383711542
 40
4.398480383711542
 40
4.398480383711542
 40
4.398480383711542
 10
5.3
 20
62.54164329695388
 30
0.0
 10
5.86931398316031
 20
49.64252387672522
 30
0.0
 10
7.816773882299411
 20
36.72888307997195
 30
0.0
 10
11.56212204215155
 20
22.55373160892958
 30
0.0
 10
12.03378620011024
 20
20.86818910271811
 30
0.0
 10
12.52963099072879
 20
19.1899837234175
 30
0.0
  0
SPLINE
  5
117A
330
1168
100
AcDbEntity
  8
0
100
AcDbSpline
210
0.0
220
0.0
230
1.0
 70
     8
 71
     3
 72
    14
 73
    10
 74
     0
 42
0.000000001
 43
0.0000000001
 40
0.0
 40
0.0
 40
0.0
 40
0.0
 40
0.1483144479530079
 40
0.1483144479530079
 40
0.470097237999714
 40
0.470097237999714
 40
1.43510253163923
 40
1.43510253163923
 40
3.271522582402405
 40
3.271522582402405
 40
3.271522582402405
 40
3.271522582402405
 10
3.339542671481998
 20
60.49568979555721
 30
0.0
 10
3.358915705507122
 20
60.00564383137739
 30
0.0
 10
3.386525491020704
 20
59.50877507627244
 30
0.0
 10
3.47282197199624
 20
57.94445802512105
 30
0.0
 10
3.534147274610591
 20
56.87528027824727
 30
0.0
 10
3.761968791305434
 20
52.6002204611476
 30
0.0
 10
3.899817042919718
 20
49.39139827674242
 30
0.0
 10
4.190015480373194
 20
40.06445165929821
 30
0.0
 10
4.172279140067464
 20
33.93431488530507
 30
0.0
 10
4.28383062094962
 20
27.81662555197982
 30
0.0
  0
LINE
  5
117B
330
1168
100
AcDbEntity
  8
0
100
AcDbLine
 10
8.000000000000014
 20
3.000000000000006
 30
0.0
 11
95.00000000000003
 21
3.000000000000002
 31
0.0
  0
LINE
  5
117C
330
1168
100
AcDbEntity
  8
0
100
AcDbLine
 10
0.0
 20
7.999999999564876
 30
0.0
 11
0.0
 21
95.0
 31
0.0
  0
LINE
  5
117D
330
1168
100
AcDbEntity
  8
0
100
AcDbLine
 10
3.000000000000011
 20
95.0
 30
0.0
 11
3.00000000000001
 21
7.999999999728046
 31
0.0
  0
LINE
  5
117E
330
1168
100
AcDbEntity
  8
0
100
AcDbLine
 10
95.00000000000001
 20
0.0
 30
0.0
 11
8.000000000000024
 21
0.0
 31
0.0
  0
SPLINE
  5
117F
330
1168
100
AcDbEntity
  8
0
100
AcDbSpline
210
0.0
220
0.0
230
1.0
 70
     8
 71
     3
 72
    11
 73
     7
 74
     0
 42
0.000000001
 43
0.0000000001
 40
0.0
 40
0.0
 40
0.0
 40
0.0
 40
0.9086138718154085
 40
0.9086138718154085
 40
0.9086138718154085
 40
1.0
 40
1.0
 40
1.0
 40
1.0
 10
8.00000000000003
 20
0.0000000000000067
 30
0.0
 10
4.194623494269703
 20
0.0000000000000005
 30
0.0
 10
0.6266268093150825
 20
3.089134969775493
 30
0.0
 10
0.0822640573714256
 20
6.855684683836038
 30
0.0
 10
0.0275134028071879
 20
7.234514906067888
 30
0.0
 10
0.0000000000208298
 20
7.617264674989069
 30
0.0
 10
0.0000000000000099
 20
7.999999999564826
 30
0.0
  0
SPLINE
  5
1180
330
1168
100
AcDbEntity
  8
0
100
AcDbSpline
210
0.0
220
0.0
230
1.0
 70
     8
 71
     3
 72
    11
 73
     7
 74
     0
 42
0.000000001
 43
0.0000000001
 40
-1.0
 40
-1.0
 40
-1.0
 40
-1.0
 40
-0.9086138718154927
 40
-0.9086138718154927
 40
-0.9086138718154927
 40
0.0
 40
0.0
 40
0.0
 40
0.0
 10
3.00000000000001
 20
7.999999999728019
 30
0.0
 10
3.000000000013022
 20
7.76079042186839
 30
0.0
 10
3.017195876754465
 20
7.521571816292869
 30
0.0
 10
3.05141503585705
 20
7.28480292739818
 30
0.0
 10
3.391641755821551
 20
4.930709356110114
 30
0.0
 10
5.62163968391835
 20
3.000000000000003
 30
0.0
 10
8.000000000000017
 20
3.000000000000007
 30
0.0
  0
LINE
  5
1181
330
1168
100
AcDbEntity
  8
0
100
AcDbLine
 10
0.0
 20
95.0
 30
0.0
 11
3.000000000000011
 21
95.0
 31
0.0
  0
LINE
  5
1182
330
1168
100
AcDbEntity
  8
0
100
AcDbLine
 10
95.00000000000003
 20
3.000000000000002
 30
0.0
 11
95.00000000000001
 21
0.0
 31
0.0
  0
LINE
  5
1183
330
1168
100
AcDbEntity
  8
0
100
AcDbLine
 10
105.0
 20
3.0
 30
0.0
 11
95.00000000000003
 21
3.000000000000002
 31
0.0
  0
LINE
  5
1184
330
1168
100
AcDbEntity
  8
0
100
AcDbLine
 10
0.0
 20
105.0
 30
0.0
 11
0.0
 21
95.0
 31
0.0
  0
LINE
  5
1185
330
1168
100
AcDbEntity
  8
0
100
AcDbLine
 10
3.000000000000011
 20
95.0
 30
0.0
 11
3.000000000000008
 21
105.0
 31
0.0
  0
LINE
  5
1186
330
1168
100
AcDbEntity
  8
0
100
AcDbLine
 10
95.00000000000001
 20
0.0
 30
0.0
 11
105.0
 21
0.0
 31
0.0
  0
LINE
  5
1187
330
1168
100
AcDbEntity
  8
0
100
AcDbLine
 10
105.0
 20
0.0
 30
0.0
 11
105.0
 21
3.0
 31
0.0
  0
LINE
  5
1188
330
1168
100
AcDbEntity
  8
0
100
AcDbLine
 10
3.000000000000008
 20
105.0
 30
0.0
 11
0.0
 21
105.0
 31
0.0
  0
LINE
  5
1189
330
1168
100
AcDbEntity
  8
0
100
AcDbLine
 10
5.071288410807546
 20
62.54164329695386
 30
0.0
 11
5.071288410807546
 21
64.44087378218949
 31
0.0
  0
SPLINE
  5
118A
330
1168
100
AcDbEntity
  8
0
100
AcDbSpline
210
0.0
220
0.0
230
1.0
 70
     8
 71
     3
 72
     8
 73
     4
 74
     0
 42
0.000000001
 43
0.0000000001
 40
0.0
 40
0.0
 40
0.0
 40
0.0
 40
0.1912952019068364
 40
0.1912952019068364
 40
0.1912952019068364
 40
0.1912952019068364
 10
5.071288414286221
 20
64.44087378266114
 30
0.0
 10
5.157591786306157
 20
63.80909052991999
 30
0.0
 10
5.268734505445879
 20
63.17852645312561
 30
0.0
 10
5.299999999995055
 20
62.54164329695903
 30
0.0
  0
LINE
  5
118B
330
1168
100
AcDbEntity
  8
0
100
AcDbLine
 10
3.25730053784151
 20
62.54164329695386
 30
0.0
 11
3.000000000000002
 21
62.54164329695386
 31
0.0
  0
ARC
  5
118C
330
1168
100
AcDbEntity
  8
0
100
AcDbCircle
 10
12.0
 20
74.0
 30
0.0
 40
9.000000000000001
100
AcDbArc
 50
180.0
 51
193.7333616644564
  0
LINE
  5
118D
330
1168
100
AcDbEntity
  8
0
100
AcDbLine
 10
4.042334355133208
 20
62.54164329695386
 30
0.0
 11
3.257300537841512
 21
62.54164329695386
 31
0.0
  0
LINE
  5
118E
330
1168
100
AcDbEntity
  8
0
100
AcDbLine
 10
5.071288410807549
 20
62.54164329695386
 30
0.0
 11
4.042334355133208
 21
62.54164329695386
 31
0.0
  0
LINE
  5
118F
330
1168
100
AcDbEntity
  8
0
100
AcDbLine
 10
5.071288410807545
 20
64.44087378218949
 30
0.0
 11
3.257300537841504
 21
71.86336570410995
 31
0.0
  0
SPLINE
  5
1190
330
1168
100
AcDbEntity
  8
0
100
AcDbSpline
210
0.0
220
0.0
230
1.0
 70
     8
 71
     3
 72
     8
 73
     4
 74
     0
 42
0.000000001
 43
0.0000000001
 40
0.0
 40
0.0
 40
0.0
 40
0.0
 40
0.1912950288585634
 40
0.1912950288585634
 40
0.1912950288585634
 40
0.1912950288585634
 10
62.54164329695896
 20
5.299999999995074
 30
0.0
 10
63.17852587699228
 20
5.26873453372909
 30
0.0
 10
63.80908939013498
 20
5.157591967891841
 30
0.0
 10
64.44087206788434
 20
5.071288648529622
 30
0.0
  0
ARC
  5
1191
330
1168
100
AcDbEntity
  8
0
100
AcDbCircle
 10
22.49568901432422
 20
22.49568901432423
 30
0.0
 40
10.49999999999998
100
AcDbArc
 50
198.3504955388923
 51
251.6495044611076
  0
ENDBLK
  5
116A
330
1168
100
AcDbEntity
  8
0
100
AcDbBlockEnd
  0
BLOCK
  5
1193
330
1192
100
AcDbEntity
  8
0
100
AcDbBlockBegin
  2
ABR105-Right
 70
     0
 10
0.0
 20
0.0
 30
0.0
  3
ABR105-Right
  1

  0
LINE
  5
1195
330
1192
100
AcDbEntity
  8
0
100
AcDbLine
 10
-62.54164329695385
 20
3.000000000000019
 30
0.0
 11
-62.54164329695385
 21
3.257300537841529
 31
0.0
  0
ARC
  5
1196
330
1192
100
AcDbEntity
  8
0
100
AcDbCircle
 10
-74.0
 20
12.00000000000002
 30
0.0
 40
9.000000000000001
100
AcDbArc
 50
270.0000000000001
 51
283.7333616644564
  0
LINE
  5
1197
330
1192
100
AcDbEntity
  8
0
100
AcDbLine
 10
-62.54164329695385
 20
3.257300537841528
 30
0.0
 11
-62.54164329695385
 21
4.042334355133307
 31
0.0
  0
LINE
  5
1198
330
1192
100
AcDbEntity
  8
0
100
AcDbLine
 10
-62.54164329695385
 20
4.042334355133307
 30
0.0
 11
-62.54164329695385
 21
5.071288410807569
 31
0.0
  0
SPLINE
  5
1199
330
1192
100
AcDbEntity
  8
0
100
AcDbSpline
210
0.0
220
0.0
230
1.0
 70
     8
 71
     3
 72
    14
 73
    10
 74
     0
 42
0.000000001
 43
0.0000000001
 40
-1.570744339299344
 40
-1.570744339299344
 40
-1.570744339299344
 40
-1.570744339299344
 40
-1.325974666077672
 40
-1.325974666077672
 40
-1.325974666077672
 40
-0.4425708088625762
 40
-0.4425708088625762
 40
-0.4425708088625762
 40
0.0
 40
0.0
 40
0.0
 40
0.0
 10
-64.43727088411984
 20
5.071281013265452
 30
0.0
 10
-64.43899778611364
 20
5.071285022955612
 30
0.0
 10
-64.42179991237757
 20
5.071286940621124
 30
0.0
 10
-64.38423601595698
 20
5.07128299046395
 30
0.0
 10
-64.24866329343295
 20
5.071268733860846
 30
0.0
 10
-63.86039255503854
 20
5.071314691501501
 30
0.0
 10
-63.35502718260895
 20
5.071424983965473
 30
0.0
 10
-63.10184743948174
 20
5.071480238676659
 30
0.0
 10
-62.82216206599714
 20
5.067891314497892
 30
0.0
 10
-62.54164329695385
 20
5.071288410807571
 30
0.0
  0
LINE
  5
119A
330
1192
100
AcDbEntity
  8
0
100
AcDbLine
 10
-64.44086930829941
 20
5.071289504184615
 30
0.0
 11
-71.86336570410993
 21
3.257300537841527
 31
0.0
  0
LINE
  5
119B
330
1192
100
AcDbEntity
  8
0
100
AcDbLine
 10
-19.18998372341745
 20
4.416781653556773
 30
0.0
 11
-19.18998372341744
 21
3.000000000000005
 31
0.0
  0
LINE
  5
119C
330
1192
100
AcDbEntity
  8
0
100
AcDbLine
 10
-19.18998372341748
 20
12.28576703083894
 30
0.0
 11
-19.18998372341748
 21
11.21416288398206
 31
0.0
  0
LINE
  5
119D
330
1192
100
AcDbEntity
  8
0
100
AcDbLine
 10
-19.1899837234175
 20
12.52963099072879
 30
0.0
 11
-19.18998372341748
 21
12.28576703083894
 31
0.0
  0
LINE
  5
119E
330
1192
100
AcDbEntity
  8
0
100
AcDbLine
 10
-2.999999999999997
 20
19.18998372341745
 30
0.0
 11
-4.416781653556766
 21
19.18998372341745
 31
0.0
  0
LINE
  5
119F
330
1192
100
AcDbEntity
  8
0
100
AcDbLine
 10
-11.21416288398213
 20
19.18998372341748
 30
0.0
 11
-12.28576703083893
 21
19.1899837234175
 31
0.0
  0
LINE
  5
11A0
330
1192
100
AcDbEntity
  8
0
100
AcDbLine
 10
-12.28576703083894
 20
19.1899837234175
 30
0.0
 11
-12.52963099072879
 21
19.1899837234175
 31
0.0
  0
SPLINE
  5
11A1
330
1192
100
AcDbEntity
  8
0
100
AcDbSpline
210
0.0
220
0.0
230
1.0
 70
     8
 71
     3
 72
    14
 73
    10
 74
     0
 42
0.000000001
 43
0.0000000001
 40
0.0
 40
0.0
 40
0.0
 40
0.0
 40
0.1483137589680119
 40
0.1483137589680119
 40
0.4700925778392266
 40
0.4700925778392266
 40
1.435085901278245
 40
1.435085901278245
 40
3.271529522416802
 40
3.271529522416802
 40
3.271529522416802
 40
3.271529522416802
 10
-60.49569380472068
 20
3.339542512987366
 30
0.0
 10
-60.00565090000211
 20
3.358915427338631
 30
0.0
 10
-59.5087844050152
 20
3.386525631556639
 30
0.0
 10
-57.94448267764121
 20
3.47282429503059
 30
0.0
 10
-56.87531755409077
 20
3.534152857232885
 30
0.0
 10
-52.6003092453752
 20
3.761992585262756
 30
0.0
 10
-49.39152676447588
 20
3.899866438706101
 30
0.0
 10
-40.06454131059209
 20
4.190126969360473
 30
0.0
 10
-33.93433344710111
 20
4.172279074196246
 30
0.0
 10
-27.81655742074818
 20
4.283831863270068
 30
0.0
  0
SPLINE
  5
11A2
330
1192
100
AcDbEntity
  8
0
100
AcDbSpline
210
0.0
220
0.0
230
1.0
 70
     8
 71
     3
 72
    10
 73
     6
 74
     0
 42
0.000000001
 43
0.0000000001
 40
0.0
 40
0.0
 40
0.0
 40
0.0
 40
3.873503068358013
 40
3.873503068358013
 40
4.398480383711545
 40
4.398480383711545
 40
4.398480383711545
 40
4.398480383711545
 10
-62.54164329695385
 20
5.30000000000002
 30
0.0
 10
-49.64252387672856
 20
5.869313983160178
 30
0.0
 10
-36.72888307997871
 20
7.816773882298395
 30
0.0
 10
-22.5537316089361
 20
11.56212204214974
 30
0.0
 10
-20.86818910272135
 20
12.03378620010929
 30
0.0
 10
-19.18998372341749
 20
12.5296309907288
 30
0.0
  0
SPLINE
  5
11A3
330
1192
100
AcDbEntity
  8
0
100
AcDbSpline
210
0.0
220
0.0
230
1.0
 70
     8
 71
     3
 72
    14
 73
    10
 74
     0
 42
0.000000001
 43
0.0000000001
 40
0.0
 40
0.0
 40
0.0
 40
0.0
 40
1.633516153442947
 40
1.633516153442947
 40
2.45225657943345
 40
2.45225657943345
 40
2.861635923389579
 40
2.861635923389579
 40
3.271364101006267
 40
3.271364101006267
 40
3.271364101006267
 40
3.271364101006267
 10
-4.283831863270052
 20
27.8165574207482
 30
0.0
 10
-4.184605684575423
 20
33.25831770522552
 30
0.0
 10
-4.202109156179859
 20
38.70942301499706
 30
0.0
 10
-3.986095814132317
 20
46.87712240861587
 30
0.0
 10
-3.888233682909163
 20
49.60235127111027
 30
0.0
 10
-3.701725185013293
 20
53.68481204469273
 30
0.0
 10
-3.6328386470977
 20
55.04479476797258
 30
0.0
 10
-3.48489033638939
 20
57.76622518530564
 30
0.0
 10
-3.393061680376125
 20
59.14191255272209
 30
0.0
 10
-3.339542512987345
 20
60.49569380472065
 30
0.0
  0
SPLINE
  5
11A4
330
1192
100
AcDbEntity
  8
0
100
AcDbSpline
210
0.0
220
0.0
230
1.0
 70
     8
 71
     3
 72
    10
 73
     6
 74
     0
 42
0.000000001
 43
0.0000000001
 40
0.0
 40
0.0
 40
0.0
 40
0.0
 40
3.830649369401998
 40
3.830649369401998
 40
4.398681336028515
 40
4.398681336028515
 40
4.398681336028515
 40
4.398681336028515
 10
-12.52963099072879
 20
19.1899837234175
 30
0.0
 10
-8.911555544499718
 20
31.43549641500531
 30
0.0
 10
-6.592496391162416
 20
44.13829033519263
 30
0.0
 10
-5.495892873235529
 20
58.75949600106178
 30
0.0
 10
-5.383487359058561
 20
60.65004490585544
 30
0.0
 10
-5.3
 20
62.54164329695388
 30
0.0
  0
LINE
  5
11A5
330
1192
100
AcDbEntity
  8
0
100
AcDbLine
 10
-95.0
 20
3.000000000000002
 30
0.0
 11
-105.0
 21
3.0
 31
0.0
  0
LINE
  5
11A6
330
1192
100
AcDbEntity
  8
0
100
AcDbLine
 10
0.0
 20
95.0
 30
0.0
 11
0.0
 21
105.0
 31
0.0
  0
LINE
  5
11A7
330
1192
100
AcDbEntity
  8
0
100
AcDbLine
 10
-2.999999999999992
 20
105.0
 30
0.0
 11
-2.999999999999989
 21
95.0
 31
0.0
  0
LINE
  5
11A8
330
1192
100
AcDbEntity
  8
0
100
AcDbLine
 10
-105.0
 20
0.0
 30
0.0
 11
-95.0
 21
0.0
 31
0.0
  0
LINE
  5
11A9
330
1192
100
AcDbEntity
  8
0
100
AcDbLine
 10
-105.0
 20
3.0
 30
0.0
 11
-105.0
 21
0.0
 31
0.0
  0
LINE
  5
11AA
330
1192
100
AcDbEntity
  8
0
100
AcDbLine
 10
0.0
 20
105.0
 30
0.0
 11
-2.999999999999992
 21
105.0
 31
0.0
  0
LINE
  5
11AB
330
1192
100
AcDbEntity
  8
0
100
AcDbLine
 10
-8.000000000000131
 20
3.000000000000011
 30
0.0
 11
-94.99999999999973
 21
3.000000000000006
 31
0.0
  0
LINE
  5
11AC
330
1192
100
AcDbEntity
  8
0
100
AcDbLine
 10
0.0
 20
7.999999999565403
 30
0.0
 11
0.0
 21
95.0000000000004
 31
0.0
  0
LINE
  5
11AD
330
1192
100
AcDbEntity
  8
0
100
AcDbLine
 10
-2.999999999999988
 20
95.00000000000044
 30
0.0
 11
-2.999999999999989
 21
7.999999999728313
 31
0.0
  0
LINE
  5
11AE
330
1192
100
AcDbEntity
  8
0
100
AcDbLine
 10
-94.99999999999975
 20
0.0
 30
0.0
 11
-8.000000000000149
 21
0.0
 31
0.0
  0
SPLINE
  5
11AF
330
1192
100
AcDbEntity
  8
0
100
AcDbSpline
210
0.0
220
0.0
230
1.0
 70
     8
 71
     3
 72
    11
 73
     7
 74
     0
 42
0.000000001
 43
0.0000000001
 40
0.0
 40
0.0
 40
0.0
 40
0.0
 40
0.9067919713980618
 40
0.9067919713980618
 40
0.9067919713980618
 40
1.0
 40
1.0
 40
1.0
 40
1.0
 10
0.0000000000000099
 20
7.999999999564869
 30
0.0
 10
-0.0000000002064574
 20
4.20409948889423
 30
0.0
 10
-3.076885716375882
 20
0.6392064727898985
 30
0.0
 10
-6.833447389333348
 20
0.0855098075399236
 30
0.0
 10
-7.219579731592761
 20
0.0285960100656821
 30
0.0
 10
-7.609824067119507
 20
0.0000000000000128
 30
0.0
 10
-7.999999999999864
 20
0.0000000000000067
 30
0.0
  0
LINE
  5
11B0
330
1192
100
AcDbEntity
  8
0
100
AcDbLine
 10
-2.999999999999989
 20
95.0
 30
0.0
 11
0.0
 21
95.0
 31
0.0
  0
SPLINE
  5
11B1
330
1192
100
AcDbEntity
  8
0
100
AcDbSpline
210
0.0
220
0.0
230
1.0
 70
     8
 71
     3
 72
    11
 73
     7
 74
     0
 42
0.000000001
 43
0.0000000001
 40
-1.0
 40
-1.0
 40
-1.0
 40
-1.0
 40
-0.9067919713980618
 40
-0.9067919713980618
 40
-0.9067919713980618
 40
0.0
 40
0.0
 40
0.0
 40
0.0
 10
-7.999999999999911
 20
3.000000000000007
 30
0.0
 10
-7.756140041949688
 20
3.000000000000011
 30
0.0
 10
-7.512237332245471
 20
3.017872506291054
 30
0.0
 10
-7.270904618333339
 20
3.053443629712455
 30
0.0
 10
-4.923053572734923
 20
3.399504045493689
 30
0.0
 10
-3.000000000129032
 20
5.627562180558896
 30
0.0
 10
-2.99999999999999
 20
7.999999999728045
 30
0.0
  0
LINE
  5
11B2
330
1192
100
AcDbEntity
  8
0
100
AcDbLine
 10
-95.0
 20
0.0
 30
0.0
 11
-95.0
 21
3.000000000000002
 31
0.0
  0
LINE
  5
11B3
330
1192
100
AcDbEntity
  8
0
100
AcDbLine
 10
-5.071288410807546
 20
64.44087378218949
 30
0.0
 11
-5.071288410807546
 21
62.54164329695386
 31
0.0
  0
SPLINE
  5
11B4
330
1192
100
AcDbEntity
  8
0
100
AcDbSpline
210
0.0
220
0.0
230
1.0
 70
     8
 71
     3
 72
     8
 73
     4
 74
     0
 42
0.000000001
 43
0.0000000001
 40
0.0
 40
0.0
 40
0.0
 40
0.0
 40
0.1912952019068364
 40
0.1912952019068364
 40
0.1912952019068364
 40
0.1912952019068364
 10
-5.299999999995056
 20
62.54164329695902
 30
0.0
 10
-5.268734505445871
 20
63.1785264531256
 30
0.0
 10
-5.15759178630615
 20
63.80909052991996
 30
0.0
 10
-5.071288414286222
 20
64.44087378266113
 30
0.0
  0
LINE
  5
11B5
330
1192
100
AcDbEntity
  8
0
100
AcDbLine
 10
-2.999999999999997
 20
62.54164329695386
 30
0.0
 11
-3.257300537841508
 21
62.54164329695386
 31
0.0
  0
ARC
  5
11B6
330
1192
100
AcDbEntity
  8
0
100
AcDbCircle
 10
-12.0
 20
74.0
 30
0.0
 40
9.0
100
AcDbArc
 50
346.2666383355436
 51
0.0
  0
LINE
  5
11B7
330
1192
100
AcDbEntity
  8
0
100
AcDbLine
 10
-3.257300537841505
 20
62.54164329695386
 30
0.0
 11
-4.042334355133282
 21
62.54164329695386
 31
0.0
  0
LINE
  5
11B8
330
1192
100
AcDbEntity
  8
0
100
AcDbLine
 10
-4.042334355133282
 20
62.54164329695386
 30
0.0
 11
-5.071288410807548
 21
62.54164329695386
 31
0.0
  0
LINE
  5
11B9
330
1192
100
AcDbEntity
  8
0
100
AcDbLine
 10
-5.071288410807545
 20
64.44087378218949
 30
0.0
 11
-3.257300537841504
 21
71.86336570410995
 31
0.0
  0
SPLINE
  5
11BA
330
1192
100
AcDbEntity
  8
0
100
AcDbSpline
210
0.0
220
0.0
230
1.0
 70
     8
 71
     3
 72
     8
 73
     4
 74
     0
 42
0.000000001
 43
0.0000000001
 40
0.0
 40
0.0
 40
0.0
 40
0.0
 40
0.191295028858566
 40
0.191295028858566
 40
0.191295028858566
 40
0.191295028858566
 10
-64.44087206788435
 20
5.071288648529622
 30
0.0
 10
-63.80908939013498
 20
5.157591967891793
 30
0.0
 10
-63.17852587699228
 20
5.268734533729089
 30
0.0
 10
-62.54164329695896
 20
5.299999999995073
 30
0.0
  0
ARC
  5
11BB
330
1192
100
AcDbEntity
  8
0
100
AcDbCircle
 10
-22.49568901432422
 20
22.49568901432423
 30
0.0
 40
10.49999999999998
100
AcDbArc
 50
288.3504955388923
 51
341.6495044611077
  0
ENDBLK
  5
1194
330
1192
100
AcDbEntity
  8
0
100
AcDbBlockEnd
  0
BLOCK
  5
11BD
330
11BC
100
AcDbEntity
  8
0
100
AcDbBlockBegin
  2
ABR105-Top
 70
     0
 10
0.0
 20
0.0
 30
0.0
  3
ABR105-Top
  1

  0
LINE
  5
11BF
330
11BC
100
AcDbEntity
  8
0
100
AcDbLine
 10
11.45835670304613
 20
-62.54164329695385
 30
0.0
 11
9.321722407156068
 21
-62.54164329695385
 31
0.0
  0
LINE
  5
11C0
330
11BC
100
AcDbEntity
  8
0
100
AcDbLine
 10
-9.321722407156071
 20
-62.54164329695385
 30
0.0
 11
-11.45835670304613
 21
-62.54164329695385
 31
0.0
  0
LINE
  5
11C1
330
11BC
100
AcDbEntity
  8
0
100
AcDbLine
 10
9.321722407156068
 20
-62.54164329695385
 30
0.0
 11
6.109513960715325
 21
-62.54164329695385
 31
0.0
  0
LINE
  5
11C2
330
11BC
100
AcDbEntity
  8
0
100
AcDbLine
 10
6.109513960715325
 20
-62.54164329695385
 30
0.0
 11
1.899230485235615
 21
-62.54164329695385
 31
0.0
  0
SPLINE
  5
11C3
330
11BC
100
AcDbEntity
  8
0
100
AcDbSpline
210
0.0
220
0.0
230
1.0
 70
     8
 71
     3
 72
    17
 73
    13
 74
     0
 42
0.000000001
 43
0.0000000001
 40
-3.141592653589793
 40
-3.141592653589793
 40
-3.141592653589793
 40
-3.141592653589793
 40
-2.468556457995917
 40
-2.468556457995917
 40
-2.468556457995917
 40
-1.325974666077672
 40
-1.325974666077672
 40
-1.325974666077672
 40
-0.4425708088625762
 40
-0.4425708088625762
 40
-0.4425708088625762
 40
0.0
 40
0.0
 40
0.0
 40
0.0
 10
-1.899230485235611
 20
-62.54164329695386
 30
0.0
 10
-1.898118235562383
 20
-62.96626781271847
 30
0.0
 10
-1.749669677371181
 20
-63.39237192267551
 30
0.0
 10
-1.484666666976055
 20
-63.72554372992219
 30
0.0
 10
-1.034783560445924
 20
-64.29115378630948
 30
0.0
 10
-0.241636155014643
 20
-64.55958381749937
 30
0.0
 10
0.4605207411756429
 20
-64.38423601595698
 30
0.0
 10
1.003403635732623
 20
-64.24866329343295
 30
0.0
 10
1.476317593107341
 20
-63.86039255503854
 30
0.0
 10
1.715357658074133
 20
-63.35502718260895
 30
0.0
 10
1.835112800684018
 20
-63.10184743948174
 30
0.0
 10
1.898456330542267
 20
-62.82216206599714
 30
0.0
 10
1.899230485235588
 20
-62.54164329695385
 30
0.0
  0
LINE
  5
11C4
330
11BC
100
AcDbEntity
  8
0
100
AcDbLine
 10
-1.899230485235612
 20
-62.54164329695385
 30
0.0
 11
-6.109513960715648
 21
-62.54164329695385
 31
0.0
  0
LINE
  5
11C5
330
11BC
100
AcDbEntity
  8
0
100
AcDbLine
 10
-6.109513960715648
 20
-62.54164329695385
 30
0.0
 11
-9.32172240715607
 21
-62.54164329695385
 31
0.0
  0
LINE
  5
11C6
330
11BC
100
AcDbEntity
  8
0
100
AcDbLine
 10
9.070251352537642
 20
-19.18998372341745
 30
0.0
 11
11.45835670304613
 21
-19.18998372341744
 31
0.0
  0
LINE
  5
11C7
330
11BC
100
AcDbEntity
  8
0
100
AcDbLine
 10
11.45835670304613
 20
-19.18998372341744
 30
0.0
 11
11.45835670304613
 21
-62.54164329695385
 31
0.0
  0
LINE
  5
11C8
330
11BC
100
AcDbEntity
  8
0
100
AcDbLine
 10
1.911570314763384
 20
-19.18998372341748
 30
0.0
 11
4.303107412128675
 21
-19.18998372341748
 31
0.0
  0
LINE
  5
11C9
330
11BC
100
AcDbEntity
  8
0
100
AcDbLine
 10
-1.911570314763398
 20
-19.1899837234175
 30
0.0
 11
1.911570314763384
 21
-19.18998372341748
 31
0.0
  0
LINE
  5
11CA
330
11BC
100
AcDbEntity
  8
0
100
AcDbLine
 10
-4.303107412128574
 20
-19.18998372341751
 30
0.0
 11
-1.911570314763397
 21
-19.1899837234175
 31
0.0
  0
LINE
  5
11CB
330
11BC
100
AcDbEntity
  8
0
100
AcDbLine
 10
-11.45835670304614
 20
-19.18998372341755
 30
0.0
 11
-9.070251352537653
 21
-19.18998372341753
 31
0.0
  0
LINE
  5
11CC
330
11BC
100
AcDbEntity
  8
0
100
AcDbLine
 10
-11.45835670304613
 20
-62.54164329695385
 30
0.0
 11
-11.45835670304614
 21
-19.18998372341755
 31
0.0
  0
SPLINE
  5
11CD
330
11BC
100
AcDbEntity
  8
0
100
AcDbSpline
210
0.0
220
0.0
230
1.0
 70
     8
 71
     3
 72
    10
 73
     6
 74
     0
 42
0.000000001
 43
0.0000000001
 40
-0.1164002697631172
 40
-0.1164002697631172
 40
-0.1164002697631172
 40
-0.1164002697631172
 40
-0.1053942641992154
 40
-0.1053942641992154
 40
0.0
 40
0.0
 40
0.0
 40
0.0
 10
9.822920134234085
 20
-3.545015756332992
 30
0.0
 10
9.793626890075007
 20
-3.567014541196628
 30
0.0
 10
9.764760254876062
 20
-3.589621314812484
 30
0.0
 10
9.464186084285735
 20
-3.835029126449442
 30
0.0
 10
9.23785312995815
 20
-4.108023947317575
 30
0.0
 10
9.07025135253764
 20
-4.416781653556766
 30
0.0
  0
SPLINE
  5
11CE
330
11BC
100
AcDbEntity
  8
0
100
AcDbSpline
210
0.0
220
0.0
230
1.0
 70
     8
 71
     3
 72
    10
 73
     6
 74
     0
 42
0.000000001
 43
0.0000000001
 40
1.961666341445275
 40
1.961666341445275
 40
1.961666341445275
 40
1.961666341445275
 40
2.099930981875388
 40
2.099930981875388
 40
2.211186435545557
 40
2.211186435545557
 40
2.211186435545557
 40
2.211186435545557
 10
4.303107412128549
 20
-11.21416288398213
 30
0.0
 10
3.884630384601321
 20
-11.491911967929
 30
0.0
 10
3.441893383678091
 20
-11.72777527036285
 30
0.0
 10
2.676904035526685
 20
-12.05422918252867
 30
0.0
 10
2.300946649377574
 20
-12.18427562070445
 30
0.0
 10
1.911570314763382
 20
-12.28576703083894
 30
0.0
  0
SPLINE
  5
11CF
330
11BC
100
AcDbEntity
  8
0
100
AcDbSpline
210
0.0
220
0.0
230
1.0
 70
     8
 71
     3
 72
    14
 73
    10
 74
     0
 42
0.000000001
 43
0.0000000001
 40
2.211186435545557
 40
2.211186435545557
 40
2.211186435545557
 40
2.211186435545557
 40
2.246216142961087
 40
2.246216142961087
 40
2.392501304046786
 40
2.392501304046786
 40
2.538786465132485
 40
2.538786465132485
 40
2.573816172548015
 40
2.573816172548015
 40
2.573816172548015
 40
2.573816172548015
 10
1.911570314763382
 20
-12.28576703083894
 30
0.0
 10
1.78886991522968
 20
-12.31732983592558
 30
0.0
 10
1.66490911143718
 20
-12.34633081090104
 30
0.0
 10
1.019811080032659
 20
-12.47947961246717
 30
0.0
 10
0.487617203618987
 20
-12.52963099072879
 30
0.0
 10
-0.4876172036190049
 20
-12.52963099072879
 30
0.0
 10
-1.019811080032676
 20
-12.47947961246716
 30
0.0
 10
-1.664909111437197
 20
-12.34633081090103
 30
0.0
 10
-1.788869915229697
 20
-12.31732983592557
 30
0.0
 10
-1.9115703147634
 20
-12.28576703083893
 30
0.0
  0
SPLINE
  5
11D0
330
11BC
100
AcDbEntity
  8
0
100
AcDbSpline
210
0.0
220
0.0
230
1.0
 70
     8
 71
     3
 72
    10
 73
     6
 74
     0
 42
0.000000001
 43
0.0000000001
 40
2.573816172548015
 40
2.573816172548015
 40
2.573816172548015
 40
2.573816172548015
 40
2.685071626218184
 40
2.685071626218184
 40
2.82333626664829
 40
2.82333626664829
 40
2.82333626664829
 40
2.82333626664829
 10
-1.9115703147634
 20
-12.28576703083893
 30
0.0
 10
-2.30094664937759
 20
-12.18427562070445
 30
0.0
 10
-2.676904035526701
 20
-12.05422918252866
 30
0.0
 10
-3.441893383678084
 20
-11.72777527036285
 30
0.0
 10
-3.884630384601289
 20
-11.49191196792901
 30
0.0
 10
-4.3031074121285
 20
-11.21416288398217
 30
0.0
  0
SPLINE
  5
11D1
330
11BC
100
AcDbEntity
  8
0
100
AcDbSpline
210
0.0
220
0.0
230
1.0
 70
     8
 71
     3
 72
    10
 73
     6
 74
     0
 42
0.000000001
 43
0.0000000001
 40
-0.2922631889727878
 40
-0.2922631889727878
 40
-0.2922631889727878
 40
-0.2922631889727878
 40
-0.1995032110116694
 40
-0.1995032110116694
 40
-0.1759298512281599
 40
-0.1759298512281599
 40
-0.1759298512281599
 40
-0.1759298512281599
 10
-9.070251352537656
 20
-4.416781653556769
 30
0.0
 10
-9.217739257271055
 20
-4.145077929023736
 30
0.0
 10
-9.410860373548718
 20
-3.900790618964316
 30
0.0
 10
-9.699535499361422
 20
-3.641928192808787
 30
0.0
 10
-9.760205026293515
 20
-3.592116507165905
 30
0.0
 10
-9.822858467631485
 20
-3.545062057653147
 30
0.0
  0
SPLINE
  5
11D2
330
11BC
100
AcDbEntity
  8
0
100
AcDbSpline
210
0.0
220
0.0
230
1.0
 70
     8
 71
     3
 72
    40
 73
    36
 74
     0
 42
0.000000001
 43
0.0000000001
 40
0.0
 40
0.0
 40
0.0
 40
0.0
 40
0.0090666385063042
 40
0.0090666385063042
 40
0.0180149929716676
 40
0.0180149929716676
 40
0.0244932180453007
 40
0.0244932180453007
 40
0.0277395643658147
 40
0.0277395643658147
 40
0.0293513510917806
 40
0.0293513510917806
 40
0.0309664192906629
 40
0.0309664192906629
 40
0.0325790340692654
 40
0.0325790340692654
 40
0.0341867183005703
 40
0.0341867183005703
 40
0.0374089573415302
 40
0.0374089573415302
 40
0.0406162934744577
 40
0.0406162934744577
 40
0.0470311847908166
 40
0.0470311847908166
 40
0.098410758284845
 40
0.098410758284845
 40
0.2142903854619032
 40
0.2142903854619032
 40
0.368730508863698
 40
0.368730508863698
 40
0.672117909683337
 40
0.672117909683337
 40
1.262245788528142
 40
1.262245788528142
 40
1.263495589281993
 40
1.263495589281993
 40
1.263495589281993
 40
1.263495589281993
 10
11.45835670304612
 20
-2.999999999999998
 30
0.0
 10
11.45080364868303
 20
-3.000323417074593
 30
0.0
 10
11.44436572478895
 20
-3.000639968588264
 30
0.0
 10
11.42715689652189
 20
-3.001633820090696
 30
0.0
 10
11.41740656975524
 20
-3.002255806948741
 30
0.0
 10
11.3958678392418
 20
-3.003917720369813
 30
0.0
 10
11.38533149143558
 20
-3.004791167121754
 30
0.0
 10
11.36457281310632
 20
-3.006807488175322
 30
0.0
 10
11.35663168286025
 20
-3.007619482151097
 30
0.0
 10
11.34305463355868
 20
-3.009123785133906
 30
0.0
 10
11.33821879229056
 20
-3.009676927390321
 30
0.0
 10
11.32813405443443
 20
-3.010874573786974
 30
0.0
 10
11.32280747435524
 20
-3.011528845258469
 30
0.0
 10
11.3121581526395
 20
-3.012883984995017
 30
0.0
 10
11.30675541899429
 20
-3.013594886157304
 30
0.0
 10
11.29630741150397
 20
-3.015012395633149
 30
0.0
 10
11.2911915772456
 20
-3.015728019313983
 30
0.0
 10
11.27646190420055
 20
-3.017842093572647
 30
0.0
 10
11.26731566764663
 20
-3.019228169256884
 30
0.0
 10
11.25048327314206
 20
-3.021874335321345
 30
0.0
 10
11.24266945529416
 20
-3.023153582744536
 30
0.0
 10
11.22054940698615
 20
-3.026881768747719
 30
0.0
 10
11.20740099519547
 20
-3.029245524590256
 30
0.0
 10
11.09698157371394
 20
-3.04989118395081
 30
0.0
 10
11.03719513080302
 20
-3.06564295075992
 30
0.0
 10
10.84343705321646
 20
-3.118148445663275
 30
0.0
 10
10.73861797049295
 20
-3.154131843026358
 30
0.0
 10
10.5114740527206
 20
-3.236725575356862
 30
0.0
 10
10.39965327087716
 20
-3.282609712912654
 30
0.0
 10
10.10103271791285
 20
-3.410517838644969
 30
0.0
 10
9.947147189688136
 20
-3.484362690680971
 30
0.0
 10
9.592030994189336
 20
-3.657744145148821
 30
0.0
 10
9.490836808154005
 20
-3.713229861977392
 30
0.0
 10
9.490443168363693
 20
-3.713440883114007
 30
0.0
 10
9.490442752787631
 20
-3.713441105929971
 30
0.0
 10
9.490442752787423
 20
-3.713441105930082
 30
0.0
  0
SPLINE
  5
11D3
330
11BC
100
AcDbEntity
  8
0
100
AcDbSpline
210
0.0
220
0.0
230
1.0
 70
     8
 71
     3
 72
     8
 73
     4
 74
     0
 42
0.000000001
 43
0.0000000001
 40
0.0
 40
0.0
 40
0.0
 40
0.0
 40
0.8775724267736425
 40
0.8775724267736425
 40
0.8775724267736425
 40
0.8775724267736425
 10
8.378207476162927
 20
-4.260223890052742
 30
0.0
 10
8.287529459401898
 20
-4.22383844499671
 30
0.0
 10
8.192327280818501
 20
-4.248118626961232
 30
0.0
 10
8.135905307671588
 20
-4.067915128564955
 30
0.0
  0
SPLINE
  5
11D4
330
11BC
100
AcDbEntity
  8
0
100
AcDbSpline
210
0.0
220
0.0
230
1.0
 70
     8
 71
     3
 72
    36
 73
    32
 74
     0
 42
0.000000001
 43
0.0000000001
 40
1.154560480579801
 40
1.154560480579801
 40
1.154560480579801
 40
1.154560480579801
 40
1.155926499453419
 40
1.155926499453419
 40
1.746066976174009
 40
1.746066976174009
 40
2.049478793335896
 40
2.049478793335896
 40
2.203905255368333
 40
2.203905255368333
 40
2.319774375211965
 40
2.319774375211965
 40
2.363269956728252
 40
2.363269956728252
 40
2.380017704035196
 40
2.380017704035196
 40
2.384216673102317
 40
2.384216673102317
 40
2.386314181481492
 40
2.386314181481492
 40
2.388424067583838
 40
2.388424067583838
 40
2.390527138102052
 40
2.390527138102052
 40
2.394762322007571
 40
2.394762322007571
 40
2.403164798853404
 40
2.403164798853404
 40
2.410453484539538
 40
2.410453484539538
 40
2.417785682352838
 40
2.417785682352838
 40
2.417785682352838
 40
2.417785682352838
 10
-9.490034545903121
 20
-3.713631858446202
 30
0.0
 10
-9.490034545903418
 20
-3.713631858446043
 30
0.0
 10
-9.490035043132769
 20
-3.713631591901695
 30
0.0
 10
-9.490466085698646
 20
-3.713400567595757
 30
0.0
 10
-9.591554025537829
 20
-3.657954973455565
 30
0.0
 10
-9.948081893619463
 20
-3.48394292117391
 30
0.0
 10
-10.10318944220397
 20
-3.409569613164606
 30
0.0
 10
-10.4021904649291
 20
-3.281601259326658
 30
0.0
 10
-10.51404927989059
 20
-3.235749478720672
 30
0.0
 10
-10.7410645627801
 20
-3.153318038847649
 30
0.0
 10
-10.8457541046325
 20
-3.117439568197725
 30
0.0
 10
-11.03013239043103
 20
-3.06760026010623
 30
0.0
 10
-11.0832922129206
 20
-3.054057674718966
 30
0.0
 10
-11.18257051192392
 20
-3.033763044960282
 30
0.0
 10
-11.21259868443229
 20
-3.027910148664121
 30
0.0
 10
-11.26597114050513
 20
-3.019424959852592
 30
0.0
 10
-11.27787646511981
 20
-3.017614628116422
 30
0.0
 10
-11.29742497724335
 20
-3.014854935405391
 30
0.0
 10
-11.30433375540943
 20
-3.013913498075913
 30
0.0
 10
-11.31822310507449
 20
-3.01209998870203
 30
0.0
 10
-11.32536312144464
 20
-3.011208680124681
 30
0.0
 10
-11.33866429170347
 20
-3.009620538369058
 30
0.0
 10
-11.34498992814616
 20
-3.008902304727985
 30
0.0
 10
-11.36226046926346
 20
-3.007019318796068
 30
0.0
 10
-11.37186008559916
 20
-3.006080294108466
 30
0.0
 10
-11.39622415983025
 20
-3.003835307527637
 30
0.0
 10
-11.40789383601371
 20
-3.002961347708342
 30
0.0
 10
-11.42657681084847
 20
-3.001670390872112
 30
0.0
 10
-11.43391079500604
 20
-3.001230717444543
 30
0.0
 10
-11.44712774740753
 20
-3.000508544325252
 30
0.0
 10
-11.45240282551519
 20
-3.000254941531653
 30
0.0
 10
-11.45835670304613
 20
-3.000000000000003
 30
0.0
  0
SPLINE
  5
11D5
330
11BC
100
AcDbEntity
  8
0
100
AcDbSpline
210
0.0
220
0.0
230
1.0
 70
     8
 71
     3
 72
     8
 73
     4
 74
     0
 42
0.000000001
 43
0.0000000001
 40
0.0
 40
0.0
 40
0.0
 40
0.0
 40
0.8775594624585366
 40
0.8775594624585366
 40
0.8775594624585366
 40
0.8775594624585366
 10
-8.135905575167774
 20
-4.067915982899382
 30
0.0
 10
-8.192304168594793
 20
-4.248041025853781
 30
0.0
 10
-8.287428761089341
 20
-4.223797589386354
 30
0.0
 10
-8.378202959768355
 20
-4.260222077793861
 30
0.0
  0
CIRCLE
  5
11D6
330
11BC
100
AcDbEntity
  8
0
100
AcDbCircle
 10
21.61420874296839
 20
-77.49999999999999
 30
0.0
 40
2.5
  0
CIRCLE
  5
11D7
330
11BC
100
AcDbEntity
  8
0
100
AcDbCircle
 10
29.50000000000001
 20
-95.0
 30
0.0
 40
2.5
  0
CIRCLE
  5
11D8
330
11BC
100
AcDbEntity
  8
0
100
AcDbCircle
 10
28.78353052265559
 20
-62.5
 30
0.0
 40
2.5
  0
CIRCLE
  5
11D9
330
11BC
100
AcDbEntity
  8
0
100
AcDbCircle
 10
28.12217408202999
 20
-32.5
 30
0.0
 40
2.5
  0
CIRCLE
  5
11DA
330
11BC
100
AcDbEntity
  8
0
100
AcDbCircle
 10
20.29149586171719
 20
-17.50000000000001
 30
0.0
 40
2.5
  0
CIRCLE
  5
11DB
330
11BC
100
AcDbEntity
  8
0
100
AcDbCircle
 10
35.29149586171719
 20
-17.50000000000001
 30
0.0
 40
2.5
  0
CIRCLE
  5
11DC
330
11BC
100
AcDbEntity
  8
0
100
AcDbCircle
 10
20.95285230234279
 20
-47.49999999999999
 30
0.0
 40
2.5
  0
CIRCLE
  5
11DD
330
11BC
100
AcDbEntity
  8
0
100
AcDbCircle
 10
-21.61420874296839
 20
-77.50000000000001
 30
0.0
 40
2.5
  0
CIRCLE
  5
11DE
330
11BC
100
AcDbEntity
  8
0
100
AcDbCircle
 10
-20.9528523023428
 20
-47.5
 30
0.0
 40
2.5
  0
CIRCLE
  5
11DF
330
11BC
100
AcDbEntity
  8
0
100
AcDbCircle
 10
-35.2914958617172
 20
-17.50000000000003
 30
0.0
 40
2.5
  0
CIRCLE
  5
11E0
330
11BC
100
AcDbEntity
  8
0
100
AcDbCircle
 10
-20.2914958617172
 20
-17.50000000000002
 30
0.0
 40
2.5
  0
CIRCLE
  5
11E1
330
11BC
100
AcDbEntity
  8
0
100
AcDbCircle
 10
-28.12217408203
 20
-32.50000000000001
 30
0.0
 40
2.5
  0
CIRCLE
  5
11E2
330
11BC
100
AcDbEntity
  8
0
100
AcDbCircle
 10
-28.78353052265559
 20
-62.5
 30
0.0
 40
2.5
  0
CIRCLE
  5
11E3
330
11BC
100
AcDbEntity
  8
0
100
AcDbCircle
 10
-29.49999999999999
 20
-95.0
 30
0.0
 40
2.5
  0
CIRCLE
  5
11E4
330
11BC
100
AcDbEntity
  8
0
100
AcDbCircle
 10
0.0000000000000072
 20
-85.0
 30
0.0
 40
5.5
  0
LINE
  5
11E5
330
11BC
100
AcDbEntity
  8
0
100
AcDbLine
 10
-43.08206632218577
 20
-8.000000000000014
 30
0.0
 11
-44.99999999999999
 21
-95.00000000000003
 31
0.0
  0
ARC
  5
11E6
330
11BC
100
AcDbEntity
  8
0
100
AcDbCircle
 10
-1929.176312035644
 20
-95.00000000000042
 30
0.0
 40
1974.176312035644
100
AcDbArc
 50
0.0
 51
2.525786402890477
  0
SPLINE
  5
11E7
330
11BC
100
AcDbEntity
  8
0
100
AcDbSpline
210
0.0
220
0.0
230
1.0
 70
     8
 71
     3
 72
    11
 73
     7
 74
     0
 42
0.000000001
 43
0.0000000001
 40
0.6443417670043527
 40
0.6443417670043527
 40
0.6443417670043527
 40
0.6443417670043527
 40
0.9067919713980618
 40
0.9067919713980618
 40
0.9067919713980618
 40
1.0
 40
1.0
 40
1.0
 40
1.0
 10
42.98176897146944
 20
-3.800619897356216
 30
0.0
 10
42.99282150112883
 20
-4.715880748892565
 30
0.0
 10
43.01392330971391
 20
-5.746196498299082
 30
0.0
 10
43.04507535272702
 20
-6.833447389333348
 30
0.0
 10
43.05613886293797
 20
-7.219579731592761
 30
0.0
 10
43.06846932487462
 20
-7.609824067119507
 30
0.0
 10
43.08206632218551
 20
-7.999999999999864
 30
0.0
  0
SPLINE
  5
11E8
330
11BC
100
AcDbEntity
  8
0
100
AcDbSpline
210
0.0
220
0.0
230
1.0
 70
     8
 71
     3
 72
    11
 73
     7
 74
     0
 42
0.000000001
 43
0.0000000001
 40
-1.0
 40
-1.0
 40
-1.0
 40
-1.0
 40
-0.9086138718154927
 40
-0.9086138718154927
 40
-0.9086138718154927
 40
0.0
 40
0.0
 40
0.0
 40
0.0
 10
-43.08206632218527
 20
-3.000000000000009
 30
0.0
 10
-43.07540071109026
 20
-3.000000000013022
 30
0.0
 10
-43.06934414655802
 20
-3.017195876754464
 30
0.0
 10
-43.06389667773635
 20
-3.05141503585705
 30
0.0
 10
-43.00973478428504
 20
-3.39164175582155
 30
0.0
 10
-43.01579295197599
 20
-5.62163968391835
 30
0.0
 10
-43.08206632218571
 20
-8.000000000000017
 30
0.0
  0
LINE
  5
11E9
330
11BC
100
AcDbEntity
  8
0
100
AcDbLine
 10
44.99999999999999
 20
-2.99999999999999
 30
0.0
 11
44.99999999999999
 21
0.0
 31
0.0
  0
SPLINE
  5
11EA
330
11BC
100
AcDbEntity
  8
0
100
AcDbSpline
210
0.0
220
0.0
230
1.0
 70
     8
 71
     3
 72
    11
 73
     7
 74
     0
 42
0.000000001
 43
0.0000000001
 40
-1.0
 40
-1.0
 40
-1.0
 40
-1.0
 40
-0.9067919713980618
 40
-0.9067919713980618
 40
-0.9067919713980618
 40
0.0
 40
0.0
 40
0.0
 40
0.0
 10
43.08206632218551
 20
-7.999999999999911
 30
0.0
 10
43.06846932487462
 20
-7.756140041949688
 30
0.0
 10
43.05613886293797
 20
-7.512237332245471
 30
0.0
 10
43.04507535272702
 20
-7.270904618333339
 30
0.0
 10
42.93744189684081
 20
-4.923053572734923
 30
0.0
 10
42.94978535688961
 20
-3.000000000129032
 30
0.0
 10
43.08206632218557
 20
-2.999999999999991
 30
0.0
  0
LINE
  5
11EB
330
11BC
100
AcDbEntity
  8
0
100
AcDbLine
 10
-45.0
 20
0.0
 30
0.0
 11
-45.0
 21
-3.00000000000001
 31
0.0
  0
LINE
  5
11EC
330
11BC
100
AcDbEntity
  8
0
100
AcDbLine
 10
-35.0
 20
-105.0
 30
0.0
 11
-44.99999999999999
 21
-95.00000000000003
 31
0.0
  0
LINE
  5
11ED
330
11BC
100
AcDbEntity
  8
0
100
AcDbLine
 10
45.0
 20
-95.0
 30
0.0
 11
35.00000000000001
 21
-105.0
 31
0.0
  0
LINE
  5
11EE
330
11BC
100
AcDbEntity
  8
0
100
AcDbLine
 10
-35.00000000000002
 20
0.0
 30
0.0
 11
-45.0
 21
0.0
 31
0.0
  0
LINE
  5
11EF
330
11BC
100
AcDbEntity
  8
0
100
AcDbLine
 10
44.99999999999999
 20
0.0
 30
0.0
 11
34.99999999999999
 21
0.0
 31
0.0
  0
LINE
  5
11F0
330
11BC
100
AcDbEntity
  8
0
100
AcDbLine
 10
34.99999999999999
 20
-2.999999999999992
 30
0.0
 11
44.99999999999999
 21
-2.99999999999999
 31
0.0
  0
LINE
  5
11F1
330
11BC
100
AcDbEntity
  8
0
100
AcDbLine
 10
-45.0
 20
-3.00000000000001
 30
0.0
 11
-35.00000000000002
 21
-3.000000000000007
 31
0.0
  0
LINE
  5
11F2
330
11BC
100
AcDbEntity
  8
0
100
AcDbLine
 10
34.99999999999999
 20
0.0
 30
0.0
 11
34.99999999999999
 21
-2.999999999999992
 31
0.0
  0
LINE
  5
11F3
330
11BC
100
AcDbEntity
  8
0
100
AcDbLine
 10
-35.00000000000002
 20
-3.000000000000007
 30
0.0
 11
-35.00000000000002
 21
0.0
 31
0.0
  0
LINE
  5
11F4
330
11BC
100
AcDbEntity
  8
0
100
AcDbLine
 10
-35.0
 20
-105.0
 30
0.0
 11
35.00000000000001
 21
-105.0
 31
0.0
  0
LINE
  5
11F5
330
11BC
100
AcDbEntity
  8
0
100
AcDbLine
 10
34.99999999999999
 20
0.0
 30
0.0
 11
-35.00000000000002
 21
0.0
 31
0.0
  0
LINE
  5
11F6
330
11BC
100
AcDbEntity
  8
0
100
AcDbLine
 10
-35.00000000000002
 20
-3.000000000000007
 30
0.0
 11
34.99999999999999
 21
-2.999999999999992
 31
0.0
  0
LINE
  5
11F7
330
11BC
100
AcDbEntity
  8
0
100
AcDbLine
 10
-1.899230485235623
 20
-5.071288410807546
 30
0.0
 11
1.899230485235602
 21
-5.071288410807546
 31
0.0
  0
ARC
  5
11F8
330
11BC
100
AcDbEntity
  8
0
100
AcDbCircle
 10
11.45835670304612
 20
-11.99999999999999
 30
0.0
 40
9.0
100
AcDbArc
 50
90.0
 51
103.7333616644565
  0
ARC
  5
11F9
330
11BC
100
AcDbEntity
  8
0
100
AcDbCircle
 10
-11.45835670304614
 20
-12.0
 30
0.0
 40
9.000000000000001
100
AcDbArc
 50
76.26663833554352
 51
89.99999999999991
  0
LINE
  5
11FA
330
11BC
100
AcDbEntity
  8
0
100
AcDbLine
 10
9.321722407156055
 20
-3.257300537841505
 30
0.0
 11
6.109513960715321
 21
-4.042334355133282
 31
0.0
  0
LINE
  5
11FB
330
11BC
100
AcDbEntity
  8
0
100
AcDbLine
 10
-6.109513960715662
 20
-4.042334355133207
 30
0.0
 11
-9.321722407156084
 21
-3.257300537841512
 31
0.0
  0
LINE
  5
11FC
330
11BC
100
AcDbEntity
  8
0
100
AcDbLine
 10
-1.899230485235626
 20
-5.071288410807549
 30
0.0
 11
-6.109513960715662
 21
-4.042334355133207
 31
0.0
  0
LINE
  5
11FD
330
11BC
100
AcDbEntity
  8
0
100
AcDbLine
 10
6.109513960715321
 20
-4.042334355133282
 30
0.0
 11
1.899230485235603
 21
-5.071288410807548
 31
0.0
  0
ENDBLK
  5
11BE
330
11BC
100
AcDbEntity
  8
0
100
AcDbBlockEnd
  0
BLOCK
  5
11FF
330
11FE
100
AcDbEntity
  8
0
100
AcDbBlockBegin
  2
ABR105-Bottom
 70
     0
 10
0.0
 20
0.0
 30
0.0
  3
ABR105-Bottom
  1

  0
LINE
  5
1201
330
11FE
100
AcDbEntity
  8
0
100
AcDbLine
 10
11.45835670304613
 20
62.54164329695385
 30
0.0
 11
8.609510975192716
 21
62.54164329695385
 31
0.0
  0
LINE
  5
1202
330
11FE
100
AcDbEntity
  8
0
100
AcDbLine
 10
-8.60951097519271
 20
62.54164329695385
 30
0.0
 11
-11.45835670304613
 21
62.54164329695385
 31
0.0
  0
ARC
  5
1203
330
11FE
100
AcDbEntity
  8
0
100
AcDbCircle
 10
11.45835670304612
 20
11.99999999999999
 30
0.0
 40
11.99999999999999
100
AcDbArc
 50
256.2666383355434
 51
269.9999999999999
  0
ARC
  5
1204
330
11FE
100
AcDbEntity
  8
0
100
AcDbCircle
 10
-11.45835670304614
 20
12.0
 30
0.0
 40
12.0
100
AcDbArc
 50
270.0
 51
283.7333616644565
  0
LINE
  5
1205
330
11FE
100
AcDbEntity
  8
0
100
AcDbLine
 10
11.45835670304612
 20
0.0
 30
0.0
 11
-11.45835670304614
 21
0.0
 31
0.0
  0
SPLINE
  5
1206
330
11FE
100
AcDbEntity
  8
0
100
AcDbSpline
210
0.0
220
0.0
230
1.0
 70
     8
 71
     3
 72
    46
 73
    42
 74
     0
 42
0.000000001
 43
0.0000000001
 40
-0.2592991763776788
 40
-0.2592991763776788
 40
-0.2592991763776788
 40
-0.2592991763776788
 40
-0.2468530279347168
 40
-0.2468530279347168
 40
-0.2037637949095876
 40
-0.2037637949095876
 40
-0.1830758554598121
 40
-0.1830758554598121
 40
-0.1721107978257314
 40
-0.1721107978257314
 40
-0.1610371243918488
 40
-0.1610371243918488
 40
-0.1470361802389564
 40
-0.1470361802389564
 40
-0.1309649306748254
 40
-0.1309649306748254
 40
-0.1198864452166374
 40
-0.1198864452166374
 40
-0.1103753239881512
 40
-0.1103753239881512
 40
-0.1000782295827683
 40
-0.1000782295827683
 40
-0.0867193038518869
 40
-0.0867193038518869
 40
-0.071265709448369
 40
-0.071265709448369
 40
-0.0591031784215129
 40
-0.0591031784215129
 40
-0.0512440545187868
 40
-0.0512440545187868
 40
-0.0445948928839704
 40
-0.0445948928839704
 40
-0.0410270324515278
 40
-0.0410270324515278
 40
-0.0331485901606337
 40
-0.0331485901606337
 40
-0.0301508697831694
 40
-0.0301508697831694
 40
-0.027669673458023
 40
-0.027669673458023
 40
-0.0266795096731947
 40
-0.0266795096731947
 40
-0.0266795096731947
 40
-0.0266795096731947
 10
1.217251120015017
 20
62.54164329695385
 30
0.0
 10
1.220628586161081
 20
62.54757760799137
 30
0.0
 10
1.222856358495772
 20
62.55396012402151
 30
0.0
 10
1.227778252736168
 20
62.5844257936378
 30
0.0
 10
1.214883718312841
 20
62.59308965014182
 30
0.0
 10
1.222925202353029
 20
62.64820029278439
 30
0.0
 10
1.228558088705485
 20
62.66421640521445
 30
0.0
 10
1.231485116728096
 20
62.73394029876701
 30
0.0
 10
1.232343821776502
 20
62.78197341899953
 30
0.0
 10
1.218222003110712
 20
62.90575370837871
 30
0.0
 10
1.202113542685718
 20
62.99488589351349
 30
0.0
 10
1.109273618059872
 20
63.23524536125696
 30
0.0
 10
1.031754235120784
 20
63.35916811164796
 30
0.0
 10
0.8236908756853992
 20
63.58912879315623
 30
0.0
 10
0.6883276650337907
 20
63.68839576721057
 30
0.0
 10
0.4344467780462632
 20
63.80695950681888
 30
0.0
 10
0.3247109181210383
 20
63.84108333424793
 30
0.0
 10
0.1150966213824624
 20
63.87641520261709
 30
0.0
 10
0.0166624504434
 20
63.8814880131051
 30
0.0
 10
-0.1874168585972492
 20
63.86847848301684
 30
0.0
 10
-0.2922986393013551
 20
63.84849181844912
 30
0.0
 10
-0.524604705818872
 20
63.77317584095139
 30
0.0
 10
-0.6481313999876701
 20
63.70953413762389
 30
0.0
 10
-0.8863391982139203
 20
63.53164932523316
 30
0.0
 10
-0.9946208352343468
 20
63.41248864652542
 30
0.0
 10
-1.139835910920515
 20
63.16829640616582
 30
0.0
 10
-1.186894431246205
 20
63.05003894436914
 30
0.0
 10
-1.227189391137993
 20
62.84865338549278
 30
0.0
 10
-1.229604331527347
 20
62.78763140095855
 30
0.0
 10
-1.230352256857172
 20
62.72851538796018
 30
0.0
 10
-1.22979342613646
 20
62.69720349246199
 30
0.0
 10
-1.224303335678482
 20
62.65624281998092
 30
0.0
 10
-1.221602351575097
 20
62.6439656090886
 30
0.0
 10
-1.216450033538942
 20
62.61048744607517
 30
0.0
 10
-1.219671239172555
 20
62.60551315902173
 30
0.0
 10
-1.223469854260512
 20
62.58145608305422
 30
0.0
 10
-1.224261723617978
 20
62.57422031761844
 30
0.0
 10
-1.223269368129023
 20
62.56024921601341
 30
0.0
 10
-1.221941560938001
 20
62.55418333711329
 30
0.0
 10
-1.218631117291205
 20
62.54602687635678
 30
0.0
 10
-1.217541885830981
 20
62.54379058147275
 30
0.0
 10
-1.21631902181583
 20
62.54164329695385
 30
0.0
  0
SPLINE
  5
1207
330
11FE
100
AcDbEntity
  8
0
100
AcDbSpline
210
0.0
220
0.0
230
1.0
 70
     8
 71
     3
 72
     8
 73
     4
 74
     0
 42
0.000000001
 43
0.0000000001
 40
-0.0017340834574355
 40
-0.0017340834574355
 40
-0.0017340834574355
 40
-0.0017340834574355
 40
0.0
 40
0.0
 40
0.0
 40
0.0
 10
-1.232835657783598
 20
62.538064675767
 30
0.0
 10
-1.227346643335458
 20
62.53936648683114
 30
0.0
 10
-1.221852033456868
 20
62.54055152869352
 30
0.0
 10
-1.216319021815807
 20
62.54164329695385
 30
0.0
  0
SPLINE
  5
1208
330
11FE
100
AcDbEntity
  8
0
100
AcDbSpline
210
0.0
220
0.0
230
1.0
 70
     8
 71
     3
 72
     8
 73
     4
 74
     0
 42
0.000000001
 43
0.0000000001
 40
-0.0017850714435532
 40
-0.0017850714435532
 40
-0.0017850714435532
 40
-0.0017850714435532
 40
-0.000039439813306
 40
-0.000039439813306
 40
-0.000039439813306
 40
-0.000039439813306
 10
1.21725112001507
 20
62.54164329695385
 30
0.0
 10
1.222819242800358
 20
62.54051372345434
 30
0.0
 10
1.228347959141573
 20
62.53928950092344
 30
0.0
 10
1.233870191368761
 20
62.53794663625898
 30
0.0
  0
SPLINE
  5
1209
330
11FE
100
AcDbEntity
  8
0
100
AcDbSpline
210
0.0
220
0.0
230
1.0
 70
     8
 71
     3
 72
     8
 73
     4
 74
     0
 42
0.000000001
 43
0.0000000001
 40
-0.0017708114546717
 40
-0.0017708114546717
 40
-0.0017708114546717
 40
-0.0017708114546717
 40
-0.0000377814596489
 40
-0.0000377814596489
 40
-0.0000377814596489
 40
-0.0000377814596489
 10
-1.216319021815886
 20
2.14989461742018
 30
0.0
 10
-1.221852033459762
 20
2.14862755774605
 30
0.0
 10
-1.227346643336801
 20
2.147377171896367
 30
0.0
 10
-1.232835657783673
 20
2.146137267420104
 30
0.0
  0
SPLINE
  5
120A
330
11FE
100
AcDbEntity
  8
0
100
AcDbSpline
210
0.0
220
0.0
230
1.0
 70
     8
 71
     3
 72
    48
 73
    44
 74
     0
 42
0.000000001
 43
0.0000000001
 40
0.0277647663546801
 40
0.0277647663546801
 40
0.0277647663546801
 40
0.0277647663546801
 40
0.029115140853301
 40
0.029115140853301
 40
0.0316640233763378
 40
0.0316640233763378
 40
0.0348258782497011
 40
0.0348258782497011
 40
0.0432684488778281
 40
0.0432684488778281
 40
0.0516731507151774
 40
0.0516731507151774
 40
0.0599931381859512
 40
0.0599931381859512
 40
0.0762312074150431
 40
0.0762312074150431
 40
0.0996030251896246
 40
0.0996030251896246
 40
0.1200200612174072
 40
0.1200200612174072
 40
0.1352673437508837
 40
0.1352673437508837
 40
0.1497102676707069
 40
0.1497102676707069
 40
0.1664578627171286
 40
0.1664578627171286
 40
0.1897553463344046
 40
0.1897553463344046
 40
0.2106486404575544
 40
0.2106486404575544
 40
0.2246654600949683
 40
0.2246654600949683
 40
0.2336605985701789
 40
0.2336605985701789
 40
0.2370464019934272
 40
0.2370464019934272
 40
0.2428367363769095
 40
0.2428367363769095
 40
0.2535780459552311
 40
0.2535780459552311
 40
0.2569055123678468
 40
0.2569055123678468
 40
0.2581025290737175
 40
0.2581025290737175
 40
0.2581025290737175
 40
0.2581025290737175
 10
1.217251120015103
 20
2.149666821304316
 30
0.0
 10
1.218870192910207
 20
2.149271134973087
 30
0.0
 10
1.220248253161938
 20
2.148931919834927
 30
0.0
 10
1.223470112583007
 20
2.148128290251384
 30
0.0
 10
1.224529823859014
 20
2.147847974639259
 30
0.0
 10
1.225002668573737
 20
2.147655119952335
 30
0.0
 10
1.223934827038066
 20
2.147857116599917
 30
0.0
 10
1.219516294034045
 20
2.148691060882029
 30
0.0
 10
1.219688244823865
 20
2.148354327123435
 30
0.0
 10
1.226524859982366
 20
2.14594164344534
 30
0.0
 10
1.230439054158783
 20
2.144566648268529
 30
0.0
 10
1.231608431488093
 20
2.141022571553441
 30
0.0
 10
1.229208779560993
 20
2.139004705847241
 30
0.0
 10
1.192890481784907
 20
2.133126760541312
 30
0.0
 10
1.142957852059547
 20
2.130919518540662
 30
0.0
 10
1.009382400765113
 20
2.126755938994445
 30
0.0
 10
0.9029186355224585
 20
2.125066898019723
 30
0.0
 10
0.6662396096111476
 20
2.122667578842582
 30
0.0
 10
0.5421319736130723
 20
2.121887363551151
 30
0.0
 10
0.310952958973443
 20
2.120978995631976
 30
0.0
 10
0.2083513285971501
 20
2.120743513134501
 30
0.0
 10
0.005754013301329
 20
2.120558840237521
 30
0.0
 10
-0.0934513168814742
 20
2.120594097059165
 30
0.0
 10
-0.3046102908030735
 20
2.120938098954191
 30
0.0
 10
-0.4152330213383579
 20
2.121286533481452
 30
0.0
 10
-0.6654890549412304
 20
2.122572432289656
 30
0.0
 10
-0.7977009123053801
 20
2.123662712701667
 30
0.0
 10
-1.00737271495354
 20
2.126802237989715
 30
0.0
 10
-1.088172585986586
 20
2.128703062892114
 30
0.0
 10
-1.182179341295953
 20
2.133184033886014
 30
0.0
 10
-1.208817970721658
 20
2.135336388974086
 30
0.0
 10
-1.2300379932069
 20
2.140074546111934
 30
0.0
 10
-1.230741792717827
 20
2.141875734620232
 30
0.0
 10
-1.229454327398973
 20
2.143970685632594
 30
0.0
 10
-1.228705305576822
 20
2.144629512000895
 30
0.0
 10
-1.224578575762153
 20
2.146663847260052
 30
0.0
 10
-1.22045842303975
 20
2.147934176726505
 30
0.0
 10
-1.216436497803876
 20
2.149577318890606
 30
0.0
 10
-1.224354448167643
 20
2.147739328060279
 30
0.0
 10
-1.223723947724543
 20
2.148040291056755
 30
0.0
 10
-1.222766564951327
 20
2.14830193612408
 30
0.0
 10
-1.218905994502418
 20
2.149260622552778
 30
0.0
 10
-1.217698158348232
 20
2.149557569300605
 30
0.0
 10
-1.216319021815805
 20
2.149894617420199
 30
0.0
  0
SPLINE
  5
120B
330
11FE
100
AcDbEntity
  8
0
100
AcDbSpline
210
0.0
220
0.0
230
1.0
 70
     8
 71
     3
 72
     8
 73
     4
 74
     0
 42
0.000000001
 43
0.0000000001
 40
-0.0017467027182663
 40
-0.0017467027182663
 40
-0.0017467027182663
 40
-0.0017467027182663
 40
0.0
 40
0.0
 40
0.0
 40
0.0
 10
1.23387019136879
 20
2.145893645618783
 30
0.0
 10
1.228347959142045
 20
2.147138465491411
 30
0.0
 10
1.222819242801376
 20
2.148394129942809
 30
0.0
 10
1.217251120015133
 20
2.149666821304308
 30
0.0
  0
LINE
  5
120C
330
11FE
100
AcDbEntity
  8
0
100
AcDbLine
 10
1.217251120015017
 20
62.54164329695385
 30
0.0
 11
7.638099923841772
 21
62.54164329695385
 31
0.0
  0
LINE
  5
120D
330
11FE
100
AcDbEntity
  8
0
100
AcDbLine
 10
7.638099923841772
 20
62.54164329695385
 30
0.0
 11
8.609510975192716
 21
62.54164329695385
 31
0.0
  0
LINE
  5
120E
330
11FE
100
AcDbEntity
  8
0
100
AcDbLine
 10
-8.609510975192709
 20
62.54164329695385
 30
0.0
 11
-7.638099923841767
 21
62.54164329695385
 31
0.0
  0
LINE
  5
120F
330
11FE
100
AcDbEntity
  8
0
100
AcDbLine
 10
-7.638099923841767
 20
62.54164329695385
 30
0.0
 11
-1.21631902181583
 21
62.54164329695385
 31
0.0
  0
LINE
  5
1210
330
11FE
100
AcDbEntity
  8
0
100
AcDbLine
 10
-7.638099923841781
 20
0.5804711944431329
 30
0.0
 11
-1.216319021815804
 21
2.149894617420199
 31
0.0
  0
LINE
  5
1211
330
11FE
100
AcDbEntity
  8
0
100
AcDbLine
 10
-8.609510975192723
 20
0.3430673837886813
 30
0.0
 11
-7.638099923841781
 21
0.5804711944431329
 31
0.0
  0
LINE
  5
1212
330
11FE
100
AcDbEntity
  8
0
100
AcDbLine
 10
7.638099923841758
 20
0.5804711944431304
 30
0.0
 11
8.609510975192701
 21
0.3430673837886786
 31
0.0
  0
LINE
  5
1213
330
11FE
100
AcDbEntity
  8
0
100
AcDbLine
 10
1.217251120015103
 20
2.149666821304316
 30
0.0
 11
7.638099923841758
 21
0.5804711944431304
 31
0.0
  0
SPLINE
  5
1214
330
11FE
100
AcDbEntity
  8
0
100
AcDbSpline
210
0.0
220
0.0
230
1.0
 70
     8
 71
     3
 72
     8
 73
     4
 74
     0
 42
0.000000001
 43
0.0000000001
 40
0.0
 40
0.0
 40
0.0
 40
0.0
 40
0.0031563972752372
 40
0.0031563972752372
 40
0.0031563972752372
 40
0.0031563972752372
 10
-1.232586172349041
 20
62.50633527773103
 30
0.0
 10
-1.232443660750917
 20
62.51682631561767
 30
0.0
 10
-1.232486165533357
 20
62.52756837790329
 30
0.0
 10
-1.232835657783597
 20
62.53806467576698
 30
0.0
  0
LINE
  5
1215
330
11FE
100
AcDbEntity
  8
0
100
AcDbLine
 10
-1.23258617234896
 20
62.50633527773082
 30
0.0
 11
-1.23211633174704
 21
62.50631039318491
 31
0.0
  0
SPLINE
  5
1216
330
11FE
100
AcDbEntity
  8
0
100
AcDbSpline
210
0.0
220
0.0
230
1.0
 70
     8
 71
     3
 72
     8
 73
     4
 74
     0
 42
0.000000001
 43
0.0000000001
 40
-3.141592653589793
 40
-3.141592653589793
 40
-3.141592653589793
 40
-3.141592653589793
 40
-3.13120864164432
 40
-3.13120864164432
 40
-3.13120864164432
 40
-3.13120864164432
 10
-1.232116331747123
 20
62.50631039318512
 30
0.0
 10
-1.232124353402573
 20
62.51795681772387
 30
0.0
 10
-1.232371157694585
 20
62.52849952268583
 30
0.0
 10
-1.232835657783598
 20
62.538064675767
 30
0.0
  0
SPLINE
  5
1217
330
11FE
100
AcDbEntity
  8
0
100
AcDbSpline
210
0.0
220
0.0
230
1.0
 70
     8
 71
     3
 72
     8
 73
     4
 74
     0
 42
0.000000001
 43
0.0000000001
 40
0.0
 40
0.0
 40
0.0
 40
0.0
 40
0.0033425247357878
 40
0.0033425247357878
 40
0.0033425247357878
 40
0.0033425247357878
 10
1.233870191368761
 20
62.53794663625898
 30
0.0
 10
1.23335683386144
 20
62.52686086606313
 30
0.0
 10
1.233176013323809
 20
62.51550459658833
 30
0.0
 10
1.23320430196446
 20
62.50441225019013
 30
0.0
  0
SPLINE
  5
1218
330
11FE
100
AcDbEntity
  8
0
100
AcDbSpline
210
0.0
220
0.0
230
1.0
 70
     8
 71
     3
 72
     8
 73
     4
 74
     0
 42
0.000000001
 43
0.0000000001
 40
-0.0105826998531063
 40
-0.0105826998531063
 40
-0.0105826998531063
 40
-0.0105826998531063
 40
0.0
 40
0.0
 40
0.0
 40
0.0
 10
1.233870191368761
 20
62.53794663625898
 30
0.0
 10
1.233250660769602
 20
62.52788140800321
 30
0.0
 10
1.232852836985603
 20
62.51671984398504
 30
0.0
 10
1.232709696709081
 20
62.50438460162037
 30
0.0
  0
LINE
  5
1219
330
11FE
100
AcDbEntity
  8
0
100
AcDbLine
 10
1.233204301963584
 20
62.50441225019035
 30
0.0
 11
1.232709696708204
 21
62.50438460162059
 31
0.0
  0
SPLINE
  5
121A
330
11FE
100
AcDbEntity
  8
0
100
AcDbSpline
210
0.0
220
0.0
230
1.0
 70
     8
 71
     3
 72
    29
 73
    25
 74
     0
 42
0.000000001
 43
0.0000000001
 40
-3.141592653589793
 40
-3.141592653589793
 40
-3.141592653589793
 40
-3.141592653589793
 40
-3.126611879939046
 40
-3.126611879939046
 40
-3.126611879939046
 40
-3.081736155836066
 40
-3.081736155836066
 40
-3.081736155836066
 40
-2.871972026300994
 40
-2.871972026300994
 40
-2.871972026300994
 40
-2.767089961533459
 40
-2.767089961533459
 40
-2.767089961533459
 40
-2.714648929149691
 40
-2.714648929149691
 40
-2.714648929149691
 40
-2.688428412957807
 40
-2.688428412957807
 40
-2.688428412957807
 40
-2.675318154861865
 40
-2.675318154861865
 40
-2.675318154861865
 40
-2.662207896765923
 40
-2.662207896765923
 40
-2.662207896765923
 40
-2.662207896765923
 10
1.232709696709145
 20
62.50438460162071
 30
0.0
 10
1.149453932693115
 20
62.50329224581296
 30
0.0
 10
1.123595230490418
 20
62.49614557152558
 30
0.0
 10
1.104591963043493
 20
62.4886516862021
 30
0.0
 10
1.047666639499811
 20
62.46620334420888
 30
0.0
 10
0.9684089950335916
 20
62.45040829287335
 30
0.0
 10
0.8942812155783862
 20
62.43994130462155
 30
0.0
 10
0.547783204847545
 20
62.39101510402249
 30
0.0
 10
0.1999857477463987
 20
62.38976142743795
 30
0.0
 10
-0.149729458603878
 20
62.39553219586377
 30
0.0
 10
-0.3245870617790156
 20
62.39841758007668
 30
0.0
 10
-0.4988824815039509
 20
62.40482724998124
 30
0.0
 10
-0.6726425869244168
 20
62.41788142117773
 30
0.0
 10
-0.7595226396346496
 20
62.42440850677597
 30
0.0
 10
-0.8445035650632835
 20
62.43251696684215
 30
0.0
 10
-0.9313979199488278
 20
62.44632136148919
 30
0.0
 10
-0.9748450973916007
 20
62.45322355881272
 30
0.0
 10
-1.019734270510844
 20
62.46143869331863
 30
0.0
 10
-1.062296325126847
 20
62.47338079745619
 30
0.0
 10
-1.083577352434849
 20
62.47935184952496
 30
0.0
 10
-1.093232075879424
 20
62.48687786984909
 30
0.0
 10
-1.112351093124546
 20
62.49364336017368
 30
0.0
 10
-1.131470110369668
 20
62.50040885049827
 30
0.0
 10
-1.159795499807571
 20
62.50612021136888
 30
0.0
 10
-1.232116331746966
 20
62.50631039318492
 30
0.0
  0
SPLINE
  5
121B
330
11FE
100
AcDbEntity
  8
0
100
AcDbSpline
210
0.0
220
0.0
230
1.0
 70
     8
 71
     3
 72
     8
 73
     4
 74
     0
 42
0.000000001
 43
0.0000000001
 40
-0.0002292908112218
 40
-0.0002292908112218
 40
-0.0002292908112218
 40
-0.0002292908112218
 40
0.0
 40
0.0
 40
0.0
 40
0.0
 10
1.188155067230738
 20
62.50294852559325
 30
0.0
 10
1.187411338379903
 20
62.50290631107356
 30
0.0
 10
1.18666918672671
 20
62.50286306281141
 30
0.0
 10
1.18592877878846
 20
62.50281875917097
 30
0.0
  0
SPLINE
  5
121C
330
11FE
100
AcDbEntity
  8
0
100
AcDbSpline
210
0.0
220
0.0
230
1.0
 70
     8
 71
     3
 72
     8
 73
     4
 74
     0
 42
0.000000001
 43
0.0000000001
 40
-0.0255678073919518
 40
-0.0255678073919518
 40
-0.0255678073919518
 40
-0.0255678073919518
 40
0.0
 40
0.0
 40
0.0
 40
0.0
 10
-0.9433178592925026
 20
62.44862506032129
 30
0.0
 10
-1.025270247570438
 20
62.46490079897725
 30
0.0
 10
-1.103386980128739
 20
62.50095030079744
 30
0.0
 10
-1.185996125222697
 20
62.50521832248232
 30
0.0
  0
LINE
  5
121D
330
11FE
100
AcDbEntity
  8
0
100
AcDbLine
 10
-0.9418990993376327
 20
62.44803063177323
 30
0.0
 11
-0.9433887156865678
 21
62.44827904768368
 31
0.0
  0
LINE
  5
121E
330
11FE
100
AcDbEntity
  8
0
100
AcDbLine
 10
0.9444312487592929
 20
62.4475825212442
 30
0.0
 11
0.9429252422211186
 21
62.44733127688602
 31
0.0
  0
LINE
  5
121F
330
11FE
100
AcDbEntity
  8
0
100
AcDbLine
 10
-6.422055326907898
 20
19.1899837234175
 30
0.0
 11
-11.45835670304612
 21
19.18998372341757
 31
0.0
  0
LINE
  5
1220
330
11FE
100
AcDbEntity
  8
0
100
AcDbLine
 10
-11.45835670304614
 20
19.18998372341755
 30
0.0
 11
-11.45835670304613
 21
62.54164329695386
 31
0.0
  0
LINE
  5
1221
330
11FE
100
AcDbEntity
  8
0
100
AcDbLine
 10
11.45835670304612
 20
19.18998372341744
 30
0.0
 11
6.422055326907889
 21
19.18998372341746
 31
0.0
  0
LINE
  5
1222
330
11FE
100
AcDbEntity
  8
0
100
AcDbLine
 10
11.45835670304613
 20
62.54164329695385
 30
0.0
 11
11.45835670304613
 21
19.18998372341744
 31
0.0
  0
SPLINE
  5
1223
330
11FE
100
AcDbEntity
  8
0
100
AcDbSpline
210
0.0
220
0.0
230
1.0
 70
     8
 71
     3
 72
    12
 73
     8
 74
     0
 42
0.000000001
 43
0.0000000001
 40
-0.6161541286377308
 40
-0.6161541286377308
 40
-0.6161541286377308
 40
-0.6161541286377308
 40
-0.4206774800647498
 40
-0.4206774800647498
 40
-0.224836357716693
 40
-0.224836357716693
 40
0.0
 40
0.0
 40
0.0
 40
0.0
 10
6.422055326907885
 20
2.984765661960889
 30
0.0
 10
6.733410899953944
 20
2.4124967366616
 30
0.0
 10
7.140693992025218
 20
1.897980855733047
 30
0.0
 10
8.112097094772151
 20
1.027658480887491
 30
0.0
 10
8.669292234997953
 20
0.6786036255445543
 30
0.0
 10
9.966456907179541
 20
0.1461513590079966
 30
0.0
 10
10.70890217732381
 20
-0.0000000000000024
 30
0.0
 10
11.45835670304612
 20
-0.0000000000000025
 30
0.0
  0
SPLINE
  5
1224
330
11FE
100
AcDbEntity
  8
0
100
AcDbSpline
210
0.0
220
0.0
230
1.0
 70
     8
 71
     3
 72
    12
 73
     8
 74
     0
 42
0.000000001
 43
0.0000000001
 40
-0.6160519580019086
 40
-0.6160519580019086
 40
-0.6160519580019086
 40
-0.6160519580019086
 40
-0.4190152014420271
 40
-0.4190152014420271
 40
-0.2224891740133799
 40
-0.2224891740133799
 40
0.0
 40
0.0
 40
0.0
 40
0.0
 10
-11.45835670304613
 20
0.0000000000000025
 30
0.0
 10
-10.80145902537289
 20
0.0000000000000027
 30
0.0
 10
-10.14927080548508
 20
0.1122813790532996
 30
0.0
 10
-8.913007371796604
 20
0.551755190547352
 30
0.0
 10
-8.337742654628797
 20
0.8752012044230561
 30
0.0
 10
-7.254816304475109
 20
1.757470955168368
 30
0.0
 10
-6.776492432523129
 20
2.333313242040301
 30
0.0
 10
-6.4220553269079
 20
2.98476566196089
 30
0.0
  0
SPLINE
  5
1225
330
11FE
100
AcDbEntity
  8
0
100
AcDbSpline
210
0.0
220
0.0
230
1.0
 70
     8
 71
     3
 72
     8
 73
     4
 74
     0
 42
0.000000001
 43
0.0000000001
 40
-0.0105826998531296
 40
-0.0105826998531296
 40
-0.0105826998531296
 40
-0.0105826998531296
 40
0.0
 40
0.0
 40
0.0
 40
0.0
 10
1.23387019136879
 20
2.145893645618783
 30
0.0
 10
1.233250660769636
 20
2.14611646171527
 30
0.0
 10
1.232852836985642
 20
2.14631458765863
 30
0.0
 10
1.232709696709127
 20
2.146504345601348
 30
0.0
  0
SPLINE
  5
1226
330
11FE
100
AcDbEntity
  8
0
100
AcDbSpline
210
0.0
220
0.0
230
1.0
 70
     8
 71
     3
 72
    29
 73
    25
 74
     0
 42
0.000000001
 43
0.0000000001
 40
-3.141592653589793
 40
-3.141592653589793
 40
-3.141592653589793
 40
-3.141592653589793
 40
-3.126611879939046
 40
-3.126611879939046
 40
-3.126611879939046
 40
-3.081736155836113
 40
-3.081736155836113
 40
-3.081736155836113
 40
-2.871972026301018
 40
-2.871972026301018
 40
-2.871972026301018
 40
-2.76708996153347
 40
-2.76708996153347
 40
-2.76708996153347
 40
-2.714648929149697
 40
-2.714648929149697
 40
-2.714648929149697
 40
-2.68842841295781
 40
-2.68842841295781
 40
-2.68842841295781
 40
-2.675318154861867
 40
-2.675318154861867
 40
-2.675318154861867
 40
-2.662207896765923
 40
-2.662207896765923
 40
-2.662207896765923
 40
-2.662207896765923
 10
1.232709696709055
 20
2.146504345601365
 30
0.0
 10
1.149453932693089
 20
2.165491182234586
 30
0.0
 10
1.123595230490387
 20
2.172332196604862
 30
0.0
 10
1.104591963043475
 20
2.176877863881157
 30
0.0
 10
1.047666639499891
 20
2.190494658000774
 30
0.0
 10
0.968408995033673
 20
2.207278412382861
 30
0.0
 10
0.8942812155785849
 20
2.221125515397915
 30
0.0
 10
0.5477832048478917
 20
2.285851501854939
 30
0.0
 10
0.1999857477465702
 20
2.312070348734399
 30
0.0
 10
-0.1497294586037723
 20
2.301319227503346
 30
0.0
 10
-0.3245870617789443
 20
2.295943666887819
 30
0.0
 10
-0.4988824815038879
 20
2.281230886610606
 30
0.0
 10
-0.6726425869243737
 20
2.257129382875516
 30
0.0
 10
-0.7595226396346167
 20
2.24507863100797
 30
0.0
 10
-0.8445035650633414
 20
2.230924515763985
 30
0.0
 10
-0.9313979199488374
 20
2.214020965236917
 30
0.0
 10
-0.9748450973915854
 20
2.205569189973384
 30
0.0
 10
-1.019734270510821
 20
2.196092378415617
 30
0.0
 10
-1.06229632512686
 20
2.186630924034011
 30
0.0
 10
-1.083577352434878
 20
2.181900196843208
 30
0.0
 10
-1.093232075879426
 20
2.179578205839159
 30
0.0
 10
-1.112351093124547
 20
2.174983559404587
 30
0.0
 10
-1.131470110369668
 20
2.170388912970014
 30
0.0
 10
-1.1597954998076
 20
2.163114317836067
 30
0.0
 10
-1.232116331747056
 20
2.146615729612865
 30
0.0
  0
SPLINE
  5
1227
330
11FE
100
AcDbEntity
  8
0
100
AcDbSpline
210
0.0
220
0.0
230
1.0
 70
     8
 71
     3
 72
     8
 73
     4
 74
     0
 42
0.000000001
 43
0.0000000001
 40
-3.141592653589793
 40
-3.141592653589793
 40
-3.141592653589793
 40
-3.141592653589793
 40
-3.131208641644298
 40
-3.131208641644298
 40
-3.131208641644298
 40
-3.131208641644298
 10
-1.232116331747199
 20
2.14661572961283
 30
0.0
 10
-1.232124353402651
 20
2.146473199694851
 30
0.0
 10
-1.232371157694663
 20
2.146319104711928
 30
0.0
 10
-1.232835657783673
 20
2.146137267420104
 30
0.0
  0
SPLINE
  5
1228
330
11FE
100
AcDbEntity
  8
0
100
AcDbSpline
210
0.0
220
0.0
230
1.0
 70
     8
 71
     3
 72
     8
 73
     4
 74
     0
 42
0.000000001
 43
0.0000000001
 40
0.0
 40
0.0
 40
0.0
 40
0.0
 40
0.0033376986004857
 40
0.0033376986004857
 40
0.0033376986004857
 40
0.0033376986004857
 10
1.233204301964508
 20
2.148674740875446
 30
0.0
 10
1.23317601332385
 20
2.14781485360912
 30
0.0
 10
1.23335683386147
 20
2.146883967117974
 30
0.0
 10
1.233870191368788
 20
2.145893645618784
 30
0.0
  0
LINE
  5
1229
330
11FE
100
AcDbEntity
  8
0
100
AcDbLine
 10
1.233204301963674
 20
2.148674740875621
 30
0.0
 11
1.232709696708294
 21
2.146504345601533
 31
0.0
  0
SPLINE
  5
122A
330
11FE
100
AcDbEntity
  8
0
100
AcDbSpline
210
0.0
220
0.0
230
1.0
 70
     8
 71
     3
 72
     8
 73
     4
 74
     0
 42
0.000000001
 43
0.0000000001
 40
-0.004726716322304
 40
-0.004726716322304
 40
-0.004726716322304
 40
-0.004726716322304
 40
0.0
 40
0.0
 40
0.0
 40
0.0
 10
-1.232586172348976
 20
2.148675541963969
 30
0.0
 10
-1.21735101253269
 20
2.152401834906189
 30
0.0
 10
-1.201268064208379
 20
2.156354823623412
 30
0.0
 10
-1.185996125222712
 20
2.160147983292562
 30
0.0
  0
LINE
  5
122B
330
11FE
100
AcDbEntity
  8
0
100
AcDbLine
 10
-1.232586172349048
 20
2.148675541963951
 30
0.0
 11
-1.232116331747129
 21
2.146615729612848
 31
0.0
  0
SPLINE
  5
122C
330
11FE
100
AcDbEntity
  8
0
100
AcDbSpline
210
0.0
220
0.0
230
1.0
 70
     8
 71
     3
 72
     8
 73
     4
 74
     0
 42
0.000000001
 43
0.0000000001
 40
-0.0047895477951392
 40
-0.0047895477951392
 40
-0.0047895477951392
 40
-0.0047895477951392
 40
0.0
 40
0.0
 40
0.0
 40
0.0
 10
1.185928778788438
 20
2.160351891059952
 30
0.0
 10
1.20143234155367
 20
2.156491350325289
 30
0.0
 10
1.217700437572764
 20
2.152479495540159
 30
0.0
 10
1.233204301964438
 20
2.14867474087547
 30
0.0
  0
SPLINE
  5
122D
330
11FE
100
AcDbEntity
  8
0
100
AcDbSpline
210
0.0
220
0.0
230
1.0
 70
     8
 71
     3
 72
    26
 73
    22
 74
     0
 42
0.000000001
 43
0.0000000001
 40
-0.134407303877082
 40
-0.134407303877082
 40
-0.134407303877082
 40
-0.134407303877082
 40
-0.1332354431750417
 40
-0.1332354431750417
 40
-0.1312382191616709
 40
-0.1312382191616709
 40
-0.1281436375789576
 40
-0.1281436375789576
 40
-0.1208642826578873
 40
-0.1208642826578873
 40
-0.1058837679599797
 40
-0.1058837679599797
 40
-0.0690950562069721
 40
-0.0690950562069721
 40
-0.0365496636355192
 40
-0.0365496636355192
 40
-0.0279194417869233
 40
-0.0279194417869233
 40
-0.0115192243914309
 40
-0.0115192243914309
 40
0.0
 40
0.0
 40
0.0
 40
0.0
 10
-1.18599612522271
 20
2.160147983292561
 30
0.0
 10
-1.166312953101949
 20
2.165036780629918
 30
0.0
 10
-1.14854190386076
 20
2.169390863786069
 30
0.0
 10
-1.107361141579203
 20
2.179651535222126
 30
0.0
 10
-1.097251506238791
 20
2.182496690665173
 30
0.0
 10
-1.053769727773438
 20
2.193519407129985
 30
0.0
 10
-1.002449631485359
 20
2.205043979771677
 30
0.0
 10
-0.9071982322352345
 20
2.225440858064929
 30
0.0
 10
-0.8281480539183103
 20
2.240075899141182
 30
0.0
 10
-0.623303850355391
 20
2.273151301459394
 30
0.0
 10
-0.475671210489486
 20
2.290118604932476
 30
0.0
 10
0.0188649821162776
 20
2.324319969548401
 30
0.0
 10
0.3153068864921154
 20
2.306100667141288
 30
0.0
 10
0.7161759881534778
 20
2.261880081634676
 30
0.0
 10
0.8713914711654474
 20
2.233204583715306
 30
0.0
 10
1.003138331999188
 20
2.204962672245051
 30
0.0
 10
1.045021472048625
 20
2.195416594468685
 30
0.0
 10
1.085790572130777
 20
2.185763885562596
 30
0.0
 10
1.0942215850231
 20
2.183251184193698
 30
0.0
 10
1.128432449622381
 20
2.174560011987173
 30
0.0
 10
1.148731801131724
 20
2.169614307036499
 30
0.0
 10
1.185928778788436
 20
2.160351891059951
 30
0.0
  0
SPLINE
  5
122E
330
11FE
100
AcDbEntity
  8
0
100
AcDbSpline
210
0.0
220
0.0
230
1.0
 70
     8
 71
     3
 72
     8
 73
     4
 74
     0
 42
0.000000001
 43
0.0000000001
 40
0.0
 40
0.0
 40
0.0
 40
0.0
 40
0.003162292308731
 40
0.003162292308731
 40
0.003162292308731
 40
0.003162292308731
 10
-1.232835657783672
 20
2.146137267420105
 30
0.0
 10
-1.232486165533435
 20
2.147041549916285
 30
0.0
 10
-1.232443660750994
 20
2.147890635284344
 30
0.0
 10
-1.232586172349117
 20
2.148675541963927
 30
0.0
  0
LINE
  5
122F
330
11FE
100
AcDbEntity
  8
0
100
AcDbLine
 10
11.45835670304612
 20
0.0
 30
0.0
 11
14.25507959404899
 21
0.0
 31
0.0
  0
LINE
  5
1230
330
11FE
100
AcDbEntity
  8
0
100
AcDbLine
 10
-14.25507959404901
 20
0.0
 30
0.0
 11
-11.45835670304613
 21
0.0
 31
0.0
  0
LINE
  5
1231
330
11FE
100
AcDbEntity
  8
0
100
AcDbLine
 10
-43.08206632218529
 20
0.0
 30
0.0
 11
-14.25507959404901
 21
0.0
 31
0.0
  0
LINE
  5
1232
330
11FE
100
AcDbEntity
  8
0
100
AcDbLine
 10
14.25507959404899
 20
0.0
 30
0.0
 11
43.08206632218529
 21
0.0
 31
0.0
  0
LINE
  5
1233
330
11FE
100
AcDbEntity
  8
0
100
AcDbLine
 10
-43.08206632218529
 20
0.0
 30
0.0
 11
-45.0
 21
0.0
 31
0.0
  0
LINE
  5
1234
330
11FE
100
AcDbEntity
  8
0
100
AcDbLine
 10
43.08206632218155
 20
0.0
 30
0.0
 11
45.0
 21
0.0
 31
0.0
  0
LINE
  5
1235
330
11FE
100
AcDbEntity
  8
0
100
AcDbLine
 10
45.00000000000028
 20
2.999999999999989
 30
0.0
 11
43.08206632218883
 21
2.99999999999999
 31
0.0
  0
LINE
  5
1236
330
11FE
100
AcDbEntity
  8
0
100
AcDbLine
 10
-45.0
 20
3.00000000000001
 30
0.0
 11
-43.08206632218529
 21
3.000000000000009
 31
0.0
  0
ARC
  5
1237
330
11FE
100
AcDbEntity
  8
0
100
AcDbCircle
 10
-1929.176312035644
 20
95.00000000000042
 30
0.0
 40
1974.176312035644
100
AcDbArc
 50
357.4742135971096
 51
0.0
  0
LINE
  5
1238
330
11FE
100
AcDbEntity
  8
0
100
AcDbLine
 10
-44.99999999999999
 20
95.00000000000001
 30
0.0
 11
-43.08206632218577
 21
8.000000000000024
 31
0.0
  0
SPLINE
  5
1239
330
11FE
100
AcDbEntity
  8
0
100
AcDbSpline
210
0.0
220
0.0
230
1.0
 70
     8
 71
     3
 72
    11
 73
     7
 74
     0
 42
0.000000001
 43
0.0000000001
 40
0.0
 40
0.0
 40
0.0
 40
0.0
 40
0.9067919713980618
 40
0.9067919713980618
 40
0.9067919713980618
 40
1.0
 40
1.0
 40
1.0
 40
1.0
 10
43.08206632218557
 20
-0.0000000000000096
 30
0.0
 10
42.94978535688961
 20
0.0000000002064577
 30
0.0
 10
42.93744189684081
 20
3.076885716375882
 30
0.0
 10
43.04507535272702
 20
6.833447389333348
 30
0.0
 10
43.05613886293797
 20
7.219579731592761
 30
0.0
 10
43.06846932487462
 20
7.609824067119507
 30
0.0
 10
43.08206632218551
 20
7.999999999999864
 30
0.0
  0
SPLINE
  5
123A
330
11FE
100
AcDbEntity
  8
0
100
AcDbSpline
210
0.0
220
0.0
230
1.0
 70
     8
 71
     3
 72
    11
 73
     7
 74
     0
 42
0.000000001
 43
0.0000000001
 40
0.0
 40
0.0
 40
0.0
 40
0.0
 40
0.9086138718154085
 40
0.9086138718154085
 40
0.9086138718154085
 40
1.0
 40
1.0
 40
1.0
 40
1.0
 10
-43.08206632218567
 20
8.00000000000003
 30
0.0
 10
-43.01579295197599
 20
4.194623494269703
 30
0.0
 10
-43.00973478428526
 20
0.6266268093150823
 30
0.0
 10
-43.06389667773633
 20
0.0822640573714252
 30
0.0
 10
-43.06934414655799
 20
0.0275134028071876
 30
0.0
 10
-43.07540071109025
 20
0.0000000000208294
 30
0.0
 10
-43.08206632218527
 20
0.0000000000000096
 30
0.0
  0
SPLINE
  5
123B
330
11FE
100
AcDbEntity
  8
0
100
AcDbSpline
210
0.0
220
0.0
230
1.0
 70
     8
 71
     3
 72
    11
 73
     7
 74
     0
 42
0.000000001
 43
0.0000000001
 40
-1.0
 40
-1.0
 40
-1.0
 40
-1.0
 40
-0.9086138718154927
 40
-0.9086138718154927
 40
-0.9086138718154927
 40
-0.6443739148212125
 40
-0.6443739148212125
 40
-0.6443739148212125
 40
-0.6443739148212125
 10
-43.08206632218527
 20
3.000000000000009
 30
0.0
 10
-43.07540071109026
 20
3.000000000013022
 30
0.0
 10
-43.06934414655802
 20
3.017195876754464
 30
0.0
 10
-43.06389667773635
 20
3.05141503585705
 30
0.0
 10
-43.04814550241288
 20
3.150358598838422
 30
0.0
 10
-43.0374873947566
 20
3.409128180856831
 30
0.0
 10
-43.03192223526678
 20
3.784892791098616
 30
0.0
  0
LINE
  5
123C
330
11FE
100
AcDbEntity
  8
0
100
AcDbLine
 10
44.99999999999999
 20
2.99999999999999
 30
0.0
 11
44.99999999999999
 21
0.0
 31
0.0
  0
SPLINE
  5
123D
330
11FE
100
AcDbEntity
  8
0
100
AcDbSpline
210
0.0
220
0.0
230
1.0
 70
     8
 71
     3
 72
     8
 73
     4
 74
     0
 42
0.000000001
 43
0.0000000001
 40
-0.3556582329958258
 40
-0.3556582329958258
 40
-0.3556582329958258
 40
-0.3556582329958258
 40
0.0
 40
0.0
 40
0.0
 40
0.0
 10
42.98177175708379
 20
3.797090531415963
 30
0.0
 10
42.99675130944504
 20
3.295829707074742
 30
0.0
 10
43.03018362377172
 20
3.000000000050603
 30
0.0
 10
43.08206632218557
 20
2.999999999999991
 30
0.0
  0
LINE
  5
123E
330
11FE
100
AcDbEntity
  8
0
100
AcDbLine
 10
-45.0
 20
0.0
 30
0.0
 11
-45.0
 21
3.00000000000001
 31
0.0
  0
LINE
  5
123F
330
11FE
100
AcDbEntity
  8
0
100
AcDbLine
 10
35.00000000000001
 20
105.0
 30
0.0
 11
45.0
 21
95.0
 31
0.0
  0
LINE
  5
1240
330
11FE
100
AcDbEntity
  8
0
100
AcDbLine
 10
-44.99999999999999
 20
95.00000000000001
 30
0.0
 11
-35.0
 21
105.0
 31
0.0
  0
LINE
  5
1241
330
11FE
100
AcDbEntity
  8
0
100
AcDbLine
 10
-35.0
 20
105.0
 30
0.0
 11
35.00000000000001
 21
105.0
 31
0.0
  0
CIRCLE
  5
1242
330
11FE
100
AcDbEntity
  8
0
100
AcDbCircle
 10
-20.2914958617172
 20
17.50000000000002
 30
0.0
 40
2.5
  0
CIRCLE
  5
1243
330
11FE
100
AcDbEntity
  8
0
100
AcDbCircle
 10
-35.2914958617172
 20
17.50000000000003
 30
0.0
 40
2.5
  0
CIRCLE
  5
1244
330
11FE
100
AcDbEntity
  8
0
100
AcDbCircle
 10
-29.49999999999999
 20
95.0
 30
0.0
 40
2.5
  0
CIRCLE
  5
1245
330
11FE
100
AcDbEntity
  8
0
100
AcDbCircle
 10
-28.78353052265559
 20
62.5
 30
0.0
 40
2.5
  0
CIRCLE
  5
1246
330
11FE
100
AcDbEntity
  8
0
100
AcDbCircle
 10
-28.12217408203
 20
32.50000000000001
 30
0.0
 40
2.5
  0
CIRCLE
  5
1247
330
11FE
100
AcDbEntity
  8
0
100
AcDbCircle
 10
-20.9528523023428
 20
47.5
 30
0.0
 40
2.5
  0
CIRCLE
  5
1248
330
11FE
100
AcDbEntity
  8
0
100
AcDbCircle
 10
-21.61420874296839
 20
77.50000000000001
 30
0.0
 40
2.5
  0
CIRCLE
  5
1249
330
11FE
100
AcDbEntity
  8
0
100
AcDbCircle
 10
20.29149586171719
 20
17.50000000000001
 30
0.0
 40
2.5
  0
CIRCLE
  5
124A
330
11FE
100
AcDbEntity
  8
0
100
AcDbCircle
 10
35.29149586171719
 20
17.50000000000001
 30
0.0
 40
2.5
  0
CIRCLE
  5
124B
330
11FE
100
AcDbEntity
  8
0
100
AcDbCircle
 10
20.95285230234279
 20
47.49999999999999
 30
0.0
 40
2.5
  0
CIRCLE
  5
124C
330
11FE
100
AcDbEntity
  8
0
100
AcDbCircle
 10
28.12217408202999
 20
32.5
 30
0.0
 40
2.5
  0
CIRCLE
  5
124D
330
11FE
100
AcDbEntity
  8
0
100
AcDbCircle
 10
28.78353052265559
 20
62.5
 30
0.0
 40
2.5
  0
CIRCLE
  5
124E
330
11FE
100
AcDbEntity
  8
0
100
AcDbCircle
 10
29.50000000000001
 20
95.0
 30
0.0
 40
2.5
  0
CIRCLE
  5
124F
330
11FE
100
AcDbEntity
  8
0
100
AcDbCircle
 10
21.61420874296839
 20
77.49999999999999
 30
0.0
 40
2.5
  0
CIRCLE
  5
1250
330
11FE
100
AcDbEntity
  8
0
100
AcDbCircle
 10
0.0000000000000072
 20
85.0
 30
0.0
 40
5.5
  0
ENDBLK
  5
1200
330
11FE
100
AcDbEntity
  8
0
100
AcDbBlockEnd
  0
BLOCK
  5
1252
330
1251
100
AcDbEntity
  8
0
100
AcDbBlockBegin
  2
ABR105-ISO
 70
     0
 10
0.0
 20
0.0
 30
0.0
  3
ABR105-ISO
  1

  0
ELLIPSE
  5
1254
330
1251
100
AcDbEntity
  8
0
100
AcDbEllipse
 10
0.972103101920636
 20
-41.82832293400545
 30
0.0
 11
-4.499999999999536
 21
7.794228634060216
 31
0.0
210
0.0
220
0.0
230
1.0
 40
0.5773502691896259
 41
2.116502111780588
 42
2.356194490192587
  0
ELLIPSE
  5
1255
330
1251
100
AcDbEntity
  8
0
100
AcDbEllipse
 10
-7.130178624057617
 20
-44.28885261739281
 30
0.0
 11
-9.321722407156068
 21
0.0000000000005584
 31
0.0
210
0.0
220
0.0
230
1.0
 40
0.5773502691896258
 41
5.497787143782377
 42
8.639379797372173
  0
ELLIPSE
  5
1256
330
1251
100
AcDbEntity
  8
0
100
AcDbEllipse
 10
-15.23246035003587
 20
-32.472613862918
 30
0.0
 11
-4.499999999999539
 21
7.794228634060218
 31
0.0
210
0.0
220
0.0
230
1.0
 40
0.577350269189626
 41
2.356194490192649
 42
2.595886868604647
  0
ELLIPSE
  5
1257
330
1251
100
AcDbEntity
  8
0
100
AcDbEllipse
 10
-7.130178624057617
 20
-44.49893762681127
 30
0.0
 11
-11.45835670304613
 21
0.0000000000006861
 31
0.0
210
0.0
220
0.0
230
1.0
 40
0.577350269189626
 41
5.49778714378238
 42
8.639379797372173
  0
LINE
  5
1258
330
1251
100
AcDbEntity
  8
0
100
AcDbLine
 10
-0.5387254976189749
 20
-48.09442985429296
 30
0.0
 11
-2.81009987268193
 21
-46.14207381968856
 31
0.0
  0
LINE
  5
1259
330
1251
100
AcDbEntity
  8
0
100
AcDbLine
 10
-2.81009987268193
 20
-46.14207381968856
 30
0.0
 11
-5.787219868911295
 21
-43.58309532006597
 31
0.0
  0
SPLINE
  5
125A
330
1251
100
AcDbEntity
  8
0
100
AcDbSpline
210
0.0
220
0.0
230
1.0
 70
     8
 71
     3
 72
    17
 73
    13
 74
     0
 42
0.000000001
 43
0.0000000001
 40
-3.141592653589793
 40
-3.141592653589793
 40
-3.141592653589793
 40
-3.141592653589793
 40
-2.468556457995917
 40
-2.468556457995917
 40
-2.468556457995917
 40
-1.325974666077672
 40
-1.325974666077672
 40
-1.325974666077672
 40
-0.4425708088625762
 40
-0.4425708088625762
 40
-0.4425708088625762
 40
0.0
 40
0.0
 40
0.0
 40
0.0
 10
-8.473137379203938
 20
-42.03238012247739
 30
0.0
 10
-8.772605774472834
 20
-42.21016781044336
 30
0.0
 10
-8.968937897960547
 20
-42.44063484934494
 30
0.0
 10
-9.017140516479607
 20
-42.68490928944496
 30
0.0
 10
-9.098971827489643
 20
-43.09960248026666
 30
0.0
 10
-8.727940613957159
 20
-43.53290031192237
 30
0.0
 10
-8.107451091667332
 20
-43.747984279826
 30
0.0
 10
-7.627710524095245
 20
-43.91427960171468
 30
0.0
 10
-7.018760985862826
 20
-43.94879752690629
 30
0.0
 10
-6.492386853127696
 20
-43.83998062200761
 30
0.0
 10
-6.228682066481967
 20
-43.78546514165782
 30
0.0
 10
-5.98612400278526
 20
-43.70007429816275
 30
0.0
 10
-5.787219868911313
 20
-43.58309532006595
 30
0.0
  0
LINE
  5
125B
330
1251
100
AcDbEntity
  8
0
100
AcDbLine
 10
-8.473137379203938
 20
-42.03238012247738
 30
0.0
 11
-11.45025737543354
 21
-41.15367655963424
 31
0.0
  0
LINE
  5
125C
330
1251
100
AcDbEntity
  8
0
100
AcDbLine
 10
-11.45025737543354
 20
-41.15367655963424
 30
0.0
 11
-13.72163175049627
 21
-40.48327538049266
 31
0.0
  0
ELLIPSE
  5
125D
330
1251
100
AcDbEntity
  8
0
100
AcDbEllipse
 10
-7.130178624057617
 20
-49.15296813809931
 30
0.0
 11
-4.000000000000001
 21
6.928203230275511
 31
0.0
210
0.0
220
0.0
230
1.0
 40
0.5773502691896259
 41
5.258094765370202
 42
5.498594514979444
  0
ELLIPSE
  5
125E
330
1251
100
AcDbEntity
  8
0
100
AcDbEllipse
 10
-7.130178624057617
 20
-49.15296813809931
 30
0.0
 11
-4.000000000000002
 21
6.928203230275511
 31
0.0
210
0.0
220
0.0
230
1.0
 40
0.577350269189626
 41
5.498594514979445
 42
5.737479522194073
  0
SPLINE
  5
125F
330
1251
100
AcDbEntity
  8
0
100
AcDbSpline
210
0.0
220
0.0
230
1.0
 70
     8
 71
     3
 72
    12
 73
     8
 74
     0
 42
0.000000001
 43
0.0000000001
 40
-0.2922631889727876
 40
-0.2922631889727876
 40
-0.2922631889727876
 40
-0.2922631889727876
 40
-0.199503211011641
 40
-0.199503211011641
 40
-0.1065596249778136
 40
-0.1065596249778136
 40
0.0
 40
0.0
 40
0.0
 40
0.0
 10
29.93771007452651
 20
-29.34681394984448
 30
0.0
 10
30.04199977210653
 20
-29.62887079692262
 30
0.0
 10
30.17855702301659
 20
-29.90717191592322
 30
0.0
 10
30.50440153885962
 20
-30.43269395280579
 30
0.0
 10
30.69137579231171
 20
-30.67595857273023
 30
0.0
 10
31.12636446685661
 20
-31.13329374666324
 30
0.0
 10
31.37519211731726
 20
-31.3335419702552
 30
0.0
 10
31.62635556205895
 20
-31.47855125268741
 30
0.0
  0
SPLINE
  5
1260
330
1251
100
AcDbEntity
  8
0
100
AcDbSpline
210
0.0
220
0.0
230
1.0
 70
     8
 71
     2
 72
     6
 73
     3
 74
     0
 42
0.000000001
 43
0.0000000001
 40
0.0
 40
0.0
 40
0.0
 40
0.2674940484395318
 40
0.2674940484395318
 40
0.2674940484395318
 10
29.93771007452651
 20
-29.34681394984448
 30
0.0
 10
25.46564452366438
 20
-31.5513813966252
 30
0.0
 10
21.20539840654435
 20
-33.91798089783813
 30
0.0
  0
SPLINE
  5
1261
330
1251
100
AcDbEntity
  8
0
100
AcDbSpline
210
0.0
220
0.0
230
1.0
 70
     8
 71
     2
 72
     6
 73
     3
 74
     0
 42
0.000000001
 43
0.0000000001
 40
0.7957054975296791
 40
0.7957054975296791
 40
0.7957054975296791
 40
1.0
 40
1.0
 40
1.0
 10
5.206219503462472
 20
-43.89628150338691
 30
0.0
 10
2.271970841425394
 20
-45.94809977703078
 30
0.0
 10
-0.5387254976189749
 20
-48.09442985429296
 30
0.0
  0
LINE
  5
1262
330
1251
100
AcDbEntity
  8
0
100
AcDbLine
 10
31.62635556205895
 20
-31.47855125268741
 30
0.0
 11
0.972103101920636
 21
-49.176792162355
 31
0.0
  0
SPLINE
  5
1263
330
1251
100
AcDbEntity
  8
0
100
AcDbSpline
210
0.0
220
0.0
230
1.0
 70
    12
 71
     2
 72
     6
 73
     3
 74
     0
 42
0.000000001
 43
0.0000000001
 40
0.0
 40
0.0
 40
0.0
 40
0.4861246773374479
 40
0.4861246773374479
 40
0.4861246773374479
 10
28.47687588948052
 20
-25.3825015511419
 30
0.0
 41
1.0
 10
29.12095207215295
 20
-27.13784995511641
 30
0.0
 41
1.01305016807179
 10
29.93771007452651
 20
-29.34681394984448
 30
0.0
 41
1.012513441204975
  0
SPLINE
  5
1264
330
1251
100
AcDbEntity
  8
0
100
AcDbSpline
210
0.0
220
0.0
230
1.0
 70
     8
 71
     3
 72
    14
 73
    10
 74
     0
 42
0.000000001
 43
0.0000000001
 40
2.823336266648309
 40
2.823336266648309
 40
2.823336266648309
 40
2.823336266648309
 40
2.835097642081086
 40
2.835097642081086
 40
2.985123657943989
 40
2.985123657943989
 40
3.137253040612271
 40
3.137253040612271
 40
3.204116546606799
 40
3.204116546606799
 40
3.204116546606799
 40
3.204116546606799
 10
26.56683026737096
 20
-21.85059705187282
 30
0.0
 10
26.59198035255208
 20
-21.88444512233556
 30
0.0
 10
26.61702561205914
 20
-21.91844656344575
 30
0.0
 10
26.95957613461052
 20
-22.38834564899378
 30
0.0
 10
27.25400846159932
 20
-22.84982237591123
 30
0.0
 10
27.75177025741445
 20
-23.72535907902116
 30
0.0
 10
28.0003749760041
 20
-24.22067137863066
 30
0.0
 10
28.30888555468844
 20
-24.94256085876787
 30
0.0
 10
28.39675732158074
 20
-25.16414849901057
 30
0.0
 10
28.47687588948053
 20
-25.38250155114191
 30
0.0
  0
SPLINE
  5
1265
330
1251
100
AcDbEntity
  8
0
100
AcDbSpline
210
0.0
220
0.0
230
1.0
 70
     8
 71
     3
 72
    10
 73
     6
 74
     0
 42
0.000000001
 43
0.0000000001
 40
2.573816172548014
 40
2.573816172548014
 40
2.573816172548014
 40
2.573816172548014
 40
2.685071626218183
 40
2.685071626218183
 40
2.823336266648309
 40
2.823336266648309
 40
2.823336266648309
 40
2.823336266648309
 10
24.87575816836476
 20
-19.99929499827591
 30
0.0
 10
25.15108881500403
 20
-20.24112461059758
 30
0.0
 10
25.41693083218723
 20
-20.50079104291258
 30
0.0
 10
25.9578599878006
 20
-21.07964513963236
 30
0.0
 10
26.27092232343564
 20
-21.45297334338797
 30
0.0
 10
26.56683026737096
 20
-21.85059705187282
 30
0.0
  0
SPLINE
  5
1266
330
1251
100
AcDbEntity
  8
0
100
AcDbSpline
210
0.0
220
0.0
230
1.0
 70
     8
 71
     3
 72
    11
 73
     7
 74
     0
 42
0.000000001
 43
0.0000000001
 40
0.0
 40
0.0
 40
0.0
 40
0.0
 40
1.100170393726776
 40
2.198342416351016
 40
3.298578808622482
 40
4.40491956898733
 40
4.40491956898733
 40
4.40491956898733
 40
4.40491956898733
 10
24.87575816836476
 20
-19.99929499827591
 30
0.0
 10
22.36409869600124
 20
-22.2664694359946
 30
0.0
 10
17.31141291117042
 20
-26.65740449428561
 30
0.0
 10
9.660059128550573
 20
-32.79482213011721
 30
0.0
 10
1.951891354245742
 20
-38.46991874490253
 30
0.0
 10
-3.204746908600073
 20
-41.93161356991275
 30
0.0
 10
-5.787219868911295
 20
-43.58309532006597
 30
0.0
  0
SPLINE
  5
1267
330
1251
100
AcDbEntity
  8
0
100
AcDbSpline
210
0.0
220
0.0
230
1.0
 70
     8
 71
     3
 72
    14
 73
    10
 74
     0
 42
0.000000001
 43
0.0000000001
 40
2.211186435545556
 40
2.211186435545556
 40
2.211186435545556
 40
2.211186435545556
 40
2.246216142961086
 40
2.246216142961086
 40
2.392501304046785
 40
2.392501304046785
 40
2.538786465132484
 40
2.538786465132484
 40
2.573816172548014
 40
2.573816172548014
 40
2.573816172548014
 40
2.573816172548014
 10
22.17238950379655
 20
-18.43850437206868
 30
0.0
 10
22.25915178836114
 20
-18.46282567797981
 30
0.0
 10
22.34680531332415
 20
-18.48975326730159
 30
0.0
 10
22.80295850586038
 20
-18.64439789457072
 30
0.0
 10
23.17927640477844
 20
-18.82071670593251
 30
0.0
 10
23.86887126738287
 20
-19.21885448548896
 30
0.0
 10
24.24518916630094
 20
-19.4770701546096
 30
0.0
 10
24.70134235883717
 20
-19.84914586434547
 30
0.0
 10
24.78899588380019
 20
-19.92343184748931
 30
0.0
 10
24.87575816836476
 20
-19.99929499827591
 30
0.0
  0
SPLINE
  5
1268
330
1251
100
AcDbEntity
  8
0
100
AcDbSpline
210
0.0
220
0.0
230
1.0
 70
     8
 71
     3
 72
    11
 73
     7
 74
     0
 42
0.000000001
 43
0.0000000001
 40
0.0
 40
0.0
 40
0.0
 40
0.0
 40
1.100170393726775
 40
2.198342416351015
 40
3.29857880862248
 40
4.404919568987329
 40
4.404919568987329
 40
4.404919568987329
 40
4.404919568987329
 10
22.17238950379655
 20
-18.43850437206867
 30
0.0
 10
19.70870727581347
 20
-20.73337848474539
 30
0.0
 10
14.72895346864387
 20
-25.16642083997162
 30
0.0
 10
7.117003717006236
 20
-31.32658840369796
 30
0.0
 10
-0.6219579302765422
 20
-36.98390616763005
 30
0.0
 10
-5.845670877379598
 20
-40.40687540562855
 30
0.0
 10
-8.473137379203938
 20
-42.03238012247738
 30
0.0
  0
SPLINE
  5
1269
330
1251
100
AcDbEntity
  8
0
100
AcDbSpline
210
0.0
220
0.0
230
1.0
 70
     8
 71
     3
 72
    10
 73
     6
 74
     0
 42
0.000000001
 43
0.0000000001
 40
1.961666341445273
 40
1.961666341445273
 40
1.961666341445273
 40
1.961666341445273
 40
2.099930981875387
 40
2.099930981875387
 40
2.211186435545556
 40
2.211186435545556
 40
2.211186435545556
 40
2.211186435545556
 10
20.48131740479044
 20
-18.337124562505
 30
0.0
 10
20.77722534872574
 20
-18.28118591619297
 30
0.0
 10
21.09028768436076
 20
-18.26935095994141
 30
0.0
 10
21.6312168399741
 20
-18.31510805043341
 30
0.0
 10
21.8970588571573
 20
-18.36240953848369
 30
0.0
 10
22.17238950379655
 20
-18.43850437206868
 30
0.0
  0
SPLINE
  5
126A
330
1251
100
AcDbEntity
  8
0
100
AcDbSpline
210
0.0
220
0.0
230
1.0
 70
     8
 71
     3
 72
     8
 73
     4
 74
     0
 42
0.000000001
 43
0.0000000001
 40
1.717651753250361
 40
1.717651753250361
 40
1.717651753250361
 40
1.717651753250361
 40
1.719429908417604
 40
1.719429908417604
 40
1.719429908417604
 40
1.719429908417604
 10
19.1474728613003
 20
-18.98580541364778
 30
0.0
 10
19.15026652923303
 20
-18.98335526057019
 30
0.0
 10
19.15306285533288
 20
-18.98091205339628
 30
0.0
 10
19.15586178805169
 20
-18.97847580977793
 30
0.0
  0
SPLINE
  5
126B
330
1251
100
AcDbEntity
  8
0
100
AcDbSpline
210
0.0
220
0.0
230
1.0
 70
     8
 71
     3
 72
    12
 73
     8
 74
     0
 42
0.000000001
 43
0.0000000001
 40
1.719429908417604
 40
1.719429908417604
 40
1.719429908417604
 40
1.719429908417604
 40
1.799878950149582
 40
1.799878950149582
 40
1.949904966012485
 40
1.949904966012485
 40
1.961666341445273
 40
1.961666341445273
 40
1.961666341445273
 40
1.961666341445273
 10
19.1558617880517
 20
-18.97847580977793
 30
0.0
 10
19.28249384989258
 20
-18.86825288428028
 30
0.0
 10
19.41446147150223
 20
-18.77228385141692
 30
0.0
 10
19.794139210562
 20
-18.54286485570547
 30
0.0
 10
20.08857153755081
 20
-18.42136929527824
 30
0.0
 10
20.43112206010221
 20
-18.34701348254238
 30
0.0
 10
20.4561673196093
 20
-18.34193181606884
 30
0.0
 10
20.48131740479044
 20
-18.337124562505
 30
0.0
  0
SPLINE
  5
126C
330
1251
100
AcDbEntity
  8
0
100
AcDbSpline
210
0.0
220
0.0
230
1.0
 70
     8
 71
     2
 72
     6
 73
     3
 74
     0
 42
0.000000001
 43
0.0000000001
 40
0.3879607272914462
 40
0.3879607272914462
 40
0.3879607272914462
 40
1.0
 40
1.0
 40
1.0
 10
5.873738099956939
 20
-29.4213355061673
 30
0.0
 10
-3.352127102584461
 20
-35.17842810661058
 30
0.0
 10
-13.72163175049626
 20
-40.48327538049266
 30
0.0
  0
SPLINE
  5
126D
330
1251
100
AcDbEntity
  8
0
100
AcDbSpline
210
0.0
220
0.0
230
1.0
 70
     8
 71
     3
 72
     8
 73
     4
 74
     0
 42
0.000000001
 43
0.0000000001
 40
-0.2922165810144621
 40
-0.2922165810144621
 40
-0.2922165810144621
 40
-0.2922165810144621
 40
-0.2881339112307135
 40
-0.2881339112307135
 40
-0.2881339112307135
 40
-0.2881339112307135
 10
15.42179211010236
 20
-22.12284218159998
 30
0.0
 10
15.4314166109596
 20
-22.12839888976073
 30
0.0
 10
15.44103810729297
 20
-22.13387077030957
 30
0.0
 10
15.45065579820195
 20
-22.13925751094196
 30
0.0
  0
LINE
  5
126E
330
1251
100
AcDbEntity
  8
0
100
AcDbLine
 10
-15.23246035003587
 20
-39.82108309126754
 30
0.0
 11
15.42179211010236
 21
-22.12284218159998
 31
0.0
  0
SPLINE
  5
126F
330
1251
100
AcDbEntity
  8
0
100
AcDbSpline
210
0.0
220
0.0
230
1.0
 70
    12
 71
     2
 72
     6
 73
     3
 74
     0
 42
0.000000001
 43
0.0000000001
 40
0.4477172586826612
 40
0.4477172586826612
 40
0.4477172586826612
 40
0.9338418940812637
 40
0.9338418940812637
 40
0.9338418940812637
 10
40.38394143796415
 20
-11.25341048075098
 30
0.0
 41
1.012513431559619
 10
38.06254350129
 20
-11.6505592993166
 30
0.0
 41
1.01305016324753
 10
36.22032909962709
 20
-11.97044716513572
 30
0.0
 41
1.0
  0
SPLINE
  5
1270
330
1251
100
AcDbEntity
  8
0
100
AcDbSpline
210
0.0
220
0.0
230
1.0
 70
     8
 71
     3
 72
    12
 73
     8
 74
     0
 42
0.000000001
 43
0.0000000001
 40
-0.292216581014457
 40
-0.292216581014457
 40
-0.292216581014457
 40
-0.292216581014457
 40
-0.1987104694158054
 40
-0.1987104694158054
 40
-0.1053942641992154
 40
-0.1053942641992154
 40
0.0
 40
0.0
 40
0.0
 40
0.0
 10
43.07440284018725
 20
-11.64995171951858
 30
0.0
 10
42.85397118665975
 20
-11.52268544501656
 30
0.0
 10
42.59736823816425
 20
-11.41812253125758
 30
0.0
 10
42.03475898266638
 20
-11.26386752024353
 30
0.0
 10
41.73292428724086
 20
-11.21518145250892
 30
0.0
 10
41.07385651501814
 20
-11.17673418687699
 30
0.0
 10
40.72077845914244
 20
-11.19578381412193
 30
0.0
 10
40.38394143796415
 20
-11.253410480751
 30
0.0
  0
LINE
  5
1271
330
1251
100
AcDbEntity
  8
0
100
AcDbLine
 10
43.07440284018725
 20
23.74653009981663
 30
0.0
 11
43.07440284018725
 21
-11.64995171951858
 31
0.0
  0
SPLINE
  5
1272
330
1251
100
AcDbEntity
  8
0
100
AcDbSpline
210
0.0
220
0.0
230
1.0
 70
     8
 71
     2
 72
     6
 73
     3
 74
     0
 42
0.000000001
 43
0.0000000001
 40
0.0
 40
0.0
 40
0.0
 40
0.2674940484395318
 40
0.2674940484395318
 40
0.2674940484395318
 10
40.38394143796414
 20
-11.25341048075098
 30
0.0
 10
40.05712007580137
 20
-6.278204382924772
 30
0.0
 10
39.97653230587534
 20
-1.405423268518348
 30
0.0
  0
SPLINE
  5
1273
330
1251
100
AcDbEntity
  8
0
100
AcDbSpline
210
0.0
220
0.0
230
1.0
 70
     8
 71
     2
 72
     6
 73
     3
 74
     0
 42
0.000000001
 43
0.0000000001
 40
0.7957054975296789
 40
0.7957054975296789
 40
0.7957054975296789
 40
1.0
 40
1.0
 40
1.0
 10
40.6184046653373
 20
17.439422404017
 30
0.0
 10
40.92820708324347
 20
21.00646542318354
 30
0.0
 10
41.38163528553696
 20
24.51376489375098
 30
0.0
  0
SPLINE
  5
1274
330
1251
100
AcDbEntity
  8
0
100
AcDbSpline
210
0.0
220
0.0
230
1.0
 70
     8
 71
     3
 72
    11
 73
     7
 74
     0
 42
0.000000001
 43
0.0000000001
 40
0.0
 40
0.0
 40
0.0
 40
0.0
 40
1.100170393726776
 40
2.198342416351016
 40
3.298578808622482
 40
4.40491956898733
 40
4.40491956898733
 40
4.40491956898733
 40
4.40491956898733
 10
29.75777661046841
 20
-11.54339101306414
 30
0.0
 10
30.46537753216173
 20
-8.234642885482159
 30
0.0
 10
31.74169594659405
 20
-1.66342110933265
 30
0.0
 10
33.23117864154891
 20
8.031554457674094
 30
0.0
 10
34.29187259173166
 20
17.5445718742473
 30
0.0
 10
34.71146911891674
 20
23.74119902050375
 30
0.0
 10
34.8504577882802
 20
26.80342708379628
 30
0.0
  0
SPLINE
  5
1275
330
1251
100
AcDbEntity
  8
0
100
AcDbSpline
210
0.0
220
0.0
230
1.0
 70
     8
 71
     3
 72
    10
 73
     6
 74
     0
 42
0.000000001
 43
0.0000000001
 40
1.961666341445275
 40
1.961666341445275
 40
1.961666341445275
 40
1.961666341445275
 40
2.099930981875388
 40
2.099930981875388
 40
2.211186435545557
 40
2.211186435545557
 40
2.211186435545557
 40
2.211186435545557
 10
32.20658726846458
 20
-12.08225138363611
 30
0.0
 10
31.71428106380211
 20
-12.02479944124893
 30
0.0
 10
31.23443818758307
 20
-11.9403436074987
 30
0.0
 10
30.46267125693241
 20
-11.76131226544975
 30
0.0
 10
30.10487252144594
 20
-11.66091954133329
 30
0.0
 10
29.75777661046841
 20
-11.54339101306414
 30
0.0
  0
SPLINE
  5
1276
330
1251
100
AcDbEntity
  8
0
100
AcDbSpline
210
0.0
220
0.0
230
1.0
 70
     8
 71
     3
 72
    14
 73
    10
 74
     0
 42
0.000000001
 43
0.0000000001
 40
1.580886061486772
 40
1.580886061486772
 40
1.580886061486772
 40
1.580886061486772
 40
1.647749567481301
 40
1.647749567481301
 40
1.799878950149583
 40
1.799878950149583
 40
1.949904966012485
 40
1.949904966012485
 40
1.961666341445275
 40
1.961666341445275
 40
1.961666341445275
 40
1.961666341445275
 10
36.2203290996271
 20
-11.97044716513572
 30
0.0
 10
35.9911705255376
 20
-12.01023897608534
 30
0.0
 10
35.75533411647663
 20
-12.04493361380254
 30
0.0
 10
34.97590419861089
 20
-12.13870035539426
 30
0.0
 10
34.42264880504735
 20
-12.17105850339969
 30
0.0
 10
33.4155308803009
 20
-12.1777524947454
 30
0.0
 10
32.8686641480407
 20
-12.15350498333645
 30
0.0
 10
32.2904443414653
 20
-12.09179707150133
 30
0.0
 10
32.24847559994501
 20
-12.08710796107893
 30
0.0
 10
32.20658726846458
 20
-12.08225138363611
 30
0.0
  0
SPLINE
  5
1277
330
1251
100
AcDbEntity
  8
0
100
AcDbSpline
210
0.0
220
0.0
230
1.0
 70
     8
 71
     3
 72
    14
 73
    10
 74
     0
 42
0.000000001
 43
0.0000000001
 40
2.211186435545557
 40
2.211186435545557
 40
2.211186435545557
 40
2.211186435545557
 40
2.246216142961087
 40
2.246216142961087
 40
2.392501304046786
 40
2.392501304046786
 40
2.538786465132485
 40
2.538786465132485
 40
2.573816172548015
 40
2.573816172548015
 40
2.573816172548015
 40
2.573816172548015
 10
29.75777661046841
 20
-11.54339101306414
 30
0.0
 10
29.6486960523938
 20
-11.50618424593413
 30
0.0
 10
29.54053574136462
 20
-11.46741705815683
 30
0.0
 10
28.99023212833411
 20
-11.25841466027101
 30
0.0
 10
28.57845184976141
 20
-11.06162163446951
 30
0.0
 10
27.88885698715699
 20
-10.66348385491306
 30
0.0
 10
27.54800146789357
 20
-10.42574240023212
 30
0.0
 10
27.18599869585162
 20
-10.10802446111293
 30
0.0
 10
27.11885195695476
 20
-10.0455780764246
 30
0.0
 10
27.05440794590022
 20
-9.982600386856873
 30
0.0
  0
SPLINE
  5
1278
330
1251
100
AcDbEntity
  8
0
100
AcDbSpline
210
0.0
220
0.0
230
1.0
 70
     8
 71
     3
 72
    11
 73
     7
 74
     0
 42
0.000000001
 43
0.0000000001
 40
0.0
 40
0.0
 40
0.0
 40
0.0
 40
1.100170393726775
 40
2.198342416351015
 40
3.29857880862248
 40
4.404919568987329
 40
4.404919568987329
 40
4.404919568987329
 40
4.404919568987329
 10
27.05440794590022
 20
-9.982600386856873
 30
0.0
 10
27.80998611197399
 20
-6.701551934232925
 30
0.0
 10
29.1592365040675
 20
-0.1724374550186569
 30
0.0
 10
30.68812323000458
 20
9.49978818409335
 30
0.0
 10
31.71802330720937
 20
19.03058445151976
 30
0.0
 10
32.07054515013721
 20
25.26593718478793
 30
0.0
 10
32.16454027798756
 20
28.35414228138486
 30
0.0
  0
SPLINE
  5
1279
330
1251
100
AcDbEntity
  8
0
100
AcDbSpline
210
0.0
220
0.0
230
1.0
 70
     8
 71
     3
 72
    10
 73
     6
 74
     0
 42
0.000000001
 43
0.0000000001
 40
2.573816172548015
 40
2.573816172548015
 40
2.573816172548015
 40
2.573816172548015
 40
2.685071626218184
 40
2.685071626218184
 40
2.82333626664829
 40
2.82333626664829
 40
2.82333626664829
 40
2.82333626664829
 10
27.05440794590022
 20
-9.982600386856873
 30
0.0
 10
26.85084256359925
 20
-9.782204469219371
 30
0.0
 10
26.6769572647193
 20
-9.575629272970552
 30
0.0
 10
26.3668658841433
 20
-9.130049427807753
 30
0.0
 10
26.22058408909233
 20
-8.85301201405398
 30
0.0
 10
26.12107440588421
 20
-8.56877889426839
 30
0.0
  0
SPLINE
  5
127A
330
1251
100
AcDbEntity
  8
0
100
AcDbSpline
210
0.0
220
0.0
230
1.0
 70
     8
 71
     2
 72
     6
 73
     3
 74
     0
 42
0.000000001
 43
0.0000000001
 40
0.3881035628723046
 40
0.3881035628723046
 40
0.3881035628723046
 40
1.0
 40
1.0
 40
1.0
 10
28.41666699068929
 20
9.628934233824931
 30
0.0
 10
28.78921101745266
 20
20.4949560745084
 30
0.0
 10
28.19872903265968
 20
32.12491936755128
 30
0.0
  0
SPLINE
  5
127B
330
1251
100
AcDbEntity
  8
0
100
AcDbSpline
210
0.0
220
0.0
230
1.0
 70
     8
 71
     3
 72
    12
 73
     8
 74
     0
 42
0.000000001
 43
0.0000000001
 40
2.82333626664829
 40
2.82333626664829
 40
2.82333626664829
 40
2.82333626664829
 40
2.835097642081087
 40
2.835097642081087
 40
2.98512365794399
 40
2.98512365794399
 40
3.065572699675968
 40
3.065572699675968
 40
3.065572699675968
 40
3.065572699675968
 10
26.12107440588421
 20
-8.56877889426839
 30
0.0
 10
26.11266256700235
 20
-8.54459465481225
 30
0.0
 10
26.10454078950844
 20
-8.52036399059795
 30
0.0
 10
25.99765955098103
 20
-8.186528629620845
 30
0.0
 10
25.95566162926363
 20
-7.870794974539565
 30
0.0
 10
25.96450543813058
 20
-7.42727490940664
 30
0.0
 10
25.98163324776205
 20
-7.265003080183987
 30
0.0
 10
26.01377307040201
 20
-7.100225034947356
 30
0.0
  0
SPLINE
  5
127C
330
1251
100
AcDbEntity
  8
0
100
AcDbSpline
210
0.0
220
0.0
230
1.0
 70
     8
 71
     3
 72
     8
 73
     4
 74
     0
 42
0.000000001
 43
0.0000000001
 40
3.065572699675968
 40
3.065572699675968
 40
3.065572699675968
 40
3.065572699675968
 40
3.06735085484321
 40
3.06735085484321
 40
3.06735085484321
 40
3.06735085484321
 10
26.01377307040201
 20
-7.100225034947356
 30
0.0
 10
26.0144834529059
 20
-7.096582966300204
 30
0.0
 10
26.01520116933529
 20
-7.092939673273517
 30
0.0
 10
26.01592623017727
 20
-7.089295209335244
 30
0.0
  0
SPLINE
  5
127D
330
1251
100
AcDbEntity
  8
0
100
AcDbSpline
210
0.0
220
0.0
230
1.0
 70
     8
 71
     3
 72
     8
 73
     4
 74
     0
 42
0.000000001
 43
0.0000000001
 40
-0.0040876991038693
 40
-0.0040876991038693
 40
-0.0040876991038693
 40
-0.0040876991038693
 40
0.0
 40
0.0
 40
0.0
 40
0.0
 10
26.8985164798088
 20
-2.311049015878328
 30
0.0
 10
26.88903343470015
 20
-2.305407607192204
 30
0.0
 10
26.87947418741674
 20
-2.299805302334654
 30
0.0
 10
26.86983938823074
 20
-2.294242648431035
 30
0.0
  0
LINE
  5
127E
330
1251
100
AcDbEntity
  8
0
100
AcDbLine
 10
26.86983938823074
 20
-2.294242648431032
 30
0.0
 11
26.86983938823074
 21
33.10223917090409
 31
0.0
  0
SPLINE
  5
127F
330
1251
100
AcDbEntity
  8
0
100
AcDbSpline
210
0.0
220
0.0
230
1.0
 70
     8
 71
     3
 72
     8
 73
     4
 74
     0
 42
0.000000001
 43
0.0000000001
 40
0.0
 40
0.0
 40
0.0
 40
0.0
 40
2.291142493828944
 40
2.291142493828944
 40
2.291142493828944
 40
2.291142493828944
 10
5.206219503462481
 20
-43.8962815033869
 30
0.0
 10
10.3405966041527
 20
-40.30598975501784
 30
0.0
 10
15.63543044629832
 20
-37.01214096138897
 30
0.0
 10
21.20539840654436
 20
-33.91798089783813
 30
0.0
  0
SPLINE
  5
1280
330
1251
100
AcDbEntity
  8
0
100
AcDbSpline
210
0.0
220
0.0
230
1.0
 70
     8
 71
     3
 72
    26
 73
    22
 74
     0
 42
0.000000001
 43
0.0000000001
 40
1.428814218093146
 40
1.428814218093146
 40
1.428814218093146
 40
1.428814218093146
 40
1.42910718969742
 40
1.42910718969742
 40
1.432563428817708
 40
1.432563428817708
 40
1.436035953632274
 40
1.436035953632274
 40
1.439482823749338
 40
1.439482823749338
 40
1.446397265088397
 40
1.446397265088397
 40
1.474202594031164
 40
1.474202594031164
 40
1.697569212856642
 40
1.697569212856642
 40
1.915839837313392
 40
1.915839837313392
 40
2.570831137240001
 40
2.570831137240001
 40
3.378868191221156
 40
3.378868191221156
 40
3.378868191221156
 40
3.378868191221156
 10
4.865307980775099
 20
-30.09796826321873
 30
0.0
 10
4.865307981684061
 20
-30.09796826263058
 30
0.0
 10
4.86531781973877
 20
-30.09796189695562
 30
0.0
 10
4.865574008759137
 20
-30.09779609575841
 30
0.0
 10
4.867311064434991
 20
-30.09667194128305
 30
0.0
 10
4.874371699984116
 20
-30.09208983175869
 30
0.0
 10
4.879837068434742
 20
-30.08853914416301
 30
0.0
 10
4.893031687197799
 20
-30.07994996505157
 30
0.0
 10
4.900836508324397
 20
-30.07486236910958
 30
0.0
 10
4.925635671434878
 20
-30.05867133431719
 30
0.0
 10
4.944300817474935
 20
-30.04645259355397
 30
0.0
 10
5.038203348010275
 20
-29.98482636883487
 30
0.0
 10
5.117749920226604
 20
-29.93215556934373
 30
0.0
 10
5.812773786663005
 20
-29.46902122475238
 30
0.0
 10
6.401425840583261
 20
-29.05796592795865
 30
0.0
 10
7.495094689393253
 20
-28.2848047173145
 30
0.0
 10
8.034188921138465
 20
-27.89741366190004
 30
0.0
 10
10.19033087397392
 20
-26.32246018905058
 30
0.0
 10
11.79591768025979
 20
-25.09166763164652
 30
0.0
 10
15.3323460438032
 20
-22.26366048987031
 30
0.0
 10
17.25477344274992
 20
-20.64628324231164
 30
0.0
 10
19.14715682966891
 20
-18.98533322573895
 30
0.0
  0
SPLINE
  5
1281
330
1251
100
AcDbEntity
  8
0
100
AcDbSpline
210
0.0
220
0.0
230
1.0
 70
     8
 71
     3
 72
     8
 73
     4
 74
     0
 42
0.000000001
 43
0.0000000001
 40
0.0
 40
0.0
 40
0.0
 40
0.0
 40
2.291142493828946
 40
2.291142493828946
 40
2.291142493828946
 40
2.291142493828946
 10
39.97653230587535
 20
-1.405423268518348
 30
0.0
 10
39.87116954416263
 20
4.965390515095529
 30
0.0
 10
40.07630935459715
 20
11.19777552802565
 30
0.0
 10
40.6184046653373
 20
17.43942240401701
 30
0.0
  0
SPLINE
  5
1282
330
1251
100
AcDbEntity
  8
0
100
AcDbSpline
210
0.0
220
0.0
230
1.0
 70
     8
 71
     3
 72
    26
 73
    22
 74
     0
 42
0.000000001
 43
0.0000000001
 40
0.0
 40
0.0
 40
0.0
 40
0.0
 40
0.9793181037227354
 40
0.9793181037227354
 40
1.713848092546662
 40
1.713848092546662
 40
1.852008928177865
 40
1.852008928177865
 40
1.910416163321266
 40
1.910416163321266
 40
1.935071982203313
 40
1.935071982203313
 40
1.941248396497671
 40
1.941248396497671
 40
1.944333618283391
 40
1.944333618283391
 40
1.947436392223813
 40
1.947436392223813
 40
1.950533524007301
 40
1.950533524007301
 40
1.9507428759048
 40
1.9507428759048
 40
1.9507428759048
 40
1.9507428759048
 10
26.01535928763718
 20
-7.089257611868471
 30
0.0
 10
26.61193205200529
 20
-4.096502865921383
 30
0.0
 10
27.13126904613773
 20
-1.096595515473839
 30
0.0
 10
27.87049686979525
 20
4.14524189051141
 30
0.0
 10
28.12986700217454
 20
6.366258099846873
 30
0.0
 10
28.36833243556192
 20
9.029766861019435
 30
0.0
 10
28.40527747522168
 20
9.466588714859668
 30
0.0
 10
28.45250015963142
 20
10.105340760865
 30
0.0
 10
28.46590398505905
 20
10.29804241165863
 30
0.0
 10
28.48334339048447
 20
10.57411177754198
 30
0.0
 10
28.48848119766799
 20
10.65917035633659
 30
0.0
 10
28.49402719033557
 20
10.75711725794646
 30
0.0
 10
28.49510609826684
 20
10.77655127652266
 30
0.0
 10
28.49646801020132
 20
10.80158441273161
 30
0.0
 10
28.49688331830283
 20
10.80931511974738
 30
0.0
 10
28.49756171320572
 20
10.82207443682682
 30
0.0
 10
28.4978286139135
 20
10.82717365736853
 30
0.0
 10
28.49816904268474
 20
10.83373019890375
 30
0.0
 10
28.49824909622205
 20
10.8353067586747
 30
0.0
 10
28.49825880551735
 20
10.8354978492666
 30
0.0
 10
28.49825910868149
 20
10.83550382398281
 30
0.0
 10
28.49825910863276
 20
10.83550382302249
 30
0.0
  0
SPLINE
  5
1283
330
1251
100
AcDbEntity
  8
0
100
AcDbSpline
210
0.0
220
0.0
230
1.0
 70
     8
 71
     3
 72
    10
 73
     6
 74
     0
 42
0.000000001
 43
0.0000000001
 40
0.0
 40
0.0
 40
0.0
 40
0.0
 40
0.719434069036319
 40
0.719434069036319
 40
1.179793340239943
 40
1.179793340239943
 40
1.179793340239943
 40
1.179793340239943
 10
40.44755891396854
 20
-25.34077030437269
 30
0.0
 10
38.2234527085711
 20
-26.01430786574455
 30
0.0
 10
36.02128933419744
 20
-26.75591435231158
 30
0.0
 10
32.53329124924607
 20
-28.13998058680959
 30
0.0
 10
31.20440615321444
 20
-28.722479091679
 30
0.0
 10
29.93771007452651
 20
-29.34681394984449
 30
0.0
  0
SPLINE
  5
1284
330
1251
100
AcDbEntity
  8
0
100
AcDbSpline
210
0.0
220
0.0
230
1.0
 70
     8
 71
     3
 72
    14
 73
    10
 74
     0
 42
0.000000001
 43
0.0000000001
 40
-0.3694513155144321
 40
-0.3694513155144321
 40
-0.3694513155144321
 40
-0.3694513155144321
 40
-0.2962108153492628
 40
-0.2962108153492628
 40
-0.1790260150849919
 40
-0.1790260150849919
 40
-0.0596085539166441
 40
-0.0596085539166441
 40
0.0
 40
0.0
 40
0.0
 40
0.0
 10
42.16953029205684
 20
-22.35822838846143
 30
0.0
 10
42.22335884507883
 20
-22.58859837912019
 30
0.0
 10
42.2436526934101
 20
-22.83316948729009
 30
0.0
 10
42.19819148815169
 20
-23.47766609436613
 30
0.0
 10
42.07063293256928
 20
-23.88240253188424
 30
0.0
 10
41.63718549618927
 20
-24.59461180372038
 30
0.0
 10
41.33011621006883
 20
-24.89659870938898
 30
0.0
 10
40.81312051820875
 20
-25.20531373036185
 30
0.0
 10
40.63183675173933
 20
-25.28496449565338
 30
0.0
 10
40.44755891396853
 20
-25.34077030437269
 30
0.0
  0
SPLINE
  5
1285
330
1251
100
AcDbEntity
  8
0
100
AcDbSpline
210
0.0
220
0.0
230
1.0
 70
     8
 71
     3
 72
    10
 73
     6
 74
     0
 42
0.000000001
 43
0.0000000001
 40
9.250149293033624
 40
9.250149293033624
 40
9.250149293033624
 40
9.250149293033624
 40
9.710494396013446
 40
9.710494396013446
 40
10.42994262952892
 40
10.42994262952892
 40
10.42994262952892
 40
10.42994262952892
 10
40.38394143796414
 20
-11.25341048075098
 30
0.0
 10
40.47650323100917
 20
-12.66247993121737
 30
0.0
 10
40.63657380295966
 20
-14.10457776719488
 30
0.0
 10
41.18192807159139
 20
-17.81730454553413
 30
0.0
 10
41.64076741764875
 20
-20.09528258042131
 30
0.0
 10
42.16953029206986
 20
-22.3582283885171
 30
0.0
  0
SPLINE
  5
1286
330
1251
100
AcDbEntity
  8
0
100
AcDbSpline
210
0.0
220
0.0
230
1.0
 70
     8
 71
     3
 72
    10
 73
     6
 74
     0
 42
0.000000001
 43
0.0000000001
 40
-1.156205910356358
 40
-1.156205910356358
 40
-1.156205910356358
 40
-1.156205910356358
 40
-0.719434069036319
 40
-0.719434069036319
 40
0.0
 40
0.0
 40
0.0
 40
0.0
 10
31.62635556205895
 20
-31.47855125268741
 30
0.0
 10
32.75913266676389
 20
-30.95067547774768
 30
0.0
 10
33.95284539964121
 20
-30.46668798109294
 30
0.0
 10
37.21514031507293
 20
-29.2819376920879
 30
0.0
 10
39.3460989871007
 20
-28.64094875221841
 30
0.0
 10
41.51645065559596
 20
-28.05201686643314
 30
0.0
  0
ELLIPSE
  5
1287
330
1251
100
AcDbEntity
  8
0
100
AcDbEllipse
 10
41.51645065559595
 20
-25.84747609792828
 30
0.0
 11
0.7070837971165086
 21
-2.605769081069023
 31
0.0
210
0.0
220
0.0
230
1.0
 40
0.347304428315504
 41
4.42359659093093
 42
5.619943654515508
  0
SPLINE
  5
1288
330
1251
100
AcDbEntity
  8
0
100
AcDbSpline
210
0.0
220
0.0
230
1.0
 70
     8
 71
     3
 72
     8
 73
     4
 74
     0
 42
0.000000001
 43
0.0000000001
 40
-10.42994262114153
 40
-10.42994262114153
 40
-10.42994262114153
 40
-10.42994262114153
 40
-9.813570660769558
 40
-9.813570660769558
 40
-9.813570660769558
 40
-9.813570660769558
 10
21.35672376103934
 20
-16.41279311695834
 30
0.0
 10
20.48279190663303
 20
-17.48634084188833
 30
0.0
 10
19.54267743703039
 20
-18.54319451007925
 30
0.0
 10
18.48829181045199
 20
-19.56097235192082
 30
0.0
  0
SPLINE
  5
1289
330
1251
100
AcDbEntity
  8
0
100
AcDbSpline
210
0.0
220
0.0
230
1.0
 70
     8
 71
     3
 72
     8
 73
     4
 74
     0
 42
0.000000001
 43
0.0000000001
 40
-9.337919193645799
 40
-9.337919193645799
 40
-9.337919193645799
 40
-9.337919193645799
 40
-9.273736711229181
 40
-9.273736711229181
 40
-9.273736711229181
 40
-9.273736711229181
 10
15.81997405391627
 20
-21.83228910582775
 30
0.0
 10
15.68886089171814
 20
-21.92987261373064
 30
0.0
 10
15.55614723579088
 20
-22.02673724095049
 30
0.0
 10
15.42179211010236
 20
-22.12284218159998
 30
0.0
  0
SPLINE
  5
128A
330
1251
100
AcDbEntity
  8
0
100
AcDbSpline
210
0.0
220
0.0
230
1.0
 70
     8
 71
     3
 72
     8
 73
     4
 74
     0
 42
0.000000001
 43
0.0000000001
 40
-1.156205906412714
 40
-1.156205906412714
 40
-1.156205906412714
 40
-1.156205906412714
 40
-1.091955443913467
 40
-1.091955443913467
 40
-1.091955443913467
 40
-1.091955443913467
 10
26.86983938823074
 20
-2.294242648431032
 30
0.0
 10
26.85379366630381
 20
-2.45884403327601
 30
0.0
 10
26.83625939036226
 20
-2.622395667702979
 30
0.0
 10
26.81729406031648
 20
-2.784913969398894
 30
0.0
  0
SPLINE
  5
128B
330
1251
100
AcDbEntity
  8
0
100
AcDbSpline
210
0.0
220
0.0
230
1.0
 70
     8
 71
     3
 72
     8
 73
     4
 74
     0
 42
0.000000001
 43
0.0000000001
 40
-0.616376766864858
 40
-0.616376766864858
 40
-0.616376766864858
 40
-0.616376766864858
 40
0.0
 40
0.0
 40
0.0
 40
0.0
 10
26.1844532075475
 20
-6.230810942457645
 30
0.0
 10
25.83022326088244
 20
-7.652836925667239
 30
0.0
 10
25.38501518417078
 20
-8.995437622827093
 30
0.0
 10
24.89225766689934
 20
-10.2890687600948
 30
0.0
  0
ELLIPSE
  5
128C
330
1251
100
AcDbEntity
  8
0
100
AcDbEllipse
 10
22.98306935769567
 20
-11.39133914434723
 30
0.0
 11
-2.523152144601929
 21
0.9610948211236488
 31
0.0
210
0.0
220
0.0
230
1.0
 40
0.7389494574993389
 41
4.093231169399823
 42
4.170831349858827
  0
SPLINE
  5
128D
330
1251
100
AcDbEntity
  8
0
100
AcDbSpline
210
0.0
220
0.0
230
1.0
 70
     8
 71
     3
 72
    10
 73
     6
 74
     0
 42
0.000000001
 43
0.0000000001
 40
-10.42994262952892
 40
-10.42994262952892
 40
-10.42994262952892
 40
-10.42994262952892
 40
-9.710494396013446
 40
-9.710494396013446
 40
-9.273736722686443
 40
-9.273736722686443
 40
-9.273736722686443
 40
-9.273736722686443
 10
45.05198456155398
 20
-21.92829250962617
 30
0.0
 10
44.47682737781177
 20
-19.75420408327068
 30
0.0
 10
43.96645185599155
 20
-17.58820264933472
 30
0.0
 10
43.36133690979774
 20
-14.17059996714455
 30
0.0
 10
43.18347741941031
 20
-12.89481693001376
 30
0.0
 10
43.07440284018725
 20
-11.64995171951856
 30
0.0
  0
ELLIPSE
  5
128E
330
1251
100
AcDbEntity
  8
0
100
AcDbEllipse
 10
21.35672376103934
 20
-14.20825234845348
 30
0.0
 11
-2.093908602831262
 21
1.704566444287004
 31
0.0
210
0.0
220
0.0
230
1.0
 40
0.7389494575192624
 41
2.112353957314663
 42
2.189954137783184
  0
SPLINE
  5
128F
330
1251
100
AcDbEntity
  8
0
100
AcDbSpline
210
0.0
220
0.0
230
1.0
 70
     8
 71
     3
 72
    10
 73
     6
 74
     0
 42
0.000000001
 43
0.0000000001
 40
0.0
 40
0.0
 40
0.0
 40
0.0
 40
0.0596085539166683
 40
0.0596085539166683
 40
0.0650061949641831
 40
0.0650061949641831
 40
0.0650061949641831
 40
0.0650061949641831
 10
24.89225766689934
 20
-10.28906876010841
 30
0.0
 10
24.8446040812744
 20
-10.59333262042974
 30
0.0
 10
24.76720439844584
 20
-10.92631056764578
 30
0.0
 10
24.6499878640803
 20
-11.31097844189389
 30
0.0
 10
24.63999927641027
 20
-11.34308612416444
 30
0.0
 10
24.62975864501825
 20
-11.37535062580749
 30
0.0
  0
SPLINE
  5
1290
330
1251
100
AcDbEntity
  8
0
100
AcDbSpline
210
0.0
220
0.0
230
1.0
 70
     8
 71
     3
 72
     8
 73
     4
 74
     0
 42
0.000000001
 43
0.0000000001
 40
0.3044468615237701
 40
0.3044468615237701
 40
0.3044468615237701
 40
0.3044468615237701
 40
0.369451315514429
 40
0.369451315514429
 40
0.369451315514429
 40
0.369451315514429
 10
22.16623482017048
 20
-15.64232685690142
 30
0.0
 10
21.89145580118895
 20
-15.94304178668761
 30
0.0
 10
21.61809297841212
 20
-16.20188486527952
 30
0.0
 10
21.35672376109503
 20
-16.41279311694253
 30
0.0
  0
ELLIPSE
  5
1291
330
1251
100
AcDbEntity
  8
0
100
AcDbEllipse
 10
43.1427962523503
 20
-23.0305628938786
 30
0.0
 11
2.610204119138753
 21
0.6905320097078002
 31
0.0
210
0.0
220
0.0
230
1.0
 40
0.3473044283219748
 41
0.663241652643614
 42
1.859588716239544
  0
SPLINE
  5
1292
330
1251
100
AcDbEntity
  8
0
100
AcDbSpline
210
0.0
220
0.0
230
1.0
 70
     8
 71
     3
 72
    14
 73
    10
 74
     0
 42
0.000000001
 43
0.0000000001
 40
0.0
 40
0.0
 40
0.0
 40
0.0
 40
0.0596085539166441
 40
0.0596085539166441
 40
0.1790260150849919
 40
0.1790260150849919
 40
0.2962108153492628
 40
0.2962108153492628
 40
0.3694513155144321
 40
0.3694513155144321
 40
0.3694513155144321
 40
0.3694513155144321
 10
41.51645065560774
 20
-28.05201686642634
 30
0.0
 10
41.85143126653328
 20
-27.91364134150788
 30
0.0
 10
42.18542018135473
 20
-27.72880525645428
 30
0.0
 10
43.15193755596633
 20
-27.04107933107988
 30
0.0
 10
43.74632218462345
 20
-26.39893703384912
 30
0.0
 10
44.63139018828191
 20
-24.93086722452039
 30
0.0
 10
44.92320531944895
 20
-24.11565600574134
 30
0.0
 10
45.10739717928159
 20
-22.84522840107941
 30
0.0
 10
45.11053609844801
 20
-22.36974830058264
 30
0.0
 10
45.05198456153983
 20
-21.92829250966593
 30
0.0
  0
ELLIPSE
  5
1293
330
1251
100
AcDbEntity
  8
0
100
AcDbEllipse
 10
26.1393892616761
 20
-15.09158342668108
 30
0.0
 11
-7.317417295452475
 21
-12.67413853590518
 31
0.0
210
0.0
220
0.0
230
1.0
 40
0.5773502691896262
 41
1.013243670141878
 42
2.128348983448152
  0
SPLINE
  5
1294
330
1251
100
AcDbEntity
  8
0
100
AcDbSpline
210
0.0
220
0.0
230
1.0
 70
     8
 71
     3
 72
    16
 73
    12
 74
     0
 42
0.000000001
 43
0.0000000001
 40
0.2489359396119488
 40
0.2489359396119488
 40
0.2489359396119488
 40
0.2489359396119488
 40
0.4635208291261486
 40
0.4635208291261486
 40
0.6781057186403484
 40
0.6781057186403484
 40
0.892690608154548
 40
0.892690608154548
 40
1.107275497668747
 40
1.107275497668747
 40
1.321860387182947
 40
1.321860387182947
 40
1.321860387182947
 40
1.321860387182947
 10
26.01320239011284
 20
-7.100187931373169
 30
0.0
 10
25.85936111954211
 20
-7.88780624006355
 30
0.0
 10
25.63076603787642
 20
-8.738441608005704
 30
0.0
 10
25.02575664134705
 20
-10.4853962551329
 30
0.0
 10
24.64957978412504
 20
-11.3816682311305
 30
0.0
 10
23.77211056643606
 20
-13.14609342489234
 30
0.0
 10
23.2709061496984
 20
-14.01420493965989
 30
0.0
 10
22.18160371766786
 20
-15.65632817009833
 30
0.0
 10
21.59349784636486
 20
-16.43024287276717
 30
0.0
 10
20.38309544095812
 20
-17.8276737032535
 30
0.0
 10
19.76072114379553
 20
-18.45096053512724
 30
0.0
 10
19.15554431526929
 20
-18.97800013793717
 30
0.0
  0
ELLIPSE
  5
1295
330
1251
100
AcDbEntity
  8
0
100
AcDbEllipse
 10
-2.423780512054274
 20
-59.42962494802445
 30
0.0
 11
2.5
 21
-0.0000000000001489
 31
0.0
210
0.0
220
0.0
230
1.0
 40
0.577350269189626
 41
0.0
 42
6.283185307179586
  0
ELLIPSE
  5
1296
330
1251
100
AcDbEntity
  8
0
100
AcDbEllipse
 10
-9.222052709950201
 20
-69.7933308307801
 30
0.0
 11
2.5
 21
-0.0000000000001489
 31
0.0
210
0.0
220
0.0
230
1.0
 40
0.577350269189626
 41
0.0
 42
6.283185307179586
  0
ELLIPSE
  5
1297
330
1251
100
AcDbEntity
  8
0
100
AcDbEllipse
 10
13.25229725266917
 20
-56.23276395140916
 30
0.0
 11
2.5
 21
-0.0000000000001489
 31
0.0
210
0.0
220
0.0
230
1.0
 40
0.577350269189626
 41
0.0
 42
6.283185307179586
  0
ELLIPSE
  5
1298
330
1251
100
AcDbEntity
  8
0
100
AcDbEllipse
 10
33.99785106431783
 20
-43.71531760122059
 30
0.0
 11
2.5
 21
-0.0000000000001489
 31
0.0
210
0.0
220
0.0
230
1.0
 40
0.577350269189626
 41
0.0
 42
6.283185307179586
  0
ELLIPSE
  5
1299
330
1251
100
AcDbEntity
  8
0
100
AcDbEllipse
 10
39.06732711124305
 20
-34.39473224764735
 30
0.0
 11
2.5
 21
-0.0000000000001489
 31
0.0
210
0.0
220
0.0
230
1.0
 40
0.577350269189626
 41
0.0
 42
6.283185307179586
  0
ELLIPSE
  5
129A
330
1251
100
AcDbEntity
  8
0
100
AcDbEllipse
 10
49.67392882904126
 20
-40.51845660460529
 30
0.0
 11
2.5
 21
-0.0000000000001489
 31
0.0
210
0.0
220
0.0
230
1.0
 40
0.577350269189626
 41
0.0
 42
6.283185307179586
  0
ELLIPSE
  5
129B
330
1251
100
AcDbEntity
  8
0
100
AcDbEllipse
 10
18.32177329959439
 20
-46.9121785978359
 30
0.0
 11
2.5
 21
-0.0000000000001489
 31
0.0
210
0.0
220
0.0
230
1.0
 40
0.577350269189626
 41
0.0
 42
6.283185307179586
  0
ELLIPSE
  5
129C
330
1251
100
AcDbEntity
  8
0
100
AcDbEllipse
 10
39.06732711124305
 20
-36.84422199043054
 30
0.0
 11
-2.5
 21
-0.0000000000001499
 31
0.0
210
0.0
220
0.0
230
1.0
 40
0.577350269189626
 41
4.154790153685038
 42
5.269987807084102
  0
ELLIPSE
  5
129D
330
1251
100
AcDbEntity
  8
0
100
AcDbEllipse
 10
49.67392882904126
 20
-42.96794634738848
 30
0.0
 11
-2.5
 21
-0.0000000000001497
 31
0.0
210
0.0
220
0.0
230
1.0
 40
0.5773502691896261
 41
4.154790153685038
 42
5.269987807084103
  0
ELLIPSE
  5
129E
330
1251
100
AcDbEntity
  8
0
100
AcDbEllipse
 10
18.32177329959439
 20
-49.36166834061908
 30
0.0
 11
-2.5
 21
-0.0000000000001495
 31
0.0
210
0.0
220
0.0
230
1.0
 40
0.5773502691896259
 41
4.154790153685036
 42
5.269987807084101
  0
ELLIPSE
  5
129F
330
1251
100
AcDbEntity
  8
0
100
AcDbEllipse
 10
33.99785106431783
 20
-46.16480734400377
 30
0.0
 11
-2.5
 21
-0.0000000000001495
 31
0.0
210
0.0
220
0.0
230
1.0
 40
0.577350269189626
 41
4.154790153685032
 42
5.269987807084095
  0
ELLIPSE
  5
12A0
330
1251
100
AcDbEntity
  8
0
100
AcDbEllipse
 10
13.25229725266917
 20
-58.68225369419234
 30
0.0
 11
-2.5
 21
-0.0000000000001495
 31
0.0
210
0.0
220
0.0
230
1.0
 40
0.5773502691896259
 41
4.154790153685036
 42
5.269987807084101
  0
ELLIPSE
  5
12A1
330
1251
100
AcDbEntity
  8
0
100
AcDbEllipse
 10
-9.222052709950201
 20
-72.24282057356328
 30
0.0
 11
-2.5
 21
-0.0000000000001495
 31
0.0
210
0.0
220
0.0
230
1.0
 40
0.5773502691896259
 41
4.154790153685036
 42
5.269987807084101
  0
ELLIPSE
  5
12A2
330
1251
100
AcDbEntity
  8
0
100
AcDbEllipse
 10
-2.423780512054274
 20
-61.87911469080765
 30
0.0
 11
-2.5
 21
-0.0000000000001495
 31
0.0
210
0.0
220
0.0
230
1.0
 40
0.5773502691896259
 41
4.154790153685036
 42
5.269987807084101
  0
ELLIPSE
  5
12A3
330
1251
100
AcDbEntity
  8
0
100
AcDbEllipse
 10
-32.9908876563233
 20
-41.7816974099326
 30
0.0
 11
-2.5
 21
0.0000000000001489
 31
0.0
210
0.0
220
0.0
230
1.0
 40
0.577350269189626
 41
0.0
 42
6.283185307179586
  0
ELLIPSE
  5
12A4
330
1251
100
AcDbEntity
  8
0
100
AcDbEllipse
 10
-11.31003459677911
 20
-29.80424633228938
 30
0.0
 11
-2.5
 21
0.0000000000001489
 31
0.0
210
0.0
220
0.0
230
1.0
 40
0.577350269189626
 41
0.0
 42
6.283185307179586
  0
ELLIPSE
  5
12A5
330
1251
100
AcDbEntity
  8
0
100
AcDbEllipse
 10
-0.235783255033164
 20
-11.70307089768821
 30
0.0
 11
-2.5
 21
0.0000000000001489
 31
0.0
210
0.0
220
0.0
230
1.0
 40
0.577350269189626
 41
0.0
 42
6.283185307179586
  0
ELLIPSE
  5
12A6
330
1251
100
AcDbEntity
  8
0
100
AcDbEllipse
 10
10.37081846276505
 20
-17.82679525464615
 30
0.0
 11
-2.5
 21
0.0000000000001489
 31
0.0
210
0.0
220
0.0
230
1.0
 40
0.577350269189626
 41
0.0
 42
6.283185307179586
  0
ELLIPSE
  5
12A7
330
1251
100
AcDbEntity
  8
0
100
AcDbEllipse
 10
-5.772908925906135
 20
-20.75365861498879
 30
0.0
 11
-2.5
 21
0.0000000000001489
 31
0.0
210
0.0
220
0.0
230
1.0
 40
0.577350269189626
 41
0.0
 42
6.283185307179586
  0
ELLIPSE
  5
12A8
330
1251
100
AcDbEntity
  8
0
100
AcDbEllipse
 10
-27.45376198545031
 20
-32.73110969263202
 30
0.0
 11
-2.5
 21
0.0000000000001489
 31
0.0
210
0.0
220
0.0
230
1.0
 40
0.577350269189626
 41
0.0
 42
6.283185307179586
  0
ELLIPSE
  5
12A9
330
1251
100
AcDbEntity
  8
0
100
AcDbEllipse
 10
-50.94135279995653
 20
-45.70668169341217
 30
0.0
 11
-2.5
 21
0.0000000000001489
 31
0.0
210
0.0
220
0.0
230
1.0
 40
0.577350269189626
 41
0.0
 42
6.283185307179586
  0
ELLIPSE
  5
12AA
330
1251
100
AcDbEntity
  8
0
100
AcDbEllipse
 10
10.37081846276505
 20
-20.27628499742935
 30
0.0
 11
-2.5
 21
-0.0000000000001497
 31
0.0
210
0.0
220
0.0
230
1.0
 40
0.5773502691896261
 41
4.154790153685034
 42
5.269987807084101
  0
ELLIPSE
  5
12AB
330
1251
100
AcDbEntity
  8
0
100
AcDbEllipse
 10
-0.235783255033164
 20
-14.1525606404714
 30
0.0
 11
-2.5
 21
-0.0000000000001497
 31
0.0
210
0.0
220
0.0
230
1.0
 40
0.5773502691896261
 41
4.154790153685034
 42
5.269987807084102
  0
ELLIPSE
  5
12AC
330
1251
100
AcDbEntity
  8
0
100
AcDbEllipse
 10
-50.94135279995653
 20
-48.15617143619537
 30
0.0
 11
-2.5
 21
-0.0000000000001495
 31
0.0
210
0.0
220
0.0
230
1.0
 40
0.5773502691896259
 41
4.154790153685036
 42
5.269987807084101
  0
ELLIPSE
  5
12AD
330
1251
100
AcDbEntity
  8
0
100
AcDbEllipse
 10
-27.45376198545031
 20
-35.1805994354152
 30
0.0
 11
-2.5
 21
-0.0000000000001495
 31
0.0
210
0.0
220
0.0
230
1.0
 40
0.5773502691896259
 41
4.154790153685036
 42
5.269987807084102
  0
ELLIPSE
  5
12AE
330
1251
100
AcDbEntity
  8
0
100
AcDbEllipse
 10
-5.772908925906135
 20
-23.20314835777197
 30
0.0
 11
-2.5
 21
-0.0000000000001495
 31
0.0
210
0.0
220
0.0
230
1.0
 40
0.577350269189626
 41
4.154790153685036
 42
5.2699878070841
  0
ELLIPSE
  5
12AF
330
1251
100
AcDbEntity
  8
0
100
AcDbEllipse
 10
-11.31003459677911
 20
-32.25373607507257
 30
0.0
 11
-2.5
 21
-0.0000000000001495
 31
0.0
210
0.0
220
0.0
230
1.0
 40
0.5773502691896259
 41
4.154790153685036
 42
5.269987807084103
  0
ELLIPSE
  5
12B0
330
1251
100
AcDbEntity
  8
0
100
AcDbEllipse
 10
-32.9908876563233
 20
-44.23118715271579
 30
0.0
 11
-2.5
 21
-0.0000000000001495
 31
0.0
210
0.0
220
0.0
230
1.0
 40
0.5773502691896259
 41
4.154790153685034
 42
5.269987807084101
  0
ELLIPSE
  5
12B1
330
1251
100
AcDbEntity
  8
0
100
AcDbEllipse
 10
-23.01063494308789
 20
-53.66752335745751
 30
0.0
 11
-5.5
 21
0.0000000000003292
 31
0.0
210
0.0
220
0.0
230
1.0
 40
0.577350269189626
 41
0.0
 42
6.283185307179586
  0
ELLIPSE
  5
12B2
330
1251
100
AcDbEntity
  8
0
100
AcDbEllipse
 10
-23.01063494308789
 20
-56.11701310024068
 30
0.0
 11
-5.5
 21
-0.0000000000003292
 31
0.0
210
0.0
220
0.0
230
1.0
 40
0.5773502691896258
 41
3.537553217051971
 42
5.887224743716535
  0
LINE
  5
12B3
330
1251
100
AcDbEntity
  8
0
100
AcDbLine
 10
21.3567237609853
 20
-16.41279311698954
 30
0.0
 11
0.9729659643301191
 21
-4.644225066056948
 31
0.0
  0
LINE
  5
12B4
330
1251
100
AcDbEntity
  8
0
100
AcDbLine
 10
61.9002084522224
 20
-39.82058491742316
 30
0.0
 11
41.51645065559683
 21
-28.05201686643264
 31
0.0
  0
LINE
  5
12B5
330
1251
100
AcDbEntity
  8
0
100
AcDbLine
 10
65.43574235815481
 20
-33.69686056068707
 30
0.0
 11
45.05198456155398
 21
-21.92829250956378
 31
0.0
  0
LINE
  5
12B6
330
1251
100
AcDbEntity
  8
0
100
AcDbLine
 10
24.89225766689934
 20
-10.28906876009581
 30
0.0
 11
4.508499870263191
 21
1.479499290678756
 31
0.0
  0
LINE
  5
12B7
330
1251
100
AcDbEntity
  8
0
100
AcDbLine
 10
0.9729659643301191
 20
-4.644225066056948
 30
0.0
 11
-61.90150790834803
 21
-39.37883319122232
 31
0.0
  0
ELLIPSE
  5
12B8
330
1251
100
AcDbEntity
  8
0
100
AcDbEllipse
 10
-1394.215355099812
 20
729.8329251298354
 30
0.0
 11
1974.176312035644
 21
-0.0000000000000711
 31
0.0
210
0.0
220
0.0
230
1.0
 40
0.5773502691896259
 41
5.497787143782137
 42
5.54187043271468
  0
ELLIPSE
  5
12B9
330
1251
100
AcDbEntity
  8
0
100
AcDbEllipse
 10
-1327.040210886904
 20
843.734198168865
 30
0.0
 11
987.0881560176909
 21
-1709.686837772115
 31
0.0
210
0.0
220
0.0
230
1.0
 40
0.5773502691896257
 41
0.7413148744648535
 42
0.7853981633976233
  0
ELLIPSE
  5
12BA
330
1251
100
AcDbEntity
  8
0
100
AcDbEllipse
 10
-1329.161531230464
 20
842.5094532974734
 30
0.0
 11
-987.0881560177922
 21
1709.686837772056
 31
0.0
210
0.0
220
0.0
230
0.9999999999999998
 40
0.5773502691896257
 41
3.882907528054463
 42
3.926990816987162
  0
LINE
  5
12BB
330
1251
100
AcDbEntity
  8
0
100
AcDbLine
 10
3.152315960814355
 20
73.29769497680391
 30
0.0
 11
4.508499870263191
 21
1.479499290678756
 31
0.0
  0
ELLIPSE
  5
12BC
330
1251
100
AcDbEntity
  8
0
100
AcDbEllipse
 10
-1394.215355099812
 20
727.3834353870523
 30
0.0
 11
-1974.176312035644
 21
0.0000000001179501
 31
0.0
210
0.0
220
0.0
230
1.0
 40
0.5773502691896259
 41
2.356194490192599
 42
2.400277779125154
  0
SPLINE
  5
12BD
330
1251
100
AcDbEntity
  8
0
100
AcDbSpline
210
0.0
220
0.0
230
1.0
 70
     8
 71
     3
 72
    11
 73
     7
 74
     0
 42
0.000000001
 43
0.0000000001
 40
0.0
 40
0.0
 40
0.0
 40
0.0
 40
0.9067919713980618
 40
0.9067919713980618
 40
0.9067919713980618
 40
1.0
 40
1.0
 40
1.0
 40
1.0
 10
67.55706270171465
 20
-32.47211568942883
 30
0.0
 10
67.46352593398599
 20
-35.51745200007452
 30
0.0
 10
65.27911103484274
 20
-39.67926909621235
 30
0.0
 10
62.69892914848873
 20
-41.70891158562925
 30
0.0
 10
62.43371543393553
 20
-41.91753603442494
 30
0.0
 10
62.16648997121551
 20
-42.10523505172002
 30
0.0
 10
61.90020845222232
 20
-42.27007466020618
 30
0.0
  0
SPLINE
  5
12BE
330
1251
100
AcDbEntity
  8
0
100
AcDbSpline
210
0.0
220
0.0
230
1.0
 70
     8
 71
     3
 72
    11
 73
     7
 74
     0
 42
0.000000001
 43
0.0000000001
 40
-1.0
 40
-1.0
 40
-1.0
 40
-1.0
 40
-0.9086138718154927
 40
-0.9086138718154927
 40
-0.9086138718154927
 40
0.0
 40
0.0
 40
0.0
 40
0.0
 10
4.508499870263205
 20
1.479499290678725
 30
0.0
 10
4.513213169060037
 20
1.281464263891427
 30
0.0
 10
4.505336485859157
 20
1.07665032094562
 30
0.0
 10
4.484991828555329
 20
0.8671354996545055
 30
0.0
 10
4.282713449868889
 20
-1.215982329691556
 30
0.0
 10
2.701583021423861
 20
-3.700319523000934
 30
0.0
 10
0.9729659643301546
 20
-4.64422506605697
 30
0.0
  0
LINE
  5
12BF
330
1251
100
AcDbEntity
  8
0
100
AcDbLine
 10
66.79192626760365
 20
36.55534883505623
 30
0.0
 11
68.91324661116328
 21
37.78009370644783
 31
0.0
  0
LINE
  5
12C0
330
1251
100
AcDbEntity
  8
0
100
AcDbLine
 10
65.43574235815481
 20
-33.69686056068707
 30
0.0
 11
67.55706270171446
 21
-32.47211568942871
 31
0.0
  0
SPLINE
  5
12C1
330
1251
100
AcDbEntity
  8
0
100
AcDbSpline
210
0.0
220
0.0
230
1.0
 70
     8
 71
     3
 72
    11
 73
     7
 74
     0
 42
0.000000001
 43
0.0000000001
 40
-1.0
 40
-1.0
 40
-1.0
 40
-1.0
 40
-0.9067919713980618
 40
-0.9067919713980618
 40
-0.9067919713980618
 40
0.0
 40
0.0
 40
0.0
 40
0.0
 10
61.90020845222228
 20
-39.82058491742302
 30
0.0
 10
62.06302895321716
 20
-39.71547855552881
 30
0.0
 10
62.22677525994821
 20
-39.59627896096705
 30
0.0
 10
62.38960017538375
 20
-39.46419493329594
 30
0.0
 10
63.97367322440263
 20
-38.17919043702452
 30
0.0
 10
65.34220559048108
 20
-35.57994445061213
 30
0.0
 10
65.43574235815501
 20
-33.69686056068719
 30
0.0
  0
LINE
  5
12C2
330
1251
100
AcDbEntity
  8
0
100
AcDbLine
 10
61.9002084522224
 20
-39.82058491742316
 30
0.0
 11
61.9002084522224
 21
-42.27007466020633
 31
0.0
  0
LINE
  5
12C3
330
1251
100
AcDbEntity
  8
0
100
AcDbLine
 10
1.738102398441263
 20
-78.57066907575315
 30
0.0
 11
1.738102398441263
 21
-76.12117933296999
 31
0.0
  0
LINE
  5
12C4
330
1251
100
AcDbEntity
  8
0
100
AcDbLine
 10
-61.90150790834801
 20
-47.54379900049956
 30
0.0
 11
-61.90150790834803
 21
-39.37883319122231
 31
0.0
  0
LINE
  5
12C5
330
1251
100
AcDbEntity
  8
0
100
AcDbLine
 10
1.738102398441263
 20
-76.12117933296999
 30
0.0
 11
-12.40403322528967
 21
-76.12117933296999
 31
0.0
  0
LINE
  5
12C6
330
1251
100
AcDbEntity
  8
0
100
AcDbLine
 10
68.91324661116328
 20
37.78009370644783
 30
0.0
 11
61.84217879929781
 21
50.0275424203637
 31
0.0
  0
LINE
  5
12C7
330
1251
100
AcDbEntity
  8
0
100
AcDbLine
 10
59.72085845573817
 20
48.80279754897211
 30
0.0
 11
66.79192626760365
 21
36.55534883505623
 31
0.0
  0
LINE
  5
12C8
330
1251
100
AcDbEntity
  8
0
100
AcDbLine
 10
3.152315960814355
 20
73.29769497680391
 30
0.0
 11
10.22338377267983
 21
77.38017788144254
 31
0.0
  0
LINE
  5
12C9
330
1251
100
AcDbEntity
  8
0
100
AcDbLine
 10
-12.40403322528967
 20
-78.57066907575315
 30
0.0
 11
1.738102398441263
 21
-78.57066907575315
 31
0.0
  0
LINE
  5
12CA
330
1251
100
AcDbEntity
  8
0
100
AcDbLine
 10
-61.90150790834801
 20
-49.99328874328274
 30
0.0
 11
-61.90150790834801
 21
-47.54379900049956
 31
0.0
  0
LINE
  5
12CB
330
1251
100
AcDbEntity
  8
0
100
AcDbLine
 10
-12.40403322528967
 20
-76.12117933296999
 30
0.0
 11
-12.40403322528967
 21
-78.57066907575315
 31
0.0
  0
LINE
  5
12CC
330
1251
100
AcDbEntity
  8
0
100
AcDbLine
 10
61.84217879929781
 20
50.0275424203637
 30
0.0
 11
59.72085845573817
 21
48.80279754897211
 31
0.0
  0
LINE
  5
12CD
330
1251
100
AcDbEntity
  8
0
100
AcDbLine
 10
10.22338377267983
 20
77.38017788144254
 30
0.0
 11
12.34470411623947
 21
78.60492275283412
 31
0.0
  0
LINE
  5
12CE
330
1251
100
AcDbEntity
  8
0
100
AcDbLine
 10
-61.90150790834801
 20
-47.54379900049956
 30
0.0
 11
-12.40403322528967
 21
-76.12117933296999
 31
0.0
  0
LINE
  5
12CF
330
1251
100
AcDbEntity
  8
0
100
AcDbLine
 10
61.84217879929781
 20
50.0275424203637
 30
0.0
 11
12.34470411623947
 21
78.60492275283412
 31
0.0
  0
LINE
  5
12D0
330
1251
100
AcDbEntity
  8
0
100
AcDbLine
 10
10.22338377267983
 20
77.38017788144254
 30
0.0
 11
59.72085845573817
 21
48.80279754897211
 31
0.0
  0
LINE
  5
12D1
330
1251
100
AcDbEntity
  8
0
100
AcDbLine
 10
-61.90150790834801
 20
-49.99328874328274
 30
0.0
 11
-12.40403322528967
 21
-78.57066907575315
 31
0.0
  0
ELLIPSE
  5
12D2
330
1251
100
AcDbEntity
  8
0
100
AcDbEllipse
 10
39.00262976697232
 20
30.75139989100439
 30
0.0
 11
-8.000000000000001
 21
0.0000000000000008
 31
0.0
210
0.0
220
0.0
230
1.0
 40
0.5773502691896259
 41
0.7845907922103593
 42
1.025090541809383
  0
ELLIPSE
  5
12D3
330
1251
100
AcDbEntity
  8
0
100
AcDbEllipse
 10
33.50749903313388
 20
27.57878468259057
 30
0.0
 11
-0.9496152426179051
 21
1.64478184785583
 31
0.0
210
0.0
220
0.0
230
0.9999999999999998
 40
0.5773502691896259
 41
3.926990816986997
 42
7.068583470576791
  0
ELLIPSE
  5
12D4
330
1251
100
AcDbEntity
  8
0
100
AcDbEllipse
 10
39.00262976697232
 20
30.75139989100439
 30
0.0
 11
-8.0
 21
0.0000000000000003
 31
0.0
210
0.0
220
0.0
230
1.0
 40
0.5773502691896259
 41
0.5457057849855138
 42
0.7845907922103593
  0
ELLIPSE
  5
12D5
330
1251
100
AcDbEntity
  8
0
100
AcDbEllipse
 10
36.71044180950833
 20
20.07229548564186
 30
0.0
 11
-9.000000000000001
 21
-0.0000000000005357
 31
0.0
210
0.0
220
0.0
230
1.0
 40
0.5773502691896257
 41
3.926990816987
 42
4.166683195398999
  0
ELLIPSE
  5
12D6
330
1251
100
AcDbEntity
  8
0
100
AcDbEllipse
 10
34.972121114209
 20
28.42438463536036
 30
0.0
 11
-5.729178351523068
 21
9.923227990461661
 31
0.0
210
0.0
220
0.0
230
1.0
 40
0.5773502691896259
 41
3.92699081698724
 42
7.068583470577034
  0
ELLIPSE
  5
12D7
330
1251
100
AcDbEntity
  8
0
100
AcDbEllipse
 10
20.50587835755182
 20
29.42800455672932
 30
0.0
 11
-9.000000000000001
 21
-0.000000000000536
 31
0.0
210
0.0
220
0.0
230
1.0
 40
0.5773502691896259
 41
3.687298438574938
 42
3.926990816986934
  0
ELLIPSE
  5
12D8
330
1251
100
AcDbEntity
  8
0
100
AcDbEllipse
 10
34.79018215909832
 20
28.31934213065114
 30
0.0
 11
-4.660861203578517
 21
8.072848411623507
 31
0.0
210
0.0
220
0.0
230
1.0
 40
0.5773502691896259
 41
3.926990816987
 42
7.068583470576794
  0
LINE
  5
12D9
330
1251
100
AcDbEntity
  8
0
100
AcDbLine
 10
41.38163528553696
 20
24.51376489375098
 30
0.0
 11
38.55515817480624
 21
25.50465478675831
 31
0.0
  0
LINE
  5
12DA
330
1251
100
AcDbEntity
  8
0
100
AcDbLine
 10
29.91500067205468
 20
30.49305204681275
 30
0.0
 11
28.19872903265967
 21
32.12491936755128
 31
0.0
  0
LINE
  5
12DB
330
1251
100
AcDbEntity
  8
0
100
AcDbLine
 10
32.16454027798756
 20
28.35414228138486
 30
0.0
 11
29.91500067205468
 21
30.49305204681275
 31
0.0
  0
LINE
  5
12DC
330
1251
100
AcDbEntity
  8
0
100
AcDbLine
 10
38.55515817480624
 20
25.50465478675831
 30
0.0
 11
34.8504577882802
 21
26.80342708379628
 31
0.0
  0
ELLIPSE
  5
12DD
330
1251
100
AcDbEntity
  8
0
100
AcDbEllipse
 10
61.39438431404176
 20
1.296281831304351
 30
0.0
 11
1.250000000000129
 21
-2.165063509461022
 31
0.0
210
0.0
220
0.0
230
0.9999999999999998
 40
0.5773502691896259
 41
4.154790153685038
 42
5.269987807084099
  0
ELLIPSE
  5
12DE
330
1251
100
AcDbEntity
  8
0
100
AcDbEllipse
 10
54.75320196601728
 20
37.79043348478273
 30
0.0
 11
1.250000000000129
 21
-2.165063509461022
 31
0.0
210
0.0
220
0.0
230
0.9999999999999998
 40
0.5773502691896259
 41
4.154790153685036
 42
5.269987807084099
  0
ELLIPSE
  5
12DF
330
1251
100
AcDbEntity
  8
0
100
AcDbEllipse
 10
23.92557588392604
 20
12.72270120304959
 30
0.0
 11
1.250000000000129
 21
-2.165063509461022
 31
0.0
210
0.0
220
0.0
230
0.9999999999999998
 40
0.5773502691896259
 41
4.154790153685034
 42
5.269987807084103
  0
ELLIPSE
  5
12E0
330
1251
100
AcDbEntity
  8
0
100
AcDbEllipse
 10
19.61062593808262
 20
56.03876776220836
 30
0.0
 11
1.250000000000129
 21
-2.165063509461022
 31
0.0
210
0.0
220
0.0
230
0.9999999999999998
 40
0.5773502691896259
 41
4.154790153685036
 42
5.269987807084101
  0
ELLIPSE
  5
12E1
330
1251
100
AcDbEntity
  8
0
100
AcDbEllipse
 10
13.12412015615015
 20
29.16513183671741
 30
0.0
 11
1.250000000000129
 21
-2.165063509461022
 31
0.0
210
0.0
220
0.0
230
0.9999999999999998
 40
0.5773502691896259
 41
4.154790153685038
 42
5.269987807084103
  0
ELLIPSE
  5
12E2
330
1251
100
AcDbEntity
  8
0
100
AcDbEllipse
 10
23.45792625997963
 20
37.48759626715326
 30
0.0
 11
1.250000000000129
 21
-2.165063509461022
 31
0.0
210
0.0
220
0.0
230
0.9999999999999998
 40
0.5773502691896259
 41
4.154790153685038
 42
5.269987807084103
  0
ELLIPSE
  5
12E3
330
1251
100
AcDbEntity
  8
0
100
AcDbEllipse
 10
26.48683973997043
 20
62.2749911342796
 30
0.0
 11
1.250000000000129
 21
-2.165063509461022
 31
0.0
210
0.0
220
0.0
230
1.0
 40
0.577350269189626
 41
4.154790153685031
 42
5.2699878070841
  0
ELLIPSE
  5
12E4
330
1251
100
AcDbEntity
  8
0
100
AcDbEllipse
 10
47.69892386845955
 20
52.06943010494274
 30
0.0
 11
1.250000000000129
 21
-2.165063509461022
 31
0.0
210
0.0
220
0.0
230
1.0
 40
0.577350269189626
 41
4.154790153685031
 42
5.269987807084097
  0
ELLIPSE
  5
12E5
330
1251
100
AcDbEntity
  8
0
100
AcDbEllipse
 10
51.04640143793668
 20
21.55938269662847
 30
0.0
 11
1.250000000000129
 21
-2.165063509461022
 31
0.0
210
0.0
220
0.0
230
1.0
 40
0.577350269189626
 41
4.154790153685038
 42
5.269987807084099
  0
ELLIPSE
  5
12E6
330
1251
100
AcDbEntity
  8
0
100
AcDbEllipse
 10
50.53583504196155
 20
-2.640739085047902
 30
0.0
 11
1.250000000000129
 21
-2.165063509461022
 31
0.0
210
0.0
220
0.0
230
1.0
 40
0.577350269189626
 41
4.154790153685034
 42
5.269987807084099
  0
ELLIPSE
  5
12E7
330
1251
100
AcDbEntity
  8
0
100
AcDbEllipse
 10
48.4145146984019
 20
-3.865483956439494
 30
0.0
 11
1.25
 21
-2.165063509461097
 31
0.0
210
0.0
220
0.0
230
1.0
 40
0.5773502691896259
 41
0.0
 42
6.283185307179586
  0
ELLIPSE
  5
12E8
330
1251
100
AcDbEntity
  8
0
100
AcDbEllipse
 10
48.92508109437703
 20
20.33463782523687
 30
0.0
 11
1.25
 21
-2.165063509461097
 31
0.0
210
0.0
220
0.0
230
1.0
 40
0.5773502691896259
 41
0.0
 42
6.283185307179586
  0
ELLIPSE
  5
12E9
330
1251
100
AcDbEntity
  8
0
100
AcDbEllipse
 10
45.57760352489991
 20
50.84468523355115
 30
0.0
 11
1.25
 21
-2.165063509461097
 31
0.0
210
0.0
220
0.0
230
1.0
 40
0.5773502691896259
 41
0.0
 42
6.283185307179586
  0
ELLIPSE
  5
12EA
330
1251
100
AcDbEntity
  8
0
100
AcDbEllipse
 10
24.36551939641078
 20
61.05024626288802
 30
0.0
 11
1.25
 21
-2.165063509461097
 31
0.0
210
0.0
220
0.0
230
1.0
 40
0.5773502691896259
 41
0.0
 42
6.283185307179586
  0
ELLIPSE
  5
12EB
330
1251
100
AcDbEntity
  8
0
100
AcDbEllipse
 10
21.33660591641998
 20
36.26285139576167
 30
0.0
 11
1.25
 21
-2.165063509461097
 31
0.0
210
0.0
220
0.0
230
1.0
 40
0.5773502691896259
 41
0.0
 42
6.283185307179586
  0
ELLIPSE
  5
12EC
330
1251
100
AcDbEntity
  8
0
100
AcDbEllipse
 10
11.00279981259051
 20
27.94038696532582
 30
0.0
 11
1.25
 21
-2.165063509461097
 31
0.0
210
0.0
220
0.0
230
1.0
 40
0.5773502691896259
 41
0.0
 42
6.283185307179586
  0
ELLIPSE
  5
12ED
330
1251
100
AcDbEntity
  8
0
100
AcDbEllipse
 10
17.48930559452297
 20
54.81402289081678
 30
0.0
 11
1.25
 21
-2.165063509461097
 31
0.0
210
0.0
220
0.0
230
1.0
 40
0.5773502691896259
 41
0.0
 42
6.283185307179586
  0
ELLIPSE
  5
12EE
330
1251
100
AcDbEntity
  8
0
100
AcDbEllipse
 10
21.80425554036639
 20
11.497956331658
 30
0.0
 11
1.25
 21
-2.165063509461097
 31
0.0
210
0.0
220
0.0
230
1.0
 40
0.5773502691896259
 41
0.0
 42
6.283185307179586
  0
ELLIPSE
  5
12EF
330
1251
100
AcDbEntity
  8
0
100
AcDbEllipse
 10
52.63188162245764
 20
36.56568861339113
 30
0.0
 11
1.25
 21
-2.165063509461097
 31
0.0
210
0.0
220
0.0
230
1.0
 40
0.5773502691896259
 41
0.0
 42
6.283185307179586
  0
ELLIPSE
  5
12F0
330
1251
100
AcDbEntity
  8
0
100
AcDbEllipse
 10
59.27306397048212
 20
0.0715369599127636
 30
0.0
 11
1.25
 21
-2.165063509461097
 31
0.0
210
0.0
220
0.0
230
1.0
 40
0.5773502691896259
 41
0.0
 42
6.283185307179586
  0
ELLIPSE
  5
12F1
330
1251
100
AcDbEntity
  8
0
100
AcDbEllipse
 10
37.09344145776865
 20
47.98630096804439
 30
0.0
 11
2.750000000000285
 21
-4.763139720814249
 31
0.0
210
0.0
220
0.0
230
1.0
 40
0.577350269189626
 41
3.537553217051968
 42
5.887224743716537
  0
ELLIPSE
  5
12F2
330
1251
100
AcDbEntity
  8
0
100
AcDbEllipse
 10
56.39745658416139
 20
-15.00641025052968
 30
0.0
 11
2.750000000000284
 21
-4.763139720814249
 31
0.0
210
0.0
220
0.0
230
1.0
 40
0.5773502691896259
 41
3.53755321705197
 42
5.887224743716538
  0
ELLIPSE
  5
12F3
330
1251
100
AcDbEntity
  8
0
100
AcDbEllipse
 10
17.78942633137589
 20
7.283946408797237
 30
0.0
 11
2.750000000000284
 21
-4.763139720814249
 31
0.0
210
0.0
220
0.0
230
1.0
 40
0.5773502691896259
 41
3.537553217051971
 42
5.887224743716537
  0
ELLIPSE
  5
12F4
330
1251
100
AcDbEntity
  8
0
100
AcDbEllipse
 10
54.27613624060175
 20
-16.23115512192128
 30
0.0
 11
2.750000000000001
 21
-4.763139720814414
 31
0.0
210
0.0
220
0.0
230
1.0
 40
0.5773502691896259
 41
0.0
 42
6.283185307179586
  0
ELLIPSE
  5
12F5
330
1251
100
AcDbEntity
  8
0
100
AcDbEllipse
 10
34.972121114209
 20
46.76155609665279
 30
0.0
 11
2.750000000000001
 21
-4.763139720814414
 31
0.0
210
0.0
220
0.0
230
1.0
 40
0.5773502691896259
 41
0.0
 42
6.283185307179586
  0
ELLIPSE
  5
12F6
330
1251
100
AcDbEntity
  8
0
100
AcDbEllipse
 10
15.66810598781624
 20
6.05920153740564
 30
0.0
 11
2.750000000000001
 21
-4.763139720814414
 31
0.0
210
0.0
220
0.0
230
1.0
 40
0.5773502691896259
 41
0.0
 42
6.283185307179586
  0
ENDBLK
  5
1253
330
1251
100
AcDbEntity
  8
0
100
AcDbBlockEnd
  0
ENDSEC
  0
SECTION
  2
ENTITIES
  0
INSERT
  5
12F7
330
1F
100
AcDbEntity
  8
0
100
AcDbBlockReference
  2
ABR105-Front
 10
0.0
 20
0.0
 30
0.0
  0
INSERT
  5
12F8
330
1F
100
AcDbEntity
  8
0
100
AcDbBlockReference
  2
ABR105-Left
 10
76.5
 20
0.0
 30
0.0
  0
INSERT
  5
12F9
330
1F
100
AcDbEntity
  8
0
100
AcDbBlockReference
  2
ABR105-Right
 10
-76.50000000000002
 20
0.0
 30
0.0
  0
INSERT
  5
12FA
330
1F
100
AcDbEntity
  8
0
100
AcDbBlockReference
  2
ABR105-Top
 10
0.0
 20
-31.5
 30
0.0
  0
INSERT
  5
12FB
330
1F
100
AcDbEntity
  8
0
100
AcDbBlockReference
  2
ABR105-Bottom
 10
0.0
 20
136.5
 30
0.0
  0
INSERT
  5
12FC
330
1F
100
AcDbEntity
  8
0
100
AcDbBlockReference
  2
ABR105-ISO
 10
138.401507908348
 20
-110.1049227528341
 30
0.0
  0
MTEXT
  5
12FD
330
1F
100
AcDbEntity
  8
0
100
AcDbMText
 10
0.0
 20
-168.0
 30
0.0
 40
10.5
 41
0.0
 71
     5
 72
     5
  1
ABR10525
 73
     1
 44
1.0
1001
ACAD
1000
MTEXTBEGIN
1070
    73
1070
     1
1070
    44
1040
1.0
1070
    74
1070
     0
1000
MTEXTEND
  0
ENDSEC
  0
SECTION
  2
OBJECTS
  0
DICTIONARY
  5
C
330
0
100
AcDbDictionary
281
     1
  3
ACAD_CIP_PREVIOUS_PRODUCT_INFO
350
216
  3
ACAD_COLOR
350
6B
  3
ACAD_DETAILVIEWSTYLE
350
21B
  3
ACAD_GROUP
350
D
  3
ACAD_LAYOUT
350
1A
  3
ACAD_MATERIAL
350
6A
  3
ACAD_MLEADERSTYLE
350
12D
  3
ACAD_MLINESTYLE
350
17
  3
ACAD_PLOTSETTINGS
350
19
  3
ACAD_PLOTSTYLENAME
350
E
  3
ACAD_SCALELIST
350
10C
  3
ACAD_SECTIONVIEWSTYLE
350
219
  3
ACAD_TABLESTYLE
350
7E
  3
ACAD_VISUALSTYLE
350
EF
  3
ACDB_RECOMPOSE_DATA
350
13FE
  3
AcDbVariableDictionary
350
5E
  3
DWGPROPS
350
13FF
  0
DICTIONARY
  5
134E
330
8
100
AcDbDictionary
280
     1
281
     1
  0
DICTIONARY
  5
1FF
330
2
100
AcDbDictionary
280
     1
281
     1
  3
ACAD_LAYERSTATES
360
200
  0
DICTIONARY
  5
13C
330
10
100
AcDbDictionary
280
     1
281
     1
  0
DICTIONARY
  5
1CE
330
1F
100
AcDbDictionary
280
     1
281
     1
  3
ACAD_LAYOUTSELFREF
360
1356
  0
DICTIONARY
  5
1301
330
D2
100
AcDbDictionary
280
     1
281
     1
  3
ACAD_LAYOUTSELFREF
360
135F
  0
DICTIONARY
  5
1303
330
D6
100
AcDbDictionary
280
     1
281
     1
  3
ACAD_LAYOUTSELFREF
360
1362
  0
XRECORD
  5
216
102
{ACAD_REACTORS
330
C
102
}
330
C
100
AcDbXrecord
280
     1
300
ACD
300
2021
300

  0
DICTIONARY
  5
6B
102
{ACAD_REACTORS
330
C
102
}
330
C
100
AcDbDictionary
281
     1
  0
DICTIONARY
  5
21B
102
{ACAD_REACTORS
330
C
102
}
330
C
100
AcDbDictionary
281
     1
  3
Metric50
350
21C
  0
DICTIONARY
  5
D
102
{ACAD_REACTORS
330
C
102
}
330
C
100
AcDbDictionary
281
     1
  0
DICTIONARY
  5
1A
102
{ACAD_REACTORS
330
C
102
}
330
C
100
AcDbDictionary
281
     1
  3
Layout1
350
D3
  3
Layout2
350
D7
  3
Model
350
22
  0
DICTIONARY
  5
6A
102
{ACAD_REACTORS
330
C
102
}
330
C
100
AcDbDictionary
281
     1
  3
ByBlock
350
ED
  3
ByLayer
350
EC
  3
Global
350
EE
  0
DICTIONARY
  5
12D
102
{ACAD_REACTORS
330
C
102
}
330
C
100
AcDbDictionary
281
     1
  3
Standard
350
12E
  0
DICTIONARY
  5
17
102
{ACAD_REACTORS
330
C
102
}
330
C
100
AcDbDictionary
281
     1
  3
Standard
350
18
  0
DICTIONARY
  5
19
102
{ACAD_REACTORS
330
C
102
}
330
C
100
AcDbDictionary
281
     1
  0
ACDBDICTIONARYWDFLT
  5
E
102
{ACAD_REACTORS
330
C
102
}
330
C
100
AcDbDictionary
281
     1
  3
Normal
350
F
100
AcDbDictionaryWithDefault
340
F
  0
DICTIONARY
  5
10C
102
{ACAD_REACTORS
330
C
102
}
330
C
100
AcDbDictionary
281
     1
  3
A0
350
10D
  3
A1
350
1BE
  3
A2
350
1BF
  3
A3
350
1C0
  3
A4
350
1C1
  3
A5
350
1C2
  3
A6
350
1C3
  3
A7
350
1C4
  3
A8
350
1C5
  3
A9
350
1C6
  3
B0
350
1C7
  3
B1
350
1C8
  3
B2
350
1C9
  3
B3
350
1CA
  3
B4
350
1CB
  3
B5
350
1CC
  3
B6
350
1CD
  0
DICTIONARY
  5
219
102
{ACAD_REACTORS
330
C
102
}
330
C
100
AcDbDictionary
281
     1
  3
Metric50
350
21A
  0
DICTIONARY
  5
7E
102
{ACAD_REACTORS
330
C
102
}
330
C
100
AcDbDictionary
281
     1
  3
Standard
350
7F
  0
DICTIONARY
  5
EF
102
{ACAD_REACTORS
330
C
102
}
330
C
100
AcDbDictionary
281
     1
  3
2dWireframe
350
F5
  3
Basic
350
F4
  3
Brighten
350
FB
  3
ColorChange
350
FF
  3
Conceptual
350
F8
  3
Dim
350
FA
  3
EdgeColorOff
350
1E6
  3
Facepattern
350
FE
  3
Flat
350
F0
  3
FlatWithEdges
350
F1
  3
Gouraud
350
F2
  3
GouraudWithEdges
350
F3
  3
Hidden
350
F7
  3
JitterOff
350
1E4
  3
Linepattern
350
FD
  3
OverhangOff
350
1E5
  3
Realistic
350
F9
  3
Shaded
350
1F3
  3
Shaded with edges
350
1F2
  3
Shades of Gray
350
1EF
  3
Sketchy
350
1F0
  3
Thicken
350
FC
  3
Wireframe
350
F6
  3
X-Ray
350
1F1
  0
XRECORD
  5
13FE
102
{ACAD_REACTORS
330
C
102
}
330
C
100
AcDbXrecord
280
     1
 90
        1
330
7F
  0
DICTIONARY
  5
5E
102
{ACAD_REACTORS
330
C
102
}
330
C
100
AcDbDictionary
281
     1
  3
CANNOSCALE
350
146
  3
CENTEREXE
350
259
  3
CENTERLTYPEFILE
350
25A
  3
CMLEADERSTYLE
350
145
  3
CTABLESTYLE
350
84
  3
CVIEWDETAILSTYLE
350
227
  3
CVIEWSECTIONSTYLE
350
228
  3
DIMASSOC
350
5F
  3
HIDETEXT
350
63
  3
INDEXCTL
350
13AB
  3
LAYEREVAL
350
1AE
  3
LAYERNOTIFY
350
1AF
  3
LIGHTINGUNITS
350
13A9
  3
MSLTSCALE
350
13A8
  3
PSOLHEIGHT
350
13FB
  3
PSOLWIDTH
350
13FA
  3
SORTENTS
350
13AA
  3
XCLIPFRAME
350
13FC
  0
XRECORD
  5
13FF
102
{ACAD_REACTORS
330
C
102
}
330
C
100
AcDbXrecord
280
     1
  1
DWGPROPS COOKIE
  2

  3

  4

  6

  7

  8
tronnguyen
  9

300
=
301
=
302
=
303
=
304
=
305
=
306
=
307
=
308
=
309
=
 40
0.0034490740740741
 41
2460367.705740741
 42
2460367.710601852
  1

 90
        0
  0
DICTIONARY
  5
200
102
{ACAD_REACTORS
330
1FF
102
}
330
1FF
100
AcDbDictionary
281
     1
  0
XRECORD
  5
1356
102
{ACAD_REACTORS
330
1CE
102
}
330
1CE
100
AcDbXrecord
280
     1
340
1F
  0
XRECORD
  5
135F
102
{ACAD_REACTORS
330
1301
102
}
330
1301
100
AcDbXrecord
280
     1
340
D2
  0
XRECORD
  5
1362
102
{ACAD_REACTORS
330
1303
102
}
330
1303
100
AcDbXrecord
280
     1
340
D6
  0
ACDBDETAILVIEWSTYLE
  5
21C
102
{ACAD_XDICTIONARY
360
143E
102
}
102
{ACAD_REACTORS
330
21B
102
}
330
21B
100
AcDbModelDocViewStyle
 70
     0
  3
Metric50
290
     0
100
AcDbDetailViewStyle
 70
     0
 71
     0
 90
        3
 71
     1
340
11
 40
5.0
340
0
 40
5.0
300

 40
0.0
280
     1
 71
     2
340
16
 90
       25
 71
     3
340
11
 40
5.0
 90
        0
 40
15.0
 90
        1
300
%<\AcVar ViewDetailId>% (%<\AcVar ViewScale \f "%sn">%)
 71
     4
340
16
 90
       25
340
16
 90
       25
280
     0
  0
LAYOUT
  5
D3
102
{ACAD_XDICTIONARY
360
1403
102
}
102
{ACAD_REACTORS
330
1A
102
}
330
1A
100
AcDbPlotSettings
  1

  2
C:\Documents and Settings\basas\Application Data\Autodesk\AutoCAD 2005\R16.1\enu\plotters\Default Windows System Printer.pc3
  4

  6

 40
0.0
 41
0.0
 42
0.0
 43
0.0
 44
0.0
 45
0.0
 46
0.0
 47
0.0
 48
0.0
 49
0.0
140
0.0
141
0.0
142
1.0
143
1.0
 70
   688
 72
     0
 73
     0
 74
     5
  7

 75
    16
147
1.0
148
0.0
149
0.0
100
AcDbLayout
  1
Layout1
 70
     1
 71
     1
 10
0.0
 20
0.0
 11
12.0
 21
9.0
 12
0.0
 22
0.0
 32
0.0
 14
0.0
 24
0.0
 34
0.0
 15
0.0
 25
0.0
 35
0.0
146
0.0
 13
0.0
 23
0.0
 33
0.0
 16
1.0
 26
0.0
 36
0.0
 17
0.0
 27
1.0
 37
0.0
 76
     0
330
D2
  0
LAYOUT
  5
D7
102
{ACAD_XDICTIONARY
360
1405
102
}
102
{ACAD_REACTORS
330
1A
102
}
330
1A
100
AcDbPlotSettings
  1

  2
C:\Documents and Settings\basas\Application Data\Autodesk\AutoCAD 2005\R16.1\enu\plotters\Default Windows System Printer.pc3
  4

  6

 40
0.0
 41
0.0
 42
0.0
 43
0.0
 44
0.0
 45
0.0
 46
0.0
 47
0.0
 48
0.0
 49
0.0
140
0.0
141
0.0
142
1.0
143
1.0
 70
   688
 72
     0
 73
     0
 74
     5
  7

 75
    16
147
1.0
148
0.0
149
0.0
100
AcDbLayout
  1
Layout2
 70
     1
 71
     2
 10
0.0
 20
0.0
 11
12.0
 21
9.0
 12
0.0
 22
0.0
 32
0.0
 14
0.0
 24
0.0
 34
0.0
 15
0.0
 25
0.0
 35
0.0
146
0.0
 13
0.0
 23
0.0
 33
0.0
 16
1.0
 26
0.0
 36
0.0
 17
0.0
 27
1.0
 37
0.0
 76
     0
330
D6
  0
LAYOUT
  5
22
102
{ACAD_XDICTIONARY
360
1400
102
}
102
{ACAD_REACTORS
330
1A
102
}
330
1A
100
AcDbPlotSettings
  1

  2
none_device
  4
ISO_A4_(210.00_x_297.00_MM)
  6

 40
7.5
 41
20.0
 42
7.5
 43
20.0
 44
210.0
 45
297.0
 46
11.54999923706054
 47
-13.65000009536743
 48
0.0
 49
0.0
140
0.0
141
0.0
142
1.0
143
8.704084754739808
 70
 11952
 72
     1
 73
     0
 74
     0
  7

 75
     0
147
0.1148885871608098
148
0.0
149
0.0
100
AcDbLayout
  1
Model
 70
     1
 71
     0
 10
0.0
 20
0.0
 11
12.0
 21
9.0
 12
0.0
 22
0.0
 32
0.0
 14
0.0
 24
0.0
 34
0.0
 15
0.0
 25
0.0
 35
0.0
146
0.0
 13
0.0
 23
0.0
 33
0.0
 16
1.0
 26
0.0
 36
0.0
 17
0.0
 27
1.0
 37
0.0
 76
     0
330
1F
331
EA
1001
ACAD_PSEXT
1000
None
1000
None
1000
Not applicable
1000
The layout will not be plotted unless a new plotter configuration name is selected.
1070
     0
  0
MATERIAL
  5
ED
102
{ACAD_XDICTIONARY
360
1F9
102
}
102
{ACAD_REACTORS
330
6A
102
}
330
6A
100
AcDbMaterial
  1
ByBlock
  0
MATERIAL
  5
EC
102
{ACAD_XDICTIONARY
360
1F7
102
}
102
{ACAD_REACTORS
330
6A
102
}
330
6A
100
AcDbMaterial
  1
ByLayer
  0
MATERIAL
  5
EE
102
{ACAD_XDICTIONARY
360
173
102
}
102
{ACAD_REACTORS
330
6A
102
}
330
6A
100
AcDbMaterial
  1
Global
 43
0.0007999999797903
 43
0.0
 43
0.0
 43
0.0
 43
0.0
 43
0.0007999999797903
 43
0.0
 43
0.0
 43
0.0
 43
0.0
 43
1.0
 43
0.0
 43
0.0
 43
0.0
 43
0.0
 43
1.0
 49
0.0007999999797903
 49
0.0
 49
0.0
 49
0.0
 49
0.0
 49
0.0007999999797903
 49
0.0
 49
0.0
 49
0.0
 49
0.0
 49
1.0
 49
0.0
 49
0.0
 49
0.0
 49
0.0
 49
1.0
142
0.0007999999797903
142
0.0
142
0.0
142
0.0
142
0.0
142
0.0007999999797903
142
0.0
142
0.0
142
0.0
142
0.0
142
1.0
142
0.0
142
0.0
142
0.0
142
0.0
142
1.0
144
0.0007999999797903
144
0.0
144
0.0
144
0.0
144
0.0
144
0.0007999999797903
144
0.0
144
0.0
144
0.0
144
0.0
144
1.0
144
0.0
144
0.0
144
0.0
144
0.0
144
1.0
1001
ACAD
1070
    -1
1070
     3
1070
     0
1000

1071
        0
1070
     0
  0
MLEADERSTYLE
  5
12E
102
{ACAD_XDICTIONARY
360
142A
102
}
102
{ACAD_REACTORS
330
12D
102
}
330
12D
100
AcDbMLeaderStyle
170
     2
171
     1
172
     0
 90
        2
 40
0.0
 41
0.0
173
     1
 91
-1056964608
340
14
 92
       -2
290
     1
 42
2.0
291
     1
 43
8.0
  3
Standard
 44
4.0
300

342
11
174
     1
178
     1
175
     1
176
     0
 93
-1056964608
 45
4.0
292
     0
297
     0
 46
4.0
 94
-1056964608
 47
1.0
 49
1.0
140
1.0
293
     1
141
0.0
294
     1
177
     0
142
1.0
295
     0
296
     0
143
3.75
1001
ACAD_MLEADERVER
1070
     2
  0
MLINESTYLE
  5
18
102
{ACAD_REACTORS
330
17
102
}
330
17
100
AcDbMlineStyle
  2
STANDARD
 70
     0
  3

 62
   256
 51
90.0
 52
90.0
 71
     2
 49
0.5
 62
   256
  6
BYLAYER
 49
-0.5
 62
   256
  6
BYLAYER
  0
ACDBPLACEHOLDER
  5
F
102
{ACAD_REACTORS
330
E
102
}
330
E
  0
SCALE
  5
10D
102
{ACAD_REACTORS
330
10C
102
}
330
10C
100
AcDbScale
 70
     0
300
1:1
140
1.0
141
1.0
290
     1
  0
SCALE
  5
1BE
102
{ACAD_REACTORS
330
10C
102
}
330
10C
100
AcDbScale
 70
     0
300
1:2
140
1.0
141
2.0
290
     0
  0
SCALE
  5
1BF
102
{ACAD_REACTORS
330
10C
102
}
330
10C
100
AcDbScale
 70
     0
300
1:4
140
1.0
141
4.0
290
     0
  0
SCALE
  5
1C0
102
{ACAD_REACTORS
330
10C
102
}
330
10C
100
AcDbScale
 70
     0
300
1:5
140
1.0
141
5.0
290
     0
  0
SCALE
  5
1C1
102
{ACAD_REACTORS
330
10C
102
}
330
10C
100
AcDbScale
 70
     0
300
1:8
140
1.0
141
8.0
290
     0
  0
SCALE
  5
1C2
102
{ACAD_REACTORS
330
10C
102
}
330
10C
100
AcDbScale
 70
     0
300
1:10
140
1.0
141
10.0
290
     0
  0
SCALE
  5
1C3
102
{ACAD_REACTORS
330
10C
102
}
330
10C
100
AcDbScale
 70
     0
300
1:16
140
1.0
141
16.0
290
     0
  0
SCALE
  5
1C4
102
{ACAD_REACTORS
330
10C
102
}
330
10C
100
AcDbScale
 70
     0
300
1:20
140
1.0
141
20.0
290
     0
  0
SCALE
  5
1C5
102
{ACAD_REACTORS
330
10C
102
}
330
10C
100
AcDbScale
 70
     0
300
1:30
140
1.0
141
30.0
290
     0
  0
SCALE
  5
1C6
102
{ACAD_REACTORS
330
10C
102
}
330
10C
100
AcDbScale
 70
     0
300
1:40
140
1.0
141
40.0
290
     0
  0
SCALE
  5
1C7
102
{ACAD_REACTORS
330
10C
102
}
330
10C
100
AcDbScale
 70
     0
300
1:50
140
1.0
141
50.0
290
     0
  0
SCALE
  5
1C8
102
{ACAD_REACTORS
330
10C
102
}
330
10C
100
AcDbScale
 70
     0
300
1:100
140
1.0
141
100.0
290
     0
  0
SCALE
  5
1C9
102
{ACAD_REACTORS
330
10C
102
}
330
10C
100
AcDbScale
 70
     0
300
2:1
140
2.0
141
1.0
290
     0
  0
SCALE
  5
1CA
102
{ACAD_REACTORS
330
10C
102
}
330
10C
100
AcDbScale
 70
     0
300
4:1
140
4.0
141
1.0
290
     0
  0
SCALE
  5
1CB
102
{ACAD_REACTORS
330
10C
102
}
330
10C
100
AcDbScale
 70
     0
300
8:1
140
8.0
141
1.0
290
     0
  0
SCALE
  5
1CC
102
{ACAD_REACTORS
330
10C
102
}
330
10C
100
AcDbScale
 70
     0
300
10:1
140
10.0
141
1.0
290
     0
  0
SCALE
  5
1CD
102
{ACAD_REACTORS
330
10C
102
}
330
10C
100
AcDbScale
 70
     0
300
100:1
140
100.0
141
1.0
290
     0
  0
ACDBSECTIONVIEWSTYLE
  5
21A
102
{ACAD_XDICTIONARY
360
143C
102
}
102
{ACAD_REACTORS
330
219
102
}
330
219
100
AcDbModelDocViewStyle
 70
     0
  3
Metric50
290
     0
100
AcDbSectionViewStyle
 70
     0
 71
     0
 90
      102
 71
     1
340
11
 40
5.0
340
0
340
0
 40
5.0
300
I, O, Q, S, X, Z
 40
10.0
 90
        0
 40
2.5
 90
        0
 71
     2
340
16
 90
       25
340
16
 90
       50
 40
5.0
 40
2.5
 40
5.0
 71
     3
340
11
 40
5.0
 90
        0
 40
15.0
 90
        1
300
%<\AcVar ViewSectionStartId>%-%<\AcVar ViewSectionEndId>% (%<\AcVar ViewScale \f "%sn">%)
 71
     4
300
ANSI31
 40
1.0
 90
        0
290
     0
290
     0
 90
        6
 40
0.0
 40
1.570796326794896
 40
0.2617993877991494
 40
1.308996938995747
 40
-0.2617993877991494
 40
1.832595714594046
  0
TABLESTYLE
  5
7F
102
{ACAD_XDICTIONARY
360
162
102
}
102
{ACAD_REACTORS
330
7E
102
}
330
7E
100
AcDbTableStyle
  3
Standard
 70
     0
 71
     0
 40
1.5
 41
1.5
280
     0
281
     0
  7
Standard
140
4.5
170
     2
 62
     0
 63
     7
283
     0
274
    -2
284
     1
 64
     0
275
    -2
285
     1
 65
     0
276
    -2
286
     1
 66
     0
277
    -2
287
     1
 67
     0
278
    -2
288
     1
 68
     0
279
    -2
289
     1
 69
     0
  7
Standard
140
6.0
170
     5
 62
     0
 63
     7
283
     0
274
    -2
284
     1
 64
     0
275
    -2
285
     1
 65
     0
276
    -2
286
     1
 66
     0
277
    -2
287
     1
 67
     0
278
    -2
288
     1
 68
     0
279
    -2
289
     1
 69
     0
  7
Standard
140
4.5
170
     5
 62
     0
 63
     7
283
     0
274
    -2
284
     1
 64
     0
275
    -2
285
     1
 65
     0
276
    -2
286
     1
 66
     0
277
    -2
287
     1
 67
     0
278
    -2
288
     1
 68
     0
279
    -2
289
     1
 69
     0
  0
VISUALSTYLE
  5
F5
102
{ACAD_XDICTIONARY
360
1414
102
}
102
{ACAD_REACTORS
330
EF
102
}
330
EF
100
AcDbVisualStyle
  2
2dWireframe
 70
     4
 71
     0
 72
     2
 73
     1
 90
        0
 40
-0.6
 41
-30.0
 62
     5
 63
     7
 74
     1
 91
        4
 64
     7
 65
   257
 75
     1
175
     1
 42
1.0
 92
        0
 66
   257
 43
1.0
 76
     1
 77
     6
 78
     2
 67
     7
 79
     5
170
     0
171
     0
290
     0
174
     0
 93
        1
 44
0.0
173
     0
291
     0
 45
0.0
1001
ACAD
1000
AcDbSavedByObjectVersion
1070
     0
  0
VISUALSTYLE
  5
F4
102
{ACAD_XDICTIONARY
360
1412
102
}
102
{ACAD_REACTORS
330
EF
102
}
330
EF
100
AcDbVisualStyle
  2
Basic
 70
     7
 71
     1
 72
     0
 73
     1
 90
        0
 40
-0.6
 41
-30.0
 62
     5
 63
     7
 74
     0
 91
        4
 64
     7
 65
   257
 75
     1
175
     1
 42
1.0
 92
        8
 66
     7
 43
1.0
 76
     1
 77
     6
 78
     2
 67
     7
 79
     5
170
     0
171
     0
290
     0
174
     0
 93
        1
 44
0.0
173
     0
291
     1
 45
0.0
1001
ACAD
1000
AcDbSavedByObjectVersion
1070
     0
  0
VISUALSTYLE
  5
FB
102
{ACAD_XDICTIONARY
360
1420
102
}
102
{ACAD_REACTORS
330
EF
102
}
330
EF
100
AcDbVisualStyle
  2
Brighten
 70
    12
 71
     2
 72
     2
 73
     1
 90
        0
 40
-0.6
 41
-30.0
 62
     5
 63
     7
 74
     1
 91
        4
 64
     7
 65
   257
 75
     1
175
     1
 42
1.0
 92
        8
 66
     7
 43
1.0
 76
     1
 77
     6
 78
     2
 67
     7
 79
     5
170
     0
171
     0
290
     0
174
     0
 93
        1
 44
50.0
173
     0
291
     1
 45
0.0
1001
ACAD
1000
AcDbSavedByObjectVersion
1070
     0
  0
VISUALSTYLE
  5
FF
102
{ACAD_XDICTIONARY
360
1428
102
}
102
{ACAD_REACTORS
330
EF
102
}
330
EF
100
AcDbVisualStyle
  2
ColorChange
 70
    16
 71
     2
 72
     2
 73
     3
 90
        0
 40
-0.6
 41
-30.0
 62
     5
 63
     8
 74
     1
 91
        4
 64
     7
 65
   257
 75
     1
175
     1
 42
1.0
 92
        8
 66
     8
 43
1.0
 76
     1
 77
     6
 78
     2
 67
     7
 79
     5
170
     0
171
     0
290
     0
174
     0
 93
        1
 44
0.0
173
     0
291
     1
 45
0.0
1001
ACAD
1000
AcDbSavedByObjectVersion
1070
     0
  0
VISUALSTYLE
  5
F8
102
{ACAD_XDICTIONARY
360
141A
102
}
102
{ACAD_REACTORS
330
EF
102
}
330
EF
100
AcDbVisualStyle
  2
Conceptual
 70
     9
 71
     3
 72
     2
 73
     1
 90
        0
 40
-0.6
 41
-30.0
 62
     5
 63
     7
 74
     2
 91
        2
 64
     7
 65
   257
 75
     1
175
     1
 42
40.0
 92
        8
 66
     7
 43
1.0
 76
     1
 77
     6
 78
     2
 67
     7
 79
     3
170
     0
171
     0
290
     0
174
     0
 93
        1
 44
0.0
173
     0
291
     0
 45
0.0
1001
ACAD
1000
AcDbSavedByObjectVersion
1070
     0
  0
VISUALSTYLE
  5
FA
102
{ACAD_XDICTIONARY
360
141E
102
}
102
{ACAD_REACTORS
330
EF
102
}
330
EF
100
AcDbVisualStyle
  2
Dim
 70
    11
 71
     2
 72
     2
 73
     1
 90
        0
 40
-0.6
 41
-30.0
 62
     5
 63
     7
 74
     1
 91
        4
 64
     7
 65
   257
 75
     1
175
     1
 42
1.0
 92
        8
 66
     7
 43
1.0
 76
     1
 77
     6
 78
     2
 67
     7
 79
     5
170
     0
171
     0
290
     0
174
     0
 93
        1
 44
-50.0
173
     0
291
     1
 45
0.0
1001
ACAD
1000
AcDbSavedByObjectVersion
1070
     0
  0
VISUALSTYLE
  5
1E6
102
{ACAD_XDICTIONARY
360
1430
102
}
102
{ACAD_REACTORS
330
EF
102
}
330
EF
100
AcDbVisualStyle
  2
EdgeColorOff
 70
    22
 71
     2
 72
     2
 73
     0
 90
        0
 40
-0.6
 41
-30.0
 62
     5
 63
     7
 74
     1
 91
        4
 64
     7
 65
   257
 75
     1
175
     1
 42
1.0
 92
        8
 66
     7
 43
1.0
 76
     1
 77
     6
 78
     2
 67
     7
 79
     5
170
     0
171
     0
290
     0
174
     0
 93
        1
 44
0.0
173
     0
291
     1
 45
0.0
1001
ACAD
1000
AcDbSavedByObjectVersion
1070
     0
  0
VISUALSTYLE
  5
FE
102
{ACAD_XDICTIONARY
360
1426
102
}
102
{ACAD_REACTORS
330
EF
102
}
330
EF
100
AcDbVisualStyle
  2
Facepattern
 70
    15
 71
     2
 72
     2
 73
     1
 90
        0
 40
-0.6
 41
-30.0
 62
     5
 63
     7
 74
     1
 91
        4
 64
     7
 65
   257
 75
     1
175
     1
 42
1.0
 92
        8
 66
     7
 43
1.0
 76
     1
 77
     6
 78
     2
 67
     7
 79
     5
170
     0
171
     0
290
     0
174
     0
 93
        1
 44
0.0
173
     0
291
     1
 45
0.0
1001
ACAD
1000
AcDbSavedByObjectVersion
1070
     0
  0
VISUALSTYLE
  5
F0
102
{ACAD_XDICTIONARY
360
140A
102
}
102
{ACAD_REACTORS
330
EF
102
}
330
EF
100
AcDbVisualStyle
  2
Flat
 70
     0
 71
     2
 72
     1
 73
     1
 90
        2
 40
-0.6
 41
30.0
 62
     5
 63
     7
 74
     0
 91
        0
 64
     7
 65
   257
 75
     1
175
     1
 42
1.0
 92
        8
 66
     7
 43
1.0
 76
     1
 77
     6
 78
     2
 67
     7
 79
     5
170
     0
171
     0
290
     0
174
     0
 93
       13
 44
0.0
173
     0
291
     1
 45
0.0
1001
ACAD
1000
AcDbSavedByObjectVersion
1070
     0
  0
VISUALSTYLE
  5
F1
102
{ACAD_XDICTIONARY
360
140C
102
}
102
{ACAD_REACTORS
330
EF
102
}
330
EF
100
AcDbVisualStyle
  2
FlatWithEdges
 70
     1
 71
     2
 72
     1
 73
     1
 90
        2
 40
-0.6
 41
30.0
 62
     5
 63
     7
 74
     1
 91
        0
 64
     7
 65
   257
 75
     1
175
     1
 42
1.0
 92
        0
 66
   257
 43
1.0
 76
     1
 77
     6
 78
     2
 67
     7
 79
     5
170
     0
171
     0
290
     0
174
     0
 93
       13
 44
0.0
173
     0
291
     1
 45
0.0
1001
ACAD
1000
AcDbSavedByObjectVersion
1070
     0
  0
VISUALSTYLE
  5
F2
102
{ACAD_XDICTIONARY
360
140E
102
}
102
{ACAD_REACTORS
330
EF
102
}
330
EF
100
AcDbVisualStyle
  2
Gouraud
 70
     2
 71
     2
 72
     2
 73
     1
 90
        2
 40
-0.6
 41
30.0
 62
     5
 63
     7
 74
     0
 91
        0
 64
     7
 65
   257
 75
     1
175
     1
 42
1.0
 92
        0
 66
     7
 43
1.0
 76
     1
 77
     6
 78
     2
 67
     7
 79
     5
170
     0
171
     0
290
     0
174
     0
 93
       13
 44
0.0
173
     0
291
     1
 45
0.0
1001
ACAD
1000
AcDbSavedByObjectVersion
1070
     0
  0
VISUALSTYLE
  5
F3
102
{ACAD_XDICTIONARY
360
1410
102
}
102
{ACAD_REACTORS
330
EF
102
}
330
EF
100
AcDbVisualStyle
  2
GouraudWithEdges
 70
     3
 71
     2
 72
     2
 73
     1
 90
        2
 40
-0.6
 41
30.0
 62
     5
 63
     7
 74
     1
 91
        0
 64
     7
 65
   257
 75
     1
175
     1
 42
1.0
 92
        0
 66
   257
 43
1.0
 76
     1
 77
     6
 78
     2
 67
     7
 79
     5
170
     0
171
     0
290
     0
174
     0
 93
       13
 44
0.0
173
     0
291
     1
 45
0.0
1001
ACAD
1000
AcDbSavedByObjectVersion
1070
     0
  0
VISUALSTYLE
  5
F7
102
{ACAD_XDICTIONARY
360
1418
102
}
102
{ACAD_REACTORS
330
EF
102
}
330
EF
100
AcDbVisualStyle
  2
Hidden
 70
     6
 71
     1
 72
     2
 73
     2
 90
        0
 40
-0.6
 41
-30.0
 62
     5
 63
     7
 74
     2
 91
        2
 64
     7
 65
   257
 75
     2
175
     1
 42
40.0
 92
        0
 66
   257
 43
1.0
 76
     1
 77
     6
 78
     2
 67
     7
 79
     3
170
     0
171
     0
290
     0
174
     0
 93
        1
 44
0.0
173
     0
291
     0
 45
0.0
1001
ACAD
1000
AcDbSavedByObjectVersion
1070
     0
  0
VISUALSTYLE
  5
1E4
102
{ACAD_XDICTIONARY
360
142C
102
}
102
{ACAD_REACTORS
330
EF
102
}
330
EF
100
AcDbVisualStyle
  2
JitterOff
 70
    20
 71
     2
 72
     2
 73
     0
 90
        0
 40
-0.6
 41
-30.0
 62
     5
 63
     7
 74
     1
 91
        4
 64
     7
 65
   257
 75
     1
175
     1
 42
1.0
 92
       10
 66
     7
 43
1.0
 76
     1
 77
     6
 78
     2
 67
     7
 79
     5
170
     0
171
     0
290
     0
174
     0
 93
        1
 44
0.0
173
     0
291
     1
 45
0.0
1001
ACAD
1000
AcDbSavedByObjectVersion
1070
     0
  0
VISUALSTYLE
  5
FD
102
{ACAD_XDICTIONARY
360
1424
102
}
102
{ACAD_REACTORS
330
EF
102
}
330
EF
100
AcDbVisualStyle
  2
Linepattern
 70
    14
 71
     2
 72
     2
 73
     1
 90
        0
 40
-0.6
 41
-30.0
 62
     5
 63
     7
 74
     1
 91
        4
 64
     7
 65
   257
 75
     7
175
     7
 42
1.0
 92
        8
 66
     7
 43
1.0
 76
     1
 77
     6
 78
     2
 67
     7
 79
     5
170
     0
171
     0
290
     0
174
     0
 93
        1
 44
0.0
173
     0
291
     1
 45
0.0
1001
ACAD
1000
AcDbSavedByObjectVersion
1070
     0
  0
VISUALSTYLE
  5
1E5
102
{ACAD_XDICTIONARY
360
142E
102
}
102
{ACAD_REACTORS
330
EF
102
}
330
EF
100
AcDbVisualStyle
  2
OverhangOff
 70
    21
 71
     2
 72
     2
 73
     0
 90
        0
 40
-0.6
 41
-30.0
 62
     5
 63
     7
 74
     1
 91
        4
 64
     7
 65
   257
 75
     1
175
     1
 42
1.0
 92
        9
 66
     7
 43
1.0
 76
     1
 77
     6
 78
     2
 67
     7
 79
     5
170
     0
171
     0
290
     0
174
     0
 93
        1
 44
0.0
173
     0
291
     1
 45
0.0
1001
ACAD
1000
AcDbSavedByObjectVersion
1070
     0
  0
VISUALSTYLE
  5
F9
102
{ACAD_XDICTIONARY
360
141C
102
}
102
{ACAD_REACTORS
330
EF
102
}
330
EF
100
AcDbVisualStyle
  2
Realistic
 70
     8
 71
     2
 72
     2
 73
     0
 90
        2
 40
-0.6
 41
30.0
 62
     5
 63
     7
 74
     0
 91
        0
 64
     7
 65
   257
 75
     1
175
     1
 42
1.0
 92
        8
 66
   257
 43
1.0
 76
     1
 77
     6
 78
     2
 67
     7
 79
     3
170
     0
171
     0
290
     0
174
     0
 93
       13
 44
0.0
173
     0
291
     0
 45
0.0
1001
ACAD
1000
AcDbSavedByObjectVersion
1070
     0
  0
VISUALSTYLE
  5
1F3
102
{ACAD_XDICTIONARY
360
143A
102
}
102
{ACAD_REACTORS
330
EF
102
}
330
EF
100
AcDbVisualStyle
  2
Shaded
 70
    27
 71
     2
 72
     2
 73
     1
 90
        2
 40
-0.6
 41
30.0
 62
     5
 63
     7
 74
     0
 91
        4
 64
     7
 65
   257
 75
     1
175
     1
 42
1.0
 92
        8
 66
   257
 43
1.0
 76
     1
 77
     6
 78
     2
 67
     8
 79
     3
170
     0
171
     0
290
     0
174
     0
 93
        5
 44
0.0
173
     0
291
     0
 45
0.0
1001
ACAD
1000
AcDbSavedByObjectVersion
1070
     0
  0
VISUALSTYLE
  5
1F2
102
{ACAD_XDICTIONARY
360
1438
102
}
102
{ACAD_REACTORS
330
EF
102
}
330
EF
100
AcDbVisualStyle
  2
Shaded with edges
 70
    26
 71
     2
 72
     2
 73
     1
 90
        2
 40
-0.6
 41
30.0
 62
     5
 63
     7
 74
     1
 91
        2
 64
     7
 65
   257
 75
     2
175
     1
 42
1.0
 92
        8
 66
   257
 43
1.0
 76
     1
 77
     6
 78
     2
 67
     7
 79
     3
170
     0
171
     0
290
     0
174
     0
 93
        5
 44
0.0
173
     0
291
     0
 45
0.0
1001
ACAD
1000
AcDbSavedByObjectVersion
1070
     0
  0
VISUALSTYLE
  5
1EF
102
{ACAD_XDICTIONARY
360
1432
102
}
102
{ACAD_REACTORS
330
EF
102
}
330
EF
100
AcDbVisualStyle
  2
Shades of Gray
 70
    23
 71
     2
 72
     2
 73
     3
 90
        0
 40
-0.6
 41
-30.0
 62
     5
 63
     7
 74
     2
 91
        2
 64
     7
 65
     7
 75
     1
175
     1
 42
40.0
 92
        8
 66
     7
 43
1.0
 76
     1
 77
     6
 78
     2
 67
     7
 79
     3
170
     0
171
     0
290
     0
174
     0
 93
        1
 44
0.0
173
     0
291
     0
 45
0.0
1001
ACAD
1000
AcDbSavedByObjectVersion
1070
     0
  0
VISUALSTYLE
  5
1F0
102
{ACAD_XDICTIONARY
360
1434
102
}
102
{ACAD_REACTORS
330
EF
102
}
330
EF
100
AcDbVisualStyle
  2
Sketchy
 70
    24
 71
     1
 72
     2
 73
     2
 90
        0
 40
-0.6
 41
-30.0
 62
     5
 63
     7
 74
     2
 91
        2
 64
     7
 65
     7
 75
     1
175
     1
 42
40.0
 92
       11
 66
     7
 43
1.0
 76
     1
 77
     6
 78
     2
 67
     7
 79
     6
170
     0
171
     0
290
     0
174
     0
 93
        1
 44
0.0
173
     0
291
     0
 45
0.0
1001
ACAD
1000
AcDbSavedByObjectVersion
1070
     0
  0
VISUALSTYLE
  5
FC
102
{ACAD_XDICTIONARY
360
1422
102
}
102
{ACAD_REACTORS
330
EF
102
}
330
EF
100
AcDbVisualStyle
  2
Thicken
 70
    13
 71
     2
 72
     2
 73
     1
 90
        0
 40
-0.6
 41
-30.0
 62
     5
 63
     7
 74
     1
 91
        4
 64
     7
 65
   257
 75
     1
175
     1
 42
1.0
 92
       12
 66
     7
 43
1.0
 76
     1
 77
     6
 78
     2
 67
     7
 79
     5
170
     0
171
     0
290
     0
174
     0
 93
        1
 44
0.0
173
     0
291
     1
 45
0.0
1001
ACAD
1000
AcDbSavedByObjectVersion
1070
     0
  0
VISUALSTYLE
  5
F6
102
{ACAD_XDICTIONARY
360
1416
102
}
102
{ACAD_REACTORS
330
EF
102
}
330
EF
100
AcDbVisualStyle
  2
Wireframe
 70
     5
 71
     0
 72
     2
 73
     0
 90
        0
 40
-0.6
 41
-30.0
 62
     5
 63
     7
 74
     1
 91
        4
 64
     7
 65
   257
 75
     1
175
     1
 42
1.0
 92
        0
 66
   257
 43
1.0
 76
     1
 77
     6
 78
     2
 67
     7
 79
     3
170
     0
171
     0
290
     0
174
     0
 93
        1
 44
0.0
173
     0
291
     0
 45
0.0
1001
ACAD
1000
AcDbSavedByObjectVersion
1070
     0
  0
VISUALSTYLE
  5
1F1
102
{ACAD_XDICTIONARY
360
1436
102
}
102
{ACAD_REACTORS
330
EF
102
}
330
EF
100
AcDbVisualStyle
  2
X-Ray
 70
    25
 71
     2
 72
     2
 73
     1
 90
        1
 40
0.5
 41
-30.0
 62
     5
 63
     7
 74
     1
 91
        0
 64
     7
 65
   257
 75
     1
175
     1
 42
1.0
 92
        8
 66
     7
 43
1.0
 76
     1
 77
     6
 78
     2
 67
     7
 79
     3
170
     0
171
     0
290
     0
174
     0
 93
       13
 44
0.0
173
     0
291
     0
 45
0.0
1001
ACAD
1000
AcDbSavedByObjectVersion
1070
     0
  0
DICTIONARYVAR
  5
146
102
{ACAD_REACTORS
330
5E
102
}
330
5E
100
DictionaryVariables
280
     0
  1
1:1
  0
DICTIONARYVAR
  5
259
102
{ACAD_REACTORS
330
5E
102
}
330
5E
100
DictionaryVariables
280
     0
  1
3.500000
  0
DICTIONARYVAR
  5
25A
102
{ACAD_REACTORS
330
5E
102
}
330
5E
100
DictionaryVariables
280
     0
  1
acadiso.lin
  0
DICTIONARYVAR
  5
145
102
{ACAD_REACTORS
330
5E
102
}
330
5E
100
DictionaryVariables
280
     0
  1
STANDARD
  0
DICTIONARYVAR
  5
84
102
{ACAD_REACTORS
330
5E
102
}
330
5E
100
DictionaryVariables
280
     0
  1
STANDARD
  0
DICTIONARYVAR
  5
227
102
{ACAD_REACTORS
330
5E
102
}
330
5E
100
DictionaryVariables
280
     0
  1
Metric50
  0
DICTIONARYVAR
  5
228
102
{ACAD_REACTORS
330
5E
102
}
330
5E
100
DictionaryVariables
280
     0
  1
Metric50
  0
DICTIONARYVAR
  5
5F
102
{ACAD_REACTORS
330
5E
102
}
330
5E
100
DictionaryVariables
280
     0
  1
2
  0
DICTIONARYVAR
  5
63
102
{ACAD_REACTORS
330
5E
102
}
330
5E
100
DictionaryVariables
280
     0
  1
1
  0
DICTIONARYVAR
  5
13AB
102
{ACAD_REACTORS
330
5E
102
}
330
5E
100
DictionaryVariables
280
     0
  1
0
  0
DICTIONARYVAR
  5
1AE
102
{ACAD_REACTORS
330
5E
102
}
330
5E
100
DictionaryVariables
280
     0
  1
0
  0
DICTIONARYVAR
  5
1AF
102
{ACAD_REACTORS
330
5E
102
}
330
5E
100
DictionaryVariables
280
     0
  1
0
  0
DICTIONARYVAR
  5
13A9
102
{ACAD_REACTORS
330
5E
102
}
330
5E
100
DictionaryVariables
280
     0
  1
2
  0
DICTIONARYVAR
  5
13A8
102
{ACAD_REACTORS
330
5E
102
}
330
5E
100
DictionaryVariables
280
     0
  1
1
  0
DICTIONARYVAR
  5
13FB
102
{ACAD_REACTORS
330
5E
102
}
330
5E
100
DictionaryVariables
280
     0
  1
80.000000
  0
DICTIONARYVAR
  5
13FA
102
{ACAD_REACTORS
330
5E
102
}
330
5E
100
DictionaryVariables
280
     0
  1
5.000000
  0
DICTIONARYVAR
  5
13AA
102
{ACAD_REACTORS
330
5E
102
}
330
5E
100
DictionaryVariables
280
     0
  1
127
  0
DICTIONARYVAR
  5
13FC
102
{ACAD_REACTORS
330
5E
102
}
330
5E
100
DictionaryVariables
280
     0
  1
2
  0
DICTIONARY
  5
143E
330
21C
100
AcDbDictionary
280
     1
281
     1
  3
ACAD_XREC_ROUNDTRIP
360
143F
  0
DICTIONARY
  5
1403
330
D3
100
AcDbDictionary
280
     1
281
     1
  3
ACAD_XREC_ROUNDTRIP
360
1404
  0
DICTIONARY
  5
1405
330
D7
100
AcDbDictionary
280
     1
281
     1
  3
ACAD_XREC_ROUNDTRIP
360
1406
  0
DICTIONARY
  5
1400
330
22
100
AcDbDictionary
280
     1
281
     1
  3
ACAD_XREC_ROUNDTRIP
360
1401
  0
DICTIONARY
  5
1F9
330
ED
100
AcDbDictionary
280
     1
281
     1
  3
ACAD_XREC_ROUNDTRIP
360
1408
  3
FBXASSET
360
1FA
  0
DICTIONARY
  5
1F7
330
EC
100
AcDbDictionary
280
     1
281
     1
  3
ACAD_XREC_ROUNDTRIP
360
1407
  3
FBXASSET
360
1F8
  0
DICTIONARY
  5
173
330
EE
100
AcDbDictionary
280
     1
281
     1
  3
ACAD_XREC_ROUNDTRIP
360
1409
  3
BUMPTILE
360
175
  3
DIFFUSETILE
360
174
  3
FBXASSET
360
1FB
  3
OPACITYTILE
360
176
  3
REFLECTIONTILE
360
177
  0
DICTIONARY
  5
142A
330
12E
100
AcDbDictionary
280
     1
281
     1
  3
ACAD_XREC_ROUNDTRIP
360
142B
  0
DICTIONARY
  5
143C
330
21A
100
AcDbDictionary
280
     1
281
     1
  3
ACAD_XREC_ROUNDTRIP
360
143D
  0
DICTIONARY
  5
162
330
7F
100
AcDbDictionary
280
     1
281
     1
  3
ACAD_ROUNDTRIP_2008_TABLESTYLE_CELLSTYLEMAP
360
13FD
  3
ACAD_XREC_ROUNDTRIP
360
1402
  0
DICTIONARY
  5
1414
330
F5
100
AcDbDictionary
280
     1
281
     1
  3
ACAD_XREC_ROUNDTRIP
360
1415
  0
DICTIONARY
  5
1412
330
F4
100
AcDbDictionary
280
     1
281
     1
  3
ACAD_XREC_ROUNDTRIP
360
1413
  0
DICTIONARY
  5
1420
330
FB
100
AcDbDictionary
280
     1
281
     1
  3
ACAD_XREC_ROUNDTRIP
360
1421
  0
DICTIONARY
  5
1428
330
FF
100
AcDbDictionary
280
     1
281
     1
  3
ACAD_XREC_ROUNDTRIP
360
1429
  0
DICTIONARY
  5
141A
330
F8
100
AcDbDictionary
280
     1
281
     1
  3
ACAD_XREC_ROUNDTRIP
360
141B
  0
DICTIONARY
  5
141E
330
FA
100
AcDbDictionary
280
     1
281
     1
  3
ACAD_XREC_ROUNDTRIP
360
141F
  0
DICTIONARY
  5
1430
330
1E6
100
AcDbDictionary
280
     1
281
     1
  3
ACAD_XREC_ROUNDTRIP
360
1431
  0
DICTIONARY
  5
1426
330
FE
100
AcDbDictionary
280
     1
281
     1
  3
ACAD_XREC_ROUNDTRIP
360
1427
  0
DICTIONARY
  5
140A
330
F0
100
AcDbDictionary
280
     1
281
     1
  3
ACAD_XREC_ROUNDTRIP
360
140B
  0
DICTIONARY
  5
140C
330
F1
100
AcDbDictionary
280
     1
281
     1
  3
ACAD_XREC_ROUNDTRIP
360
140D
  0
DICTIONARY
  5
140E
330
F2
100
AcDbDictionary
280
     1
281
     1
  3
ACAD_XREC_ROUNDTRIP
360
140F
  0
DICTIONARY
  5
1410
330
F3
100
AcDbDictionary
280
     1
281
     1
  3
ACAD_XREC_ROUNDTRIP
360
1411
  0
DICTIONARY
  5
1418
330
F7
100
AcDbDictionary
280
     1
281
     1
  3
ACAD_XREC_ROUNDTRIP
360
1419
  0
DICTIONARY
  5
142C
330
1E4
100
AcDbDictionary
280
     1
281
     1
  3
ACAD_XREC_ROUNDTRIP
360
142D
  0
DICTIONARY
  5
1424
330
FD
100
AcDbDictionary
280
     1
281
     1
  3
ACAD_XREC_ROUNDTRIP
360
1425
  0
DICTIONARY
  5
142E
330
1E5
100
AcDbDictionary
280
     1
281
     1
  3
ACAD_XREC_ROUNDTRIP
360
142F
  0
DICTIONARY
  5
141C
330
F9
100
AcDbDictionary
280
     1
281
     1
  3
ACAD_XREC_ROUNDTRIP
360
141D
  0
DICTIONARY
  5
143A
330
1F3
100
AcDbDictionary
280
     1
281
     1
  3
ACAD_XREC_ROUNDTRIP
360
143B
  0
DICTIONARY
  5
1438
330
1F2
100
AcDbDictionary
280
     1
281
     1
  3
ACAD_XREC_ROUNDTRIP
360
1439
  0
DICTIONARY
  5
1432
330
1EF
100
AcDbDictionary
280
     1
281
     1
  3
ACAD_XREC_ROUNDTRIP
360
1433
  0
DICTIONARY
  5
1434
330
1F0
100
AcDbDictionary
280
     1
281
     1
  3
ACAD_XREC_ROUNDTRIP
360
1435
  0
DICTIONARY
  5
1422
330
FC
100
AcDbDictionary
280
     1
281
     1
  3
ACAD_XREC_ROUNDTRIP
360
1423
  0
DICTIONARY
  5
1416
330
F6
100
AcDbDictionary
280
     1
281
     1
  3
ACAD_XREC_ROUNDTRIP
360
1417
  0
DICTIONARY
  5
1436
330
1F1
100
AcDbDictionary
280
     1
281
     1
  3
ACAD_XREC_ROUNDTRIP
360
1437
  0
XRECORD
  5
143F
102
{ACAD_REACTORS
330
143E
102
}
330
143E
100
AcDbXrecord
280
     1
102
DISPLAYNAME
  1
Metric50
102
FLAGS
 90
        0
  0
XRECORD
  5
1404
102
{ACAD_REACTORS
330
1403
102
}
330
1403
100
AcDbXrecord
280
     1
102
SHADEPLOT
 70
     0
102
SHADEPLOTRESLEVEL
 70
     2
102
SHADEPLOTCUSTOMDPI
 70
   300
  0
XRECORD
  5
1406
102
{ACAD_REACTORS
330
1405
102
}
330
1405
100
AcDbXrecord
280
     1
102
SHADEPLOT
 70
     0
102
SHADEPLOTRESLEVEL
 70
     2
102
SHADEPLOTCUSTOMDPI
 70
   300
  0
XRECORD
  5
1401
102
{ACAD_REACTORS
330
1400
102
}
330
1400
100
AcDbXrecord
280
     1
102
SHADEPLOT
 70
     0
102
SHADEPLOTRESLEVEL
 70
     2
102
SHADEPLOTCUSTOMDPI
 70
   300
  0
XRECORD
  5
1408
102
{ACAD_REACTORS
330
1F9
102
}
330
1F9
100
AcDbXrecord
280
     1
102
MATERIAL
148
0.0
149
0.0
149
0.0
 93
        0
 94
       63
282
     0
 72
     1
 77
     1
171
     1
175
     1
179
     1
273
     0
  0
XRECORD
  5
1FA
102
{ACAD_REACTORS
330
1F9
102
}
330
1F9
100
AcDbXrecord
280
     1
 70
     1
 90
429727718
  1
D62C5603-E3A1-4AEA-B7FB-FE5D8D0755AF
310
504B03040A0000080000CC70623B3DEE336E79000000790000001B0000006175746F6465736B2D64657369676E2D7061636B6167652E786D6C3C3F786D6C2076657273696F6E3D22312E302220656E636F64696E673D227574662D3822203F3E3C666F726D6174733E3C666F726D61743E687474703A2F2F736368656D612E
310
6175746F6465736B2E636F6D2F64657369676E2D7061636B6167652F323030393C2F666F726D61743E3C2F666F726D6174733E504B0304140006080800CC70623BD486FD9CA0000000F4000000130000005B436F6E74656E745F54797065735D2E786D6C7D8EC10E82300C865F65E91D8A1E8C310C0EEA1BF002731658846E
310
D98AC1B77784ABF1D8FE5FBFBF75BBCE937A534CCEB38643598122B6FEE978D0B0485F9C41B54DDD7D022595594E1A469170414C76A4D9A4D207E29CF43ECE46F218070CC6BECC4078ACAA135ACF422C856C0E68EA1BF5669944DDD7BCDE7B1F8E415D77AECB980613C2E4AC91FC167A2B244592486606FC29C8FD7F045B9A
310
EF7053A7E60B504B0304140006080800CC70623B853B8169EB0000007C01000008000000636F72652E786D6C8D90416EC3201045AF62CDB6C206821CC7C244919D9CA01740401C94182C03558F5F9C3852BBEB6A467FFE9B197D7EFC9E1EC5975982F5AE035262288C535E5B377690E21535501C055FBC8FBF6C503839990E
310
5619041F179FE64D52DE45E362569DD7661365082642A11EB9E920A89B99642953CC8E702F67A9EE7234257977194EC9EAE275C4EABCCF5EAD5940D4AC6F0E35A568B8F43562CD7046CD199FD07E60174276A7BE677B5EADB0E0D14EEFFB6A31321A0D82627C4084204C3F096B71DD52F6819B16635EADF63F509AF53FA164
310
5DDCD1EDDD17164090FCC8732078B56691CB33A85CD7DCC40F504B0304140006080800CC70623B55019EA25F0000007C00000007000000636E782E786D6C4DCB3B0E80201045D1AD90E915ED2CF8AC45050C11660C8261F98AB1B07AC9C97D42D718D865D3E909258CFD00CCE24AC6E326A164D74DC0B4128928FF32603847
310
2BA13128B1252AC747C6BAB984FC68F0B87FE8960A5C09FE86CFB69FBA01504B0304140006080800CC70623BDBABAAF470010000D40300000C0000006662782F636F72652E786D6CC553D16E823014FD95A6AF4B694182CC941A83FA05FB810A9511A125A5257EFE2E82712ECEB8A7F100CD39F7F69E734AF9FADC366850B6
310
AF8DCE7018308C942E4C59EB2AC3DE1D498AD15A706B8CFB56869196ADCAF00863C12B6B7C374385D14E6907A836A59A41D9F7CA615434B0C8705F7CAA5606D23BA8E84F41278B93AC54100640439DE0BDB320004D43C63716C7C399D30917DCFBBA9CD9BA8469F5B156168B24CED3F7248AC8769F27244EB73B92EED8862C
310
B7F13E0C179B3C8F979C8ECD82BBBABDAA2BAC924E9558448CBD9330242CFA08E3154B5651FCC6D215639C8EE5774DBE2B5F6CF2B5768B68963BB5F5588420E442FC700B1139D4CB01F450C1E918227C2E09DF070D8140C84E1E9AAB8F1340832A9CB13130A5F1376A908D57309505ECF2A0DF179C4E9D30F5B239B87E3823
310
7A79C6F31DE1A8A5AEC08474B03C7837EAE4938639B44E5932B833D2C6B6B279CDC613877FA26EE21F4A2A4C63EC7F29A2F301D1F9F7A0E37D145F504B0304140006080800CC70623B9C113CC27E0000009D0000000B0000006662782F636E782E786D6C4DCCDF0A83201C86E15B91DFB94BFB330DD428C8FB886521330DA7
310
6397BF1A1DECE883878F57749FCDA1B7892F1BBC047A23808C7F84D9FA55424E0BE6803A256208E9EF06C84F9B91703228B1C690F78B66B34CD9A5439DF5CF0BFBF65E35BCA1B8D6A5C6F540381E886698B5741C695F9503EBA150A2F8958E3DC3EA0B504B0304140006080800CC70623B7DF2F77C2A010000120200003100
310
00006662782F41393633353835312D344632462D344230382D423046372D3739314545314133324237412F636F72652E786D6C8D51DB8EC22014FC15C2939B0D2DB4B45643319AE817EC0F6041255A68B86CFCFC856D4D76DF7CE190393373060EDB3DC707F856CE6B6B7A480A0C81328395DA5C7B18C3057510EC3873D686
310
3F34088C18550F330C39BB3A1BA7051AAC09CA84841A2BD5020AEF55806078A44B0FFD7053A328440C89E1EFC52486BBB8AA8214A99D789CF9E05200300FC927E4FB4D5B375D43103D5527440FB843077C5AA3F5861C8F645F5787F59E95B390B318B55CE45AA638FAA2957BD7248B390B7A7CC51F9C124149C82B8C378810
310
84AB2F42B7B8DD56F413775B8C5999E9FF4471926F8AA236A1AE96B8B3CC434E5839373893369E1FAF30EA395917409EB7F26AF8801C171837A4A6AC9C89E9F9C9B1A58BA30FD6A5EF5DDDCF894B9AD9B6A59C957943A9FCAE2FD5BC4DFE03504B0304140006080800CC70623BAD7543B64E01000033030000300000006662
310
782F41393633353835312D344632462D344230382D423046372D3739314545314133324237412F636E782E786D6CD593CD6EC32010845F0571AD6CE3D48AD20813A9873E410FBD12D82434182C7EAAE6EDBB2424CD25871E7B41D6EC30B3FA84F9E67BB2E40B4234DE8DB46F1925E094D7C6ED479AD3AE5951B2113C789FEE
310
6C943839C1488B4C05DF079FE72A69D8C96C13AAD6B8631503449F83828872B949AC57D26200B826A308D316B4064D6E46FCDA41C05550DC9E483A00797BFD207EFB092A45DE9514C1BBD22178396BD39D891265658C238DEA00936C654E5E433CB65A26D9F6EDB5EBC14EBF49A45CB856E66048291F6939A9A81BB5C89177
310
38143CA680F4AA299D66A042CEB3354A2684DC9D8D178FE0D9B8B41CAAD720F880EE7EF93C0C18769E099ECC04D5A102C8049A8A05632F4DDF376CF1DE0F6BB65C2F8627B65A33C6BB62177CEBBDAD973006829F89F22E814B54F4BC2BE347F8AA8F681390B50FA73F804400B5F542E796F19FF974E7F78DB802FE05E20750
310
4B0304140006080800CC70623BE75B7789680500003C100000340000006662782F41393633353835312D344632462D344230382D423046372D3739314545314133324237412F6F626A656374732E786D6CAD575B8F9B3818FD2B887D06C22499CB8AA1CA655245D5B455A356FB305264C061D8018C6C3393D95FBFC7600890
310
A4CD5EF210B0B1BFEBF98E3F7B1FF6596ABC522E1296DF9BAE3D320D9A872C4AF2F8DE2CE5CEBA358D0FBEC719939D65A691938CDE9B6ADAF4BD98B3B2D05311DD91329583D9D5FC0F438434A7A611A644887B5384CF34233629258BA878B12322891DEFF6B66BD70BFB62634E8AE781D082709A4B588AF91C528CDA28B73F
310
1C998EEF39EABBEFA97FBD6A7C7E9553F9D3D79FE442923C3C523610337627CB87ABE99D359D4CC6D6E4FACAB5E6ABF9D2726FC6A3C5F56271377BB88362213924694B38DD99FE47C48627A1E7D49F5A8BB5E1A74C0A599ED3B0F21F1E56366B89112D681E218F0915D0D6F17AD41FBA2A369DCF6335D62ABBD39779D5DDD1
310
11D4D8DE3CBB96B2E04FB8202E41051754A1AA8E8F76B4C6DFE810B580B1547F4B84911149794252234D024EF8BBE963A95AE27B3D310A9D5C215C7960FAEE415ED75694C6AFB17BCACA5D99A60A9AA65F217B0BFC53292ACB92BF283FAD0D3621576592CB5BED907C2FA8E9DF794E35E97BEA31BED21FEB401ABB94C44839
310
DCACBF0E1C5DA8DA5B2F4DFFD32AD86F543D9E565E7056502E157C00AD2671CD534549AB752FCA9CDA00677A313F04E51B22FF19E57B300579E3C97EB29F682D92935CEC18CF901B7B54FD8C51F362B56FC72FE0B3C1EAE335EDCCBF5AEC39ADB17DC238973F804BA5E6F6BFE7AF1FB32E523BE9F3BD571418E3631DCA4D48
310
5250CF639223210A9446CA30052EDF057BD35F8329C1ECD84552BF0DC8D18BE7BCE23BFE6BD960AB4A7DE79923A103BEBD80F911CBAA2C60DB19B01CF164A5583B772EE6D3FFA56666CBCDA74DC97724A48F9A58967497E489C4D979006FD7A05E227A1EBDD0F737C623387A9C844D3709995625106D157315F8B8392CD4E0
310
A0B9A720C4BE9829CEF37EA1E13111214D53925356365ADA634861B52519DD27A00AEB808EAF0628E6F435519D446F45CF2C9CF5214F0A15B2F6D06B79DA3EE3CBF7F56780D2F4E7EF73A0F5E5B02A38D07DC852C6B7C1FBB6664213E0C39E3EBA7FF4E1AD23EA2829407C85E586727488B751B2DB9502BC7B228A3FD68B6E
310
A65A22397E690AA8D158D7E404EC8CDA235CC3B7D1898680131CEC2CDF2638C65196279577750F15884AEE19F94199155B92B13297978469D4F8D358DF0AEF7631E28DC8F0D9F437D5D39A83B2231A1D52D543813A824EF8D44BCFF2FA6A31BD1E8DAD87F1CCB526B3879935BF59CDADD5C37479BB1CDD4CA7B3556B516589
310
EF352754B706114D9C885EC9131DE6EFEB43D99AFE2391C2F958179413D7CFEF6B1B6DB1E7600F00DE6E5C67454A339A4BA2E0FBA85ED26F045D454F463DBFCE484C2F90F2E5E3666003662ED8F755951A7D1BECD5B30B550B2785C8E7320B7292A4838DDA71BBC863ED7613CAF659337A3354231D4FF4A182A54904C2898C
310
98B28C4AD0CE056CCF332A80986E571EE9DBC305BB5FEB7E509220A58D25CF042D712A806AC0AD0C657FDEF80D2D9CEAA2EE4D1C76F60BFE74219A06527D6F82DF6412526107381E55E353090704D085B52408A8913C4ED159D79BDA71BB4BC506F4831350EB6F975CD22D69BF7AC49B91A2C0A9DDA3D5CA36AD20FC478E37
310
E61844E2352865EBCB61A275A65283CAAA9DD27703B4102F5AF51EF5F573B75CBB5AD38BC845F7A49F82A0966A49C2E3EA5EA0ECD326CD965F1DB402C6FA8B51A4658C5C5E2EC9E214602E55810345408596591009A82E7E7FFACA19EEA299B14A0081A705CB3296EBC14CDF658DCD336EA6D1136881AAEB87B81AB9EE53D5
310
F5EB8BC8362082DA24122F98680A4E7930C01A0079749CEA14382A0783E5EBA5A10F8C098456A03D6A4AEB6BB881E2513747552A5DB22C7EDAF83BD5528081A365F7FF06504B0304140006080000CC70623B000000000000000000000000350000006662782F41393633353835312D344632462D344230382D423046372D37
310
39314545314133324237412F76657274696365732E62696E504B0304140006080800CC70623BF270F1330600000004000000360000006662782F41393633353835312D344632462D344230382D423046372D3739314545314133324237412F747269616E676C65732E62696E636660600000504B0304140006080000CC7062
310
3B000000000000000000000000370000006662782F41393633353835312D344632462D344230382D423046372D3739314545314133324237412F617474726962757465732E62696E504B0304140006080800CC70623B08DA0BD19000000041010000360000006662782F41393633353835312D344632462D344230382D4230
310
46372D3739314545314133324237412F6469726563746F72792E786D6C858F410AC3201045AF22B36F53E9A60B35CBEEBAE80D244E44489C6234F4F835464A48035D0DF398FF9F8AF63D0E6CC63039F212F8F9020C7D47C6792B21C5FE7403D62A1188E2E60C98D7234A5830286103A55745067B9D86B8A3CF9C7F90C11DE6
310
07FB144396D7B6A82D282E9A152AD114D5EF2CB866EEE831B8EEA07A7BB5A8D7D61A2BAAEB7FD5F70921FF497D00504B0304140006080800CC70623BEDD1DC58FD000000A00100003B0000006662782F41393633353835312D344632462D344230382D423046372D3739314545314133324237412F7265736F75726365732F
310
636F72652E786D6C8D504B6E833010BD0A9A6D65B00922041947112427E8052C33A156828DFCA97AFC9A40A576D7CDCCE87D344F8F9FBFE667F689CE6B6B3A6039850C8DB2A336530731DC4903D95970676DF82583CCC8193B5861107C72362E3BA4AC096842428D1D7107A5F7182053CF7474E0D507CE32973124857FE48B
310
540F3961CEF244279DE03EB81420DB9EAC1384436FA353E879B1B182C7A8C75DA3C7F453DF353A1075D537A7BA6464B8F535A99AE14A9A2BBD90E350DD183B5CFABE3AF262350B1EF4FC9351399401471025A527C218A1E53BAB5A5AB765F5469B96525EACF23FA6B88CFF34456DC2A1DCE36E360F82A5202F42F062ED2BAD
310
579969AFDD8A6F504B010214000A0000080000CC70623B3DEE336E79000000790000001B00000000000000000000000000000000006175746F6465736B2D64657369676E2D7061636B6167652E786D6C504B01021400140006080800CC70623BD486FD9CA0000000F40000001300000000000000000000000000B20000005B
310
436F6E74656E745F54797065735D2E786D6C504B01021400140006080800CC70623B853B8169EB0000007C010000080000000000000000000000000083010000636F72652E786D6C504B01021400140006080800CC70623B55019EA25F0000007C000000070000000000000000000000000094020000636E782E786D6C504B
310
01021400140006080800CC70623BDBABAAF470010000D40300000C00000000000000000000000000180300006662782F636F72652E786D6C504B01021400140006080800CC70623B9C113CC27E0000009D0000000B00000000000000000000000000B20400006662782F636E782E786D6C504B01021400140006080800CC70
310
623B7DF2F77C2A010000120200003100000000000000000000000000590500006662782F41393633353835312D344632462D344230382D423046372D3739314545314133324237412F636F72652E786D6C504B01021400140006080800CC70623BAD7543B64E010000330300003000000000000000000000000000D2060000
310
6662782F41393633353835312D344632462D344230382D423046372D3739314545314133324237412F636E782E786D6C504B01021400140006080800CC70623BE75B7789680500003C10000034000000000000000000000000006E0800006662782F41393633353835312D344632462D344230382D423046372D3739314545
310
314133324237412F6F626A656374732E786D6C504B01021400140006080000CC70623B0000000000000000000000003500000000000000000000000000280E00006662782F41393633353835312D344632462D344230382D423046372D3739314545314133324237412F76657274696365732E62696E504B01021400140006
310
080800CC70623BF270F133060000000400000036000000000000000000000000007B0E00006662782F41393633353835312D344632462D344230382D423046372D3739314545314133324237412F747269616E676C65732E62696E504B01021400140006080000CC70623B0000000000000000000000003700000000000000
310
000000000000D50E00006662782F41393633353835312D344632462D344230382D423046372D3739314545314133324237412F617474726962757465732E62696E504B01021400140006080800CC70623B08DA0BD1900000004101000036000000000000000000000000002A0F00006662782F41393633353835312D344632
310
462D344230382D423046372D3739314545314133324237412F6469726563746F72792E786D6C504B01021400140006080800CC70623BEDD1DC58FD000000A00100003B000000000000000000000000000E1000006662782F41393633353835312D344632462D344230382D423046372D3739314545314133324237412F7265
310
736F75726365732F636F72652E786D6C504B0506000000000E000E0080040000641100000000
  0
XRECORD
  5
1407
102
{ACAD_REACTORS
330
1F7
102
}
330
1F7
100
AcDbXrecord
280
     1
102
MATERIAL
148
0.0
149
0.0
149
0.0
 93
        0
 94
       63
282
     0
 72
     1
 77
     1
171
     1
175
     1
179
     1
273
     0
  0
XRECORD
  5
1F8
102
{ACAD_REACTORS
330
1F7
102
}
330
1F7
100
AcDbXrecord
280
     1
 70
     1
 90
429727718
  1
30362254-06B7-45E0-A893-8CFA70E3D6BC
310
504B03040A0000080000CC70623B3DEE336E79000000790000001B0000006175746F6465736B2D64657369676E2D7061636B6167652E786D6C3C3F786D6C2076657273696F6E3D22312E302220656E636F64696E673D227574662D3822203F3E3C666F726D6174733E3C666F726D61743E687474703A2F2F736368656D612E
310
6175746F6465736B2E636F6D2F64657369676E2D7061636B6167652F323030393C2F666F726D61743E3C2F666F726D6174733E504B0304140006080800CC70623BD486FD9CA0000000F4000000130000005B436F6E74656E745F54797065735D2E786D6C7D8EC10E82300C865F65E91D8A1E8C310C0EEA1BF002731658846E
310
D98AC1B77784ABF1D8FE5FBFBF75BBCE937A534CCEB38643598122B6FEE978D0B0485F9C41B54DDD7D022595594E1A469170414C76A4D9A4D207E29CF43ECE46F218070CC6BECC4078ACAA135ACF422C856C0E68EA1BF5669944DDD7BCDE7B1F8E415D77AECB980613C2E4AC91FC167A2B244592486606FC29C8FD7F045B9A
310
EF7053A7E60B504B0304140006080800CC70623B1EC5D7A3EB0000007C01000008000000636F72652E786D6C8D90416EC3201045AF82665B6103C6756C6122AB4D4ED00B204C5C94182C03558F5F9C3852BBEB6A467FFE9B197D71FC9E6FE8CBACC17AD7032D0820E3B41FAD9B7A48F1820F808E52ACDEC75F36404ECDA687
310
4D0629A6D5A76597B477D1B89855E747B38B2A041301E95B6E7A08FAD3CCAA50296647B8168BD2573599823EBB0CA76447F43862C7BCCF5EAC59410E4DDD9C7973C2755553CCCFA4C603E3040F1565ED3B1FDE4E432BCA0D9622DAF9795FAF464533826484B498524CD807E51D79ED187F21878E10516EF63F505AC67F42C9
310
BA58B1FDDD071640D2FCC87D2045B96591CB3DA85CB7DCE40F504B0304140006080800CC70623B55019EA25F0000007C00000007000000636E782E786D6C4DCB3B0E80201045D1AD90E915ED2CF8AC45050C11660C8261F98AB1B07AC9C97D42D718D865D3E909258CFD00CCE24AC6E326A164D74DC0B4128928FF32603847
310
2BA13128B1252AC747C6BAB984FC68F0B87FE8960A5C09FE86CFB69FBA01504B0304140006080800CC70623B8C9102E971010000D40300000C0000006662782F636F72652E786D6CC5535B6E833010BC8AE5DF0A6C08340F1947A84D4ED00B38C6A128602363A31CBFCB234A53A551FA553EC09AD9F5CE8C31DB9E9B1AF5CA
310
7695D1198E428A91D2D214952E33ECDD315861B4E5CC1AE3BE9561A445A3323CC098B3D21ADFCE9034DA29ED00D5A6503328BA4E398C640D8B0C77F253352214DE4145770A5B214FA2546114020D759C75CE8200340D19DE981F0F6746269C33EFAB6266AB02A655C74A59CCF365BADC27CB5D902ED22848F6340DF238A141
310
BE88E2F57B92BFEDF23523433367AE6A2EEAA455C2A902F398D2751045018D3FA264435F3771F242571B4A1919CA6F9A7C5B3CD9E42BED16F12C776AEB308F40C848FC700B1139D4891EF410CEC810227CC6846F8386402064270EF5C5C709A05E49676C024C61FC95EA45ED154CA5211D1FF4FB8291A913A68E9B83EBBB33
310
E2A7673CDE118E5AE8124C0807CB8377834E366998436B950D7A7746DAD846D4CFD978E0F04FD455FC5D49D2D4C6FE9722321F10997F0F32DC47FE05504B0304140006080800CC70623BFFEA85907E0000009D0000000B0000006662782F636E782E786D6C4DCCD10A83201886E15B91FFDC95D95A811AB6F23E625948A6C3
310
E9D8E5AF46073BFAE0E1E365ED67B3E8ADC3CB78C7815C7240DA3DFC64DCC221C519D7805AC182F7F1EF06C88D9BE6703008B6049F9E274D7A1E938DBB5AE3D6131B2589BA0D3D965551E0B2EA732C9B9A624AAEB41E3A557677029960D9AFB4EF11165F504B0304140006080800CC70623B4FEEA4082C0100001202000031
310
0000006662782F39464131463745442D413632322D343644302D413938332D3331353338454246344243312F636F72652E786D6C8D515B6EC32010BC0AE2AB55850DD871ED0813254D72825EC00192A2C460F1A872FC42ED48ED5F7E00CDCECCCEB26C731F6FE05B39AFADE921293004CA082BB5B9F43086336A21D870E6AC
310
0D7F68109861543DCC30E4ECE26C9C164858139409093556AA051CBC570102714B8F1E7AF1A5C6A11862480C7F2DA6415C878B2A4891CA89C7990F2E050073937C42DE1DB7E4F87ED8A36D4329AA9B3D46DBAEAD504556557BD81DEBDD0761E52CE42C462D17B996298E3E6BE59E35C962CE821E1FF18553435012728A7187
310
0841987E927A8D9B35ADDF70BBC6989599FE4F1427F9A4286A132ABAC49D651EF234CD5CE04CDA78BA3DC2A8FB645D00B9DF8B57E215725C60BCA2A463E54C4CE327C7A65E1C7DB02E7DEFCBF594B864C5CA6CDBD49C957943E9FA5D5FBAF336F90F504B0304140006080800CC70623BAD7543B64E01000033030000300000
310
006662782F39464131463745442D413632322D343644302D413938332D3331353338454246344243312F636E782E786D6CD593CD6EC32010845F0571AD6CE3D48AD20813A9873E410FBD12D82434182C7EAAE6EDBB2424CD25871E7B41D6EC30B3FA84F9E67BB2E40B4234DE8DB46F1925E094D7C6ED479AD3AE5951B2113C
310
789FEE6C943839C1488B4C05DF079FE72A69D8C96C13AAD6B8631503449F83828872B949AC57D26200B826A308D316B4064D6E46FCDA41C05550DC9E483A00797BFD207EFB092A45DE9514C1BBD22178396BD39D891265658C238DEA00936C654E5E433CB65A26D9F6EDB5EBC14EBF49A45CB856E66048291F6939A9A81BB5
310
C8917738143CA680F4AA299D66A042CEB3354A2684DC9D8D178FE0D9B8B41CAAD720F880EE7EF93C0C18769E099ECC04D5A102C8049A8A05632F4DDF376CF1DE0F6BB65C2F8627B65A33C6BB62177CEBBDAD973006829F89F22E814B54F4BC2BE347F8AA8F681390B50FA73F804400B5F542E796F19FF974E7F78DB802FE05
310
E207504B0304140006080800CC70623B16AB87BA640500003C100000340000006662782F39464131463745442D413632322D343644302D413938332D3331353338454246344243312F6F626A656374732E786D6CAD575B6FA33818FD2B887DE6924B3BED8A326A92B68A663B534DD4D13E548A0C38942D60649B369D5FBFC7
310
600890A493BDE42160637FD7F31D7FF63E6FB3D478A55C242CBF3247B66B1A340F5994E4F19559CA8D75611A9F7D8F33263BCB4C232719BD32D5B4E97B316765A1A722BA21652A07B3B7B33F0D11D29C9A46981221AE4C113ED38CD8A4942CA2E2C58E882476BCD9DA23BB5ED8171B73523C0F841684D35CC252CCE79062D4
310
468DFA43D7747CCF51DF7D4FFDEB5593E3AB9CCA9FBEFE241792E4E19EB28198C968BAB8199F5D5A67D3E9C49A9E8F47D6EC76B6B0469F26EEFC7C3EBFBCBEB98462213924694B38DD98FE1D62C393D073EA4FADC5DAF04326852CCF6958F90F0F2B9BB5C48816348F90C7840A68EB78EDF68723159BCEE7891A6B95DDE9D3
310
BCEAEEE8086A6C6F9E5D4B59F0175C10A7A0820BAA5055C7473B5AE3CFDD452D602CD5DF12616444529E90D448938013FE6EFA58AA96F85E4F8C42275708571E98FE6827AF6B2B4AE3D7D83D64E5A64C53054DD3AF90BD06FEA9149565C94FCA0F6B834DC85599E4F2423B24DF0B6AFA979E534DFA9E7A4CC6FA631D486393
310
921829879BF5D781A373557BCB85E97FB90DB62B558F8795179C15944B051F40AB495CF35451D26A4727654E6D8033BD98EF82F21D91FF8AF2DD9982BCF1643BDD4EB516C9492E368C67C88DED563FC36D5EACF66DFF057C3658BDBFA69DF9578B3DA735B64F18C7F20770A9D45CFCF7FCF563D6456A277DBEF78A02637CA2
310
43B90A490AEAB94F72244481D24819A6C0E59B606BFA4B3025981DBB48EAB701D97BF19C577CC77F2D1B6C55A9EF3C732474C0B727303F625995056C3B02963D9EAC146BE78EC5FCEC7FA999EBC5EACBAAE41B12D27B4D2C0BBA49F244E2ECDC81B76B502F113D8F5EE8FB1BE3111CDD4FC2AA9B844CAB1288B68AB90A7CDC
310
1C166AB0D3DC5310625FCC14E779BFD0709F8890A629C9292B1B2DED31A4B0DA928CEE135085754027E3018A397D4D5427D15BD1330B677DC8934285AC3DF45A9EB68FF8F2B8FC0A509AFEECFD0FF2DE25CC6047F7214B195F07EFEB9A094D800F7BFAE8FED187B78EA8A3A400F115961BCAD1215E47C966530AF0EE8128FE
310
58CEBB996A8964FFA529A046635D9353B0336A8F700DDF46271A024E70B0B37C9DE01847591E54DED53D54202AB947E4076556AC49C6CA5C9E1226B7F1A7B1BE15DEED62C41B91E1B3E9AFAAA735036547343A925075041DF0A9979E893B391F8FCFA6967B3EFB644DCF6E5CEBFAE272625DCC6FAF3FB93793C5F90CE1EF57
310
407342756B10D1C489E8953CD1617E5CEECAD6F4EF8914CE5D5D504E5C3F1F9736DA62CFC11E00BCDDB8CC8A9466349744C1F75EBDA4DF09BA8A9E8C7A7E9991989E20E5DBDD6A6003664ED8F7A04A8DBE0DF6EAD9B9AA858342E47399053949D2C146EDB85DE4B176BB0965FBAC19BD19AA918E27FA50C1D22402E144464C
310
59462568E704B6E71915404CB72B8FF4EDE184DDAF753F284990D2C6926782963815403548A70C657FDEF80D2D9CEAA2AE4C1C76F60BFE74219A06527D6582DF6412526107381E55E353090704D085B52408D0933C4ED159D79BDA71BB4BC506F4831350EB6F979CD22D69BF7AC49B91A2C0A9DDA3D5CA36AD20FC478E37E6
310
1844E2352865EBCB6EA275A652E3836BE04EFB400BF1A2556F515F1FBB35B2AB35BD889C744FFA1004B5544B121E57F70215746DD2F5E2C1412B602CBF19455AC6C8E5E9922C4E01E65215385004546899059180EAFCF7A707CE7017CD8CDB0410789AB32C63B91E5CEBBBACB17AC6CD347A022D5075FD106377347AAABA7E
310
7D11590744509B44E205134DC1290F06580320F78E537D3D73540E06CB970B431F185308AD40BBD794D6D77003C5A36E8EAA54BA64597CD8F83BD552A080A365F7FF06504B0304140006080000CC70623B000000000000000000000000350000006662782F39464131463745442D413632322D343644302D413938332D3331
310
353338454246344243312F76657274696365732E62696E504B0304140006080800CC70623BF270F1330600000004000000360000006662782F39464131463745442D413632322D343644302D413938332D3331353338454246344243312F747269616E676C65732E62696E636660600000504B0304140006080000CC70623B
310
000000000000000000000000370000006662782F39464131463745442D413632322D343644302D413938332D3331353338454246344243312F617474726962757465732E62696E504B0304140006080800CC70623B08DA0BD19000000041010000360000006662782F39464131463745442D413632322D343644302D413938
310
332D3331353338454246344243312F6469726563746F72792E786D6C858F410AC3201045AF22B36F53E9A60B35CBEEBAE80D244E44489C6234F4F835464A48035D0DF398FF9F8AF63D0E6CC63039F212F8F9020C7D47C6792B21C5FE7403D62A1188E2E60C98D7234A5830286103A55745067B9D86B8A3CF9C7F90C11DE607
310
FB144396D7B6A82D282E9A152AD114D5EF2CB866EEE831B8EEA07A7BB5A8D7D61A2BAAEB7FD5F70921FF497D00504B0304140006080800CC70623B0D6EF93BFE000000A00100003B0000006662782F39464131463745442D413632322D343644302D413938332D3331353338454246344243312F7265736F75726365732F63
310
6F72652E786D6C8D50596E833010BD0A9ADFCA60B334011947A8694ED00B586642AC041B79A97AFC9A40A5F6AF3F33A3B7689E1E3F7DCD8FEC139DD7D6F4C0720A191A65476DA61E62B892236427C19DB5E1970C322367EC618541F0C9D9B8EC90B226A009093576C41D94DE63804C3DD2D18357379C652E63480A7FCF17A9
310
EE72C29CE5894E3AC17D702940B63D59270887DE46A7D0F36263058F518FBB468FE9A7BE6A7420864373B8D4873369AA8691FA421B3294352543C5CAF65C0F6FEF43CB8BD52C78D0F34F46E550061C419494B6843142CB0F5677F4B52BEB177AEC28E5C52AFF638ACBF84F53D42654E51E77B379102C05791282176B5F693D
310
CB4C7BED567C03504B010214000A0000080000CC70623B3DEE336E79000000790000001B00000000000000000000000000000000006175746F6465736B2D64657369676E2D7061636B6167652E786D6C504B01021400140006080800CC70623BD486FD9CA0000000F40000001300000000000000000000000000B20000005B
310
436F6E74656E745F54797065735D2E786D6C504B01021400140006080800CC70623B1EC5D7A3EB0000007C010000080000000000000000000000000083010000636F72652E786D6C504B01021400140006080800CC70623B55019EA25F0000007C000000070000000000000000000000000094020000636E782E786D6C504B
310
01021400140006080800CC70623B8C9102E971010000D40300000C00000000000000000000000000180300006662782F636F72652E786D6C504B01021400140006080800CC70623BFFEA85907E0000009D0000000B00000000000000000000000000B30400006662782F636E782E786D6C504B01021400140006080800CC70
310
623B4FEEA4082C0100001202000031000000000000000000000000005A0500006662782F39464131463745442D413632322D343644302D413938332D3331353338454246344243312F636F72652E786D6C504B01021400140006080800CC70623BAD7543B64E010000330300003000000000000000000000000000D5060000
310
6662782F39464131463745442D413632322D343644302D413938332D3331353338454246344243312F636E782E786D6C504B01021400140006080800CC70623B16AB87BA640500003C1000003400000000000000000000000000710800006662782F39464131463745442D413632322D343644302D413938332D3331353338
310
454246344243312F6F626A656374732E786D6C504B01021400140006080000CC70623B0000000000000000000000003500000000000000000000000000270E00006662782F39464131463745442D413632322D343644302D413938332D3331353338454246344243312F76657274696365732E62696E504B01021400140006
310
080800CC70623BF270F133060000000400000036000000000000000000000000007A0E00006662782F39464131463745442D413632322D343644302D413938332D3331353338454246344243312F747269616E676C65732E62696E504B01021400140006080000CC70623B0000000000000000000000003700000000000000
310
000000000000D40E00006662782F39464131463745442D413632322D343644302D413938332D3331353338454246344243312F617474726962757465732E62696E504B01021400140006080800CC70623B08DA0BD190000000410100003600000000000000000000000000290F00006662782F39464131463745442D413632
310
322D343644302D413938332D3331353338454246344243312F6469726563746F72792E786D6C504B01021400140006080800CC70623B0D6EF93BFE000000A00100003B000000000000000000000000000D1000006662782F39464131463745442D413632322D343644302D413938332D3331353338454246344243312F7265
310
736F75726365732F636F72652E786D6C504B0506000000000E000E0080040000641100000000
  0
XRECORD
  5
1409
102
{ACAD_REACTORS
330
173
102
}
330
173
100
AcDbXrecord
280
     1
102
MATERIAL
148
0.0
149
0.0
149
0.0
 93
        0
 94
       63
282
     0
 72
     1
 77
     1
171
     1
175
     1
179
     1
273
     0
  0
XRECORD
  5
175
102
{ACAD_REACTORS
330
173
102
}
330
173
100
AcDbXrecord
280
     1
270
     1
271
     1
  0
XRECORD
  5
174
102
{ACAD_REACTORS
330
173
102
}
330
173
100
AcDbXrecord
280
     1
270
     1
271
     1
  0
XRECORD
  5
1FB
102
{ACAD_REACTORS
330
173
102
}
330
173
100
AcDbXrecord
280
     1
 70
     0
 90
1673772943
  1
ECE7A1D2-D628-4531-984C-D00F80459256
310
504B03040A0000080000CC70623B3DEE336E79000000790000001B0000006175746F6465736B2D64657369676E2D7061636B6167652E786D6C3C3F786D6C2076657273696F6E3D22312E302220656E636F64696E673D227574662D3822203F3E3C666F726D6174733E3C666F726D61743E687474703A2F2F736368656D612E
310
6175746F6465736B2E636F6D2F64657369676E2D7061636B6167652F323030393C2F666F726D61743E3C2F666F726D6174733E504B0304140006080800CC70623BD486FD9CA0000000F4000000130000005B436F6E74656E745F54797065735D2E786D6C7D8EC10E82300C865F65E91D8A1E8C310C0EEA1BF002731658846E
310
D98AC1B77784ABF1D8FE5FBFBF75BBCE937A534CCEB38643598122B6FEE978D0B0485F9C41B54DDD7D022595594E1A469170414C76A4D9A4D207E29CF43ECE46F218070CC6BECC4078ACAA135ACF422C856C0E68EA1BF5669944DDD7BCDE7B1F8E415D77AECB980613C2E4AC91FC167A2B244592486606FC29C8FD7F045B9A
310
EF7053A7E60B504B0304140006080800CC70623BD9DDAED0EC0000007C01000008000000636F72652E786D6C8D90416EC3201045AF82665B61836D9CD8C2444DD39CA01740405C94182C03558F5F9C3852BBEB6A467FFE9B197D7EF89E6EE8CB2CC17A37002D0820E394D7D68D03A478C17B4007C117EFE32F1B20272733C0
310
2A83E0E3E2D3BC49CABB685CCCAAF3DA6CA20CC14440EA969B0182FA34932C648AD911AEC52CD5558EA6A0CF2EC329598D1E47ACCEFBECC59A050463A7EA5833865FEBDD0E37353BE3EE8DBDE3F6786A48D375FBF6CC78B9C282473B3DEFABC5C86834888A900E538A49F5419B9EB47DD5BC907D4F082F57FB1F28CDFA9F50
310
B22ED6D5F6EE030B20687EE43E10BC5CB3C8E51E54AE6B6EE207504B0304140006080800CC70623B55019EA25F0000007C00000007000000636E782E786D6C4DCB3B0E80201045D1AD90E915ED2CF8AC45050C11660C8261F98AB1B07AC9C97D42D718D865D3E909258CFD00CCE24AC6E326A164D74DC0B4128928FF326038
310
472BA13128B1252AC747C6BAB984FC68F0B87FE8960A5C09FE86CFB69FBA01504B0304140006080800CC70623BA24EB22D72010000D40300000C0000006662782F636F72652E786D6CC5535B6E833010BC8AE5DF0A6C5E49888CA3A6694ED00B38E05014B091B1518EDFE511A5A9D228FD2A1F60CDEC7A67C6986DCE4D8D7A
310
69BA4AAB0C073EC548AA5C17952A33ECECD15B61B4E1CC686DBF9561A44423333CC098B3D268D7CE50AE9595CA02AA74216750749DB418E5352C32DCE59FB211BE70162ABA93DF8AFC244AE9073ED050C759670D0840D390E18DF9F1706664C23973AE2A66B62A605A75ACA4C13C4976E1364A12EF355A2EBD384AF65EFA96
310
BC7B8BED2EA6719AAE16FB8491A199335B351775B991C2CA02F390D2D40B028F861F41BCA68B7518BFD0D59A524686F29B26D7164F36B94AD9289CE54E6D1DE6010819891F6E21228B3AD1831EC219194284CF98F06DD01008846CC5A1BEF83801D4CBDC6A1303536877A57A513B0953A94FC707FDBE6064EA84A9E3E6E0FA
310
EE8CF0E9198F7784A316AA0413C2C2F2E0ECA0934D1AE6D05A69BCDE9E91D2A611F573361E38FC1375157F5752AE6B6DFE4B11990F88CCBF0719EE23FF02504B0304140006080800CC70623B408A7D3B7C0000009D0000000B0000006662782F636E782E786D6C4DCCD10A83201886E15B91FFDC552A92A0064DBC8F581632
310
D3703A76F9ABD1C18E3E78F878E5F0D9027ABBFCF2292AE86E2D20171F69F6715550CB827B40839639A5F2770314A7CD293819B45C73AAFB45B35BA61ACAA1C1C7E7855C58C15BC331339661262CC762340413D68D77DA5B42298546CBE6573AF60CEB2F504B0304140006080800CC70623B449FB9BD290100001202000031
310
0000006662782F36394639363044362D344446342D343946362D394244322D3234314243333846323333332F636F72652E786D6C8D515B6EC32010BC0AE22B55850D98B871848994463E412FE002495162B07854397EA176A4F62F3F2C9A9D991D587EB84F37F0AD7D30CEF6905418026DA553C65E7A98E219ED203808EE9D
310
8B7F6810D871D23D2C3014FCE25D9A57483A1BB58D19B54EE9151C43D0110279CB971E06F9A5A7B11A53CC8C70ADE6515EC78BAE4895DB992778883E0700CB907242D17643D7E2538BD869608875438BBAE38922CAC8F1BDD90DB4691A5E2F42C153326A951B95E398B3D1FE599322163C9AE9115F7A3D46ADA0A018778810
310
84E907617BDCEE297BC5BB3DC6BC2EF47FA234AB2745C9D8D8D035EE220B50105E2F0DC1954B9FB747187D9F9D8FA0CCDB042D5FA0C015C65B42DF78BD10F3F3B363CB56C7109DCFDFBBB97E662ED92EB62D13BC2E1BCAE5777DB9966D8A1F504B0304140006080800CC70623BAD7543B64E01000033030000300000006662
310
782F36394639363044362D344446342D343946362D394244322D3234314243333846323333332F636E782E786D6CD593CD6EC32010845F0571AD6CE3D48AD20813A9873E410FBD12D82434182C7EAAE6EDBB2424CD25871E7B41D6EC30B3FA84F9E67BB2E40B4234DE8DB46F1925E094D7C6ED479AD3AE5951B2113C789FEE
310
6C943839C1488B4C05DF079FE72A69D8C96C13AAD6B8631503449F83828872B949AC57D26200B826A308D316B4064D6E46FCDA41C05550DC9E483A00797BFD207EFB092A45DE9514C1BBD22178396BD39D891265658C238DEA00936C654E5E433CB65A26D9F6EDB5EBC14EBF49A45CB856E66048291F6939A9A81BB5C89177
310
38143CA680F4AA299D66A042CEB3354A2684DC9D8D178FE0D9B8B41CAAD720F880EE7EF93C0C18769E099ECC04D5A102C8049A8A05632F4DDF376CF1DE0F6BB65C2F8627B65A33C6BB62177CEBBDAD973006829F89F22E814B54F4BC2BE347F8AA8F681390B50FA73F804400B5F542E796F19FF974E7F78DB802FE05E20750
310
4B0304140006080800CC70623B8D05915C650500003B100000340000006662782F36394639363044362D344446342D343946362D394244322D3234314243333846323333332F6F626A656374732E786D6CAD575B6FA33814FE2B887D06429276DA1565D4266D158D3A339A6846FB502932E050B66023DB74D2FDF5FB190C01
310
9276B2973C046C8ECFF53B17071F77456EBD502133CEAE6CDF9DD81665314F32965ED995DA3A17B6F5310C04E7AA47665B8C14F4CAD6DB7618A48257A5D94AE89654B91AEDDEDDFC61C998326A5B714EA4BCB265FC440BE2924AF184CA6737218AB8E976E7FA6E4338649B0A523E8D98964450A6A029F619B8588D52FE7039
310
B1BD30F0F4F730D0FF866AF6369557DB33949F31A9088B0F848DD8CCFCF9F2767A76E99CCDE733677E3EF59D9BBB9BA5E37F984D16E78BC5E5F5ED25044B25C0C96822E8D60EEFE11B91C581D77CEA34368A1F5329E68CD1B8B61F16D63A1B8E092D294B10C78C4A48EB593D192E7DED9BDEE7995E1B91FDEDD3ACEA9FE831
310
6A756F9F7D4D79F4274C90A7A04248AA51D5F8C718DAE06FB2F75AC4796EBE65D22A88A22223B995679120E2D50E41AA49C260C046A35368846B0BECD0DFF3EBEB8AD4F835768F69B9ADF25C43D30E6B646F807FAA64AD59F61715C7A54127C4AACA98BA3006A9D792DAE165E0D59B61A01FB3A9F9D838D2DAE62445C86166
310
F37564E842E7DE6A69879FEEA2DD5AE7E371E1A5E025154AC307D06A03D73EB5978C58FFA4C8E9033066E0F3BD53BEC1F39F91BE7B55103791EDE6BBB991A2046172CB4581D8B893FA674DDA17A77B3B7C413D1B511FD2743BFF8A38F03A658705E3ADF8015C3A3417FF3D7E439FF591DA0B5F18BC20C1B8981957AE6392A3
310
F43C640C01D1A0B4728E2DD4F26DB4B3C3152A252A3B4E913CEC1C72F012782FF88EFF8637AA552DBEF76408E8A8DE9E50F9E1CB3A2DA0DB1B6039A893B56063DC5B3E3FFB5F72E67AB9FEB4AEC496C4F4C1149625DD662C53E89D7BF0F6151A046260D1337DFDC94502430F83B0EE07A130A224BCAD7DAE1D9FB6CD422FF6
310
920702629C4BB9AE79C12F243C6432A6794E18E5552BA56B431AAB5D91317302B2B071E86C3A42B1A02F999E24061403B5D0EB639195DA655DD3EBEAB4FB862DDF579F014AD0E73C22F99E28DA57FB98E75C6CA2D74D53086D600F4786E0FE3144B771A8A7B900F03594DB8A633CBC49B2EDB69228BB479CF863B5E807AAAB
310
23872F6DFEB4129B949CA33823F58830E86D65621E10047D9DB34D862E8EAC3C2ABC2F7B2C40D67CDFE01F5545B92105AF983AC54D93D69E56FB8E797F88913F898A9FEC705D3F9D1B54EC8426FB500D40A03BD0119B06E1B95DDC7EB8F6975367793EBD70E66733DFB9BC982F9CE564727731999F5D4ECFCE3B8D6A4DC2A0
310
6D50FD148437D110834A64C6CDDF57FBACB5C307A2A477DFE4939736CFEF2B175371E0E10CF0DD1D5C15654E0BCA14D1E87DD02FF93782A162C0A3D95F1524A52770F972BF1EE9809D13CE7DD599467F8ECE9ADD85CE85A34CD45355448C64F9E8A031DC2D596ACC6E5DD93D9B82DE2EF5CAF81363A8E47996A0DE24564A79
310
4115AACE09C55E14540231FDA13C319787134EBF34E3A022514E5B4D9E0826E25C02D5805B15ABE1BEF51B26383D445DD9E875EE33FE4C22DA16427D65A3BCA92CA6D28DD01DF5DC53330704308475351050232CCD31583787BA75774AFB06E5070DD0C8EF484E19968C5D83BA5B90B244D31E54D55A372320FE4786B7EA58
310
44E135AA5467CB7EA333A61683CC6A8C3257034C10CF46F40EF9F5BE59BE5BD30C3C72D235E95D10345C1D45445A5F0BB47E46A5EBE5570F9380B5FA629579952296A773720405982B9DE04011506178964401AA8BDF1FBF0A8EAB6861DD6580C0E38217056766716DAEB2D6FA0917D3E4116581EADB879C4E7CFFB11EFACD
310
3D641311495D92C8676CB409A72D18610D803CE8A626049E8EC1887CB5B44CC39883690DDA8399B4B9855B481E7D71D4A9D22F96E5BB73BF5793020C02137BF837504B0304140006080000CC70623B000000000000000000000000350000006662782F36394639363044362D344446342D343946362D394244322D32343142
310
43333846323333332F76657274696365732E62696E504B0304140006080800CC70623BF270F1330600000004000000360000006662782F36394639363044362D344446342D343946362D394244322D3234314243333846323333332F747269616E676C65732E62696E636660600000504B0304140006080000CC70623B0000
310
00000000000000000000370000006662782F36394639363044362D344446342D343946362D394244322D3234314243333846323333332F617474726962757465732E62696E504B0304140006080800CC70623B08DA0BD19000000041010000360000006662782F36394639363044362D344446342D343946362D394244322D
310
3234314243333846323333332F6469726563746F72792E786D6C858F410AC3201045AF22B36F53E9A60B35CBEEBAE80D244E44489C6234F4F835464A48035D0DF398FF9F8AF63D0E6CC63039F212F8F9020C7D47C6792B21C5FE7403D62A1188E2E60C98D7234A5830286103A55745067B9D86B8A3CF9C7F90C11DE607FB14
310
4396D7B6A82D282E9A152AD114D5EF2CB866EEE831B8EEA07A7BB5A8D7D61A2BAAEB7FD5F70921FF497D00504B0304140006080800CC70623BCA768048FE000000A00100003B0000006662782F36394639363044362D344446342D343946362D394244322D3234314243333846323333332F7265736F75726365732F636F72
310
652E786D6C8D50596E833010BD0A9ADFCA60D600328E9AA639412F609909B1126CE4A5EAF16B0295DABFFECC8CDEA2797AECF8353F924FB44E193D409E5248504B332A3D0D10FC95B4901C39B3C6F85F3248B49871801506CE266BC2B243D2688FDA47549B11775038871E12F988C7004EDE7016A9083E2ADC3D5D84BC8B09
310
D33C8D74D471E6BC8D0192EDC93A815B742658898E651BCB59086ADC356A8C3FD555A1055ED7E7E254D615792D0F075295F585746FF53B694EE78A565DD736979A65AB9933AFE69F8CD2A2F038022F28ED489E135A7CE4554F9BBEA85E68DB53CAB255FEC71496F19FA6A0B42F8B3DEE6673C0F318E4497096AD7DC5F52C33
310
EEB55BFE0D504B010214000A0000080000CC70623B3DEE336E79000000790000001B00000000000000000000000000000000006175746F6465736B2D64657369676E2D7061636B6167652E786D6C504B01021400140006080800CC70623BD486FD9CA0000000F40000001300000000000000000000000000B20000005B436F
310
6E74656E745F54797065735D2E786D6C504B01021400140006080800CC70623BD9DDAED0EC0000007C010000080000000000000000000000000083010000636F72652E786D6C504B01021400140006080800CC70623B55019EA25F0000007C000000070000000000000000000000000095020000636E782E786D6C504B0102
310
1400140006080800CC70623BA24EB22D72010000D40300000C00000000000000000000000000190300006662782F636F72652E786D6C504B01021400140006080800CC70623B408A7D3B7C0000009D0000000B00000000000000000000000000B50400006662782F636E782E786D6C504B01021400140006080800CC70623B
310
449FB9BD290100001202000031000000000000000000000000005A0500006662782F36394639363044362D344446342D343946362D394244322D3234314243333846323333332F636F72652E786D6C504B01021400140006080800CC70623BAD7543B64E010000330300003000000000000000000000000000D20600006662
310
782F36394639363044362D344446342D343946362D394244322D3234314243333846323333332F636E782E786D6C504B01021400140006080800CC70623B8D05915C650500003B10000034000000000000000000000000006E0800006662782F36394639363044362D344446342D343946362D394244322D32343142433338
310
46323333332F6F626A656374732E786D6C504B01021400140006080000CC70623B0000000000000000000000003500000000000000000000000000250E00006662782F36394639363044362D344446342D343946362D394244322D3234314243333846323333332F76657274696365732E62696E504B010214001400060808
310
00CC70623BF270F13306000000040000003600000000000000000000000000780E00006662782F36394639363044362D344446342D343946362D394244322D3234314243333846323333332F747269616E676C65732E62696E504B01021400140006080000CC70623B00000000000000000000000037000000000000000000
310
00000000D20E00006662782F36394639363044362D344446342D343946362D394244322D3234314243333846323333332F617474726962757465732E62696E504B01021400140006080800CC70623B08DA0BD190000000410100003600000000000000000000000000270F00006662782F36394639363044362D344446342D
310
343946362D394244322D3234314243333846323333332F6469726563746F72792E786D6C504B01021400140006080800CC70623BCA768048FE000000A00100003B000000000000000000000000000B1000006662782F36394639363044362D344446342D343946362D394244322D3234314243333846323333332F7265736F
310
75726365732F636F72652E786D6C504B0506000000000E000E0080040000621100000000
  0
XRECORD
  5
176
102
{ACAD_REACTORS
330
173
102
}
330
173
100
AcDbXrecord
280
     1
270
     1
271
     1
  0
XRECORD
  5
177
102
{ACAD_REACTORS
330
173
102
}
330
173
100
AcDbXrecord
280
     1
270
     1
271
     1
  0
XRECORD
  5
142B
102
{ACAD_REACTORS
330
142A
102
}
330
142A
100
AcDbXrecord
280
     1
102
ACAD_ROUNDTRIP_2012_MLEADER_STYLE
298
     1
  0
XRECORD
  5
143D
102
{ACAD_REACTORS
330
143C
102
}
330
143C
100
AcDbXrecord
280
     1
102
DISPLAYNAME
  1
Metric50
102
FLAGS
 90
        0
  0
CELLSTYLEMAP
  5
13FD
102
{ACAD_REACTORS
330
162
102
}
330
162
100
AcDbCellStyleMap
 90
        3
300
CELLSTYLE
  1
TABLEFORMAT_BEGIN
 90
        5
170
     1
 91
        0
 92
    32768
 62
   257
 93
        1
300
CONTENTFORMAT
  1
CONTENTFORMAT_BEGIN
 90
        0
 91
        0
 92
      512
 93
        0
300

 40
0.0
140
1.0
 94
        5
 62
     0
340
11
144
6.0
309
CONTENTFORMAT_END
171
     1
301
MARGIN
  1
CELLMARGIN_BEGIN
 40
1.5
 40
1.5
 40
1.5
 40
1.5
 40
4.5
 40
4.5
309
CELLMARGIN_END
 94
        6
 95
        1
302
GRIDFORMAT
  1
GRIDFORMAT_BEGIN
 90
        0
 91
        1
 62
     0
 92
       -2
340
14
 93
        0
 40
1.125
309
GRIDFORMAT_END
 95
        2
302
GRIDFORMAT
  1
GRIDFORMAT_BEGIN
 90
        0
 91
        1
 62
     0
 92
       -2
340
14
 93
        0
 40
1.125
309
GRIDFORMAT_END
 95
        4
302
GRIDFORMAT
  1
GRIDFORMAT_BEGIN
 90
        0
 91
        1
 62
     0
 92
       -2
340
14
 93
        0
 40
1.125
309
GRIDFORMAT_END
 95
        8
302
GRIDFORMAT
  1
GRIDFORMAT_BEGIN
 90
        0
 91
        1
 62
     0
 92
       -2
340
14
 93
        0
 40
1.125
309
GRIDFORMAT_END
 95
       16
302
GRIDFORMAT
  1
GRIDFORMAT_BEGIN
 90
        0
 91
        1
 62
     0
 92
       -2
340
14
 93
        0
 40
1.125
309
GRIDFORMAT_END
 95
       32
302
GRIDFORMAT
  1
GRIDFORMAT_BEGIN
 90
        0
 91
        1
 62
     0
 92
       -2
340
14
 93
        0
 40
1.125
309
GRIDFORMAT_END
309
TABLEFORMAT_END
  1
CELLSTYLE_BEGIN
 90
        1
 91
        1
300
_TITLE
309
CELLSTYLE_END
300
CELLSTYLE
  1
TABLEFORMAT_BEGIN
 90
        5
170
     1
 91
        0
 92
        0
 62
   257
 93
        1
300
CONTENTFORMAT
  1
CONTENTFORMAT_BEGIN
 90
        0
 91
        0
 92
      512
 93
        0
300

 40
0.0
140
1.0
 94
        5
 62
     0
340
11
144
4.5
309
CONTENTFORMAT_END
171
     1
301
MARGIN
  1
CELLMARGIN_BEGIN
 40
1.5
 40
1.5
 40
1.5
 40
1.5
 40
4.5
 40
4.5
309
CELLMARGIN_END
 94
        6
 95
        1
302
GRIDFORMAT
  1
GRIDFORMAT_BEGIN
 90
        0
 91
        1
 62
     0
 92
       -2
340
14
 93
        0
 40
1.125
309
GRIDFORMAT_END
 95
        2
302
GRIDFORMAT
  1
GRIDFORMAT_BEGIN
 90
        0
 91
        1
 62
     0
 92
       -2
340
14
 93
        0
 40
1.125
309
GRIDFORMAT_END
 95
        4
302
GRIDFORMAT
  1
GRIDFORMAT_BEGIN
 90
        0
 91
        1
 62
     0
 92
       -2
340
14
 93
        0
 40
1.125
309
GRIDFORMAT_END
 95
        8
302
GRIDFORMAT
  1
GRIDFORMAT_BEGIN
 90
        0
 91
        1
 62
     0
 92
       -2
340
14
 93
        0
 40
1.125
309
GRIDFORMAT_END
 95
       16
302
GRIDFORMAT
  1
GRIDFORMAT_BEGIN
 90
        0
 91
        1
 62
     0
 92
       -2
340
14
 93
        0
 40
1.125
309
GRIDFORMAT_END
 95
       32
302
GRIDFORMAT
  1
GRIDFORMAT_BEGIN
 90
        0
 91
        1
 62
     0
 92
       -2
340
14
 93
        0
 40
1.125
309
GRIDFORMAT_END
309
TABLEFORMAT_END
  1
CELLSTYLE_BEGIN
 90
        2
 91
        1
300
_HEADER
309
CELLSTYLE_END
300
CELLSTYLE
  1
TABLEFORMAT_BEGIN
 90
        5
170
     1
 91
        0
 92
        0
 62
   257
 93
        1
300
CONTENTFORMAT
  1
CONTENTFORMAT_BEGIN
 90
        0
 91
        0
 92
      512
 93
        0
300

 40
0.0
140
1.0
 94
        2
 62
     0
340
11
144
4.5
309
CONTENTFORMAT_END
171
     1
301
MARGIN
  1
CELLMARGIN_BEGIN
 40
1.5
 40
1.5
 40
1.5
 40
1.5
 40
4.5
 40
4.5
309
CELLMARGIN_END
 94
        6
 95
        1
302
GRIDFORMAT
  1
GRIDFORMAT_BEGIN
 90
        0
 91
        1
 62
     0
 92
       -2
340
14
 93
        0
 40
1.125
309
GRIDFORMAT_END
 95
        2
302
GRIDFORMAT
  1
GRIDFORMAT_BEGIN
 90
        0
 91
        1
 62
     0
 92
       -2
340
14
 93
        0
 40
1.125
309
GRIDFORMAT_END
 95
        4
302
GRIDFORMAT
  1
GRIDFORMAT_BEGIN
 90
        0
 91
        1
 62
     0
 92
       -2
340
14
 93
        0
 40
1.125
309
GRIDFORMAT_END
 95
        8
302
GRIDFORMAT
  1
GRIDFORMAT_BEGIN
 90
        0
 91
        1
 62
     0
 92
       -2
340
14
 93
        0
 40
1.125
309
GRIDFORMAT_END
 95
       16
302
GRIDFORMAT
  1
GRIDFORMAT_BEGIN
 90
        0
 91
        1
 62
     0
 92
       -2
340
14
 93
        0
 40
1.125
309
GRIDFORMAT_END
 95
       32
302
GRIDFORMAT
  1
GRIDFORMAT_BEGIN
 90
        0
 91
        1
 62
     0
 92
       -2
340
14
 93
        0
 40
1.125
309
GRIDFORMAT_END
309
TABLEFORMAT_END
  1
CELLSTYLE_BEGIN
 90
        3
 91
        2
300
_DATA
309
CELLSTYLE_END
  0
XRECORD
  5
1402
102
{ACAD_REACTORS
330
162
102
}
330
162
100
AcDbXrecord
280
     1
102
ACAD_ROUNDTRIP_PRE2007_TABLESTYLE
 90
      512
 91
        0
  1

 92
      512
 93
        0
  2

 94
      512
 95
        0
  3

  0
XRECORD
  5
1415
102
{ACAD_REACTORS
330
1414
102
}
330
1414
100
AcDbXrecord
280
     1
102
RTVSPost2010Prop28
280
     1
102
RTVSPost2010PropOp28
 70
     1
102
RTVSPost2010Prop29
280
     1
102
RTVSPost2010PropOp29
 70
     1
102
RTVSPost2010Prop30
280
     0
102
RTVSPost2010PropOp30
 70
     1
102
RTVSPost2010Prop31
280
     0
102
RTVSPost2010PropOp31
 70
     1
102
RTVSPost2010Prop32
280
     0
102
RTVSPost2010PropOp32
 70
     1
102
RTVSPost2010Prop33
280
     0
102
RTVSPost2010PropOp33
 70
     1
102
RTVSPost2010Prop34
280
     0
102
RTVSPost2010PropOp34
 70
     1
102
RTVSPost2010Prop35
280
     0
102
RTVSPost2010PropOp35
 70
     1
102
RTVSPost2010Prop36
280
     0
102
RTVSPost2010PropOp36
 70
     1
102
RTVSPost2010Prop37
 90
       50
102
RTVSPost2010PropOp37
 70
     1
102
RTVSPost2010Prop38
140
0.0
102
RTVSPost2010PropOp38
 70
     1
102
RTVSPost2010Prop39
140
1.0
102
RTVSPost2010PropOp39
 70
     1
102
RTVSPost2010Prop40
 90
        0
102
RTVSPost2010PropOp40
 70
     1
102
RTVSPost2010Prop41ColorIndex
 90
       18
102
RTVSPost2010Prop41ColorRGB
 90
        0
102
RTVSPost2010PropOp41
 70
     1
102
RTVSPost2010Prop42
 90
       50
102
RTVSPost2010PropOp42
 70
     1
102
RTVSPost2010Prop43
 90
        3
102
RTVSPost2010PropOp43
 70
     1
102
RTVSPost2010Prop44ColorIndex
 90
        5
102
RTVSPost2010Prop44ColorRGB
 90
      255
102
RTVSPost2010PropOp44
 70
     1
102
RTVSPost2010Prop45
280
     0
102
RTVSPost2010PropOp45
 70
     1
102
RTVSPost2010Prop46
 90
       50
102
RTVSPost2010PropOp46
 70
     1
102
RTVSPost2010Prop47
 90
       50
102
RTVSPost2010PropOp47
 70
     1
102
RTVSPost2010Prop48
 90
       50
102
RTVSPost2010PropOp48
 70
     1
102
RTVSPost2010Prop49
280
     0
102
RTVSPost2010PropOp49
 70
     1
102
RTVSPost2010Prop50
 90
       50
102
RTVSPost2010PropOp50
 70
     1
102
RTVSPost2010Prop51ColorIndex
 90
      256
102
RTVSPost2010Prop51ColorRGB
 90
-16777216
102
RTVSPost2010PropOp51
 70
     0
102
RTVSPost2010Prop52
140
1.0
102
RTVSPost2010PropOp52
 70
     0
102
RTVSPost2010Prop53
 90
        2
102
RTVSPost2010PropOp53
 70
     1
102
RTVSPost2010Prop54
  1
strokes_ogs.tif
102
RTVSPost2010PropOp54
 70
     1
102
RTVSPost2010Prop55
280
     0
102
RTVSPost2010PropOp55
 70
     1
102
RTVSPost2010Prop56
140
1.0
102
RTVSPost2010PropOp56
 70
     1
102
RTVSPost2010Prop57
140
1.0
102
RTVSPost2010PropOp57
 70
     1
102
RTVSPropertyOp0
 70
     1
102
RTVSPropertyOp1
 70
     1
102
RTVSPropertyOp2
 70
     1
102
RTVSPropertyOp3
 70
     1
102
RTVSPropertyOp4
 70
     1
102
RTVSPropertyOp5
 70
     1
102
RTVSPropertyOp6
 70
     1
102
RTVSPropertyOp7
 70
     1
102
RTVSPropertyOp8
 70
     1
102
RTVSPropertyOp9
 70
     1
102
RTVSPropertyOp10
 70
     1
102
RTVSPropertyOp11
 70
     1
102
RTVSPropertyOp12
 70
     1
102
RTVSPropertyOp13
 70
     1
102
RTVSPropertyOp14
 70
     1
102
RTVSPropertyOp15
 70
     1
102
RTVSPropertyOp16
 70
     1
102
RTVSPropertyOp17
 70
     1
102
RTVSPropertyOp18
 70
     1
102
RTVSPropertyOp19
 70
     1
102
RTVSPropertyOp20
 70
     1
102
RTVSPropertyOp21
 70
     1
102
RTVSPropertyOp22
 70
     1
102
RTVSPropertyOp23
 70
     1
102
RTVSPropertyOp24
 70
     1
102
RTVSPropertyOp25
 70
     1
102
RTVSPropertyOp26
 70
     1
102
RTVSPropertyOp27
 70
     1
102
RTVSPropertyOp28
 70
     1
102
RTVSPropertyOp29
 70
     1
102
RTVSPropertyOp30
 70
     1
102
RTVSPropertyOp31
 70
     1
102
RTVSPropertyOp32
 70
     1
102
RTVSPropertyOp33
 70
     1
102
RTVSPropertyOp34
 70
     1
102
RTVSPropertyOp35
 70
     1
102
RTVSPropertyOp36
 70
     1
102
RTVSPropertyOp37
 70
     1
102
RTVSPropertyOp38
 70
     1
102
RTVSPropertyOp39
 70
     1
102
RTVSPropertyOp40
 70
     1
102
RTVSPropertyOp41
 70
     1
102
RTVSPropertyOp42
 70
     1
102
RTVSPropertyOp43
 70
     1
102
RTVSPropertyOp44
 70
     1
102
RTVSPropertyOp45
 70
     1
102
RTVSPropertyOp46
 70
     1
102
RTVSPropertyOp47
 70
     1
102
RTVSPropertyOp48
 70
     1
102
RTVSPropertyOp49
 70
     1
102
RTVSPropertyOp50
 70
     1
102
RTVSPropertyOp51
 70
     0
102
RTVSPropertyOp52
 70
     0
102
RTVSPropertyOp53
 70
     1
102
RTVSPropertyOp54
 70
     1
102
RTVSPropertyOp55
 70
     1
102
RTVSPropertyOp56
 70
     1
102
RTVSPropertyOp57
 70
     1
102
RTVSPropertyOp58
 70
     1
102
RTVSPropertyOp59
 70
     1
102
RTVSPropertyOp60
 70
     1
102
RTVSPropertyOp61
 70
     1
102
RTVSPropertyOp62
 70
     1
  0
XRECORD
  5
1413
102
{ACAD_REACTORS
330
1412
102
}
330
1412
100
AcDbXrecord
280
     1
102
RTVSPost2010Prop28
280
     0
102
RTVSPost2010PropOp28
 70
     1
102
RTVSPost2010Prop29
280
     1
102
RTVSPost2010PropOp29
 70
     1
102
RTVSPost2010Prop30
280
     1
102
RTVSPost2010PropOp30
 70
     1
102
RTVSPost2010Prop31
280
     0
102
RTVSPost2010PropOp31
 70
     1
102
RTVSPost2010Prop32
280
     0
102
RTVSPost2010PropOp32
 70
     1
102
RTVSPost2010Prop33
280
     0
102
RTVSPost2010PropOp33
 70
     1
102
RTVSPost2010Prop34
280
     0
102
RTVSPost2010PropOp34
 70
     1
102
RTVSPost2010Prop35
280
     0
102
RTVSPost2010PropOp35
 70
     1
102
RTVSPost2010Prop36
280
     0
102
RTVSPost2010PropOp36
 70
     1
102
RTVSPost2010Prop37
 90
       50
102
RTVSPost2010PropOp37
 70
     1
102
RTVSPost2010Prop38
140
0.0
102
RTVSPost2010PropOp38
 70
     1
102
RTVSPost2010Prop39
140
1.0
102
RTVSPost2010PropOp39
 70
     1
102
RTVSPost2010Prop40
 90
        0
102
RTVSPost2010PropOp40
 70
     1
102
RTVSPost2010Prop41ColorIndex
 90
       18
102
RTVSPost2010Prop41ColorRGB
 90
        0
102
RTVSPost2010PropOp41
 70
     1
102
RTVSPost2010Prop42
 90
       50
102
RTVSPost2010PropOp42
 70
     1
102
RTVSPost2010Prop43
 90
        3
102
RTVSPost2010PropOp43
 70
     1
102
RTVSPost2010Prop44ColorIndex
 90
        5
102
RTVSPost2010Prop44ColorRGB
 90
      255
102
RTVSPost2010PropOp44
 70
     1
102
RTVSPost2010Prop45
280
     0
102
RTVSPost2010PropOp45
 70
     1
102
RTVSPost2010Prop46
 90
       50
102
RTVSPost2010PropOp46
 70
     1
102
RTVSPost2010Prop47
 90
       50
102
RTVSPost2010PropOp47
 70
     1
102
RTVSPost2010Prop48
 90
       50
102
RTVSPost2010PropOp48
 70
     1
102
RTVSPost2010Prop49
280
     0
102
RTVSPost2010PropOp49
 70
     1
102
RTVSPost2010Prop50
 90
       50
102
RTVSPost2010PropOp50
 70
     1
102
RTVSPost2010Prop51ColorIndex
 90
      256
102
RTVSPost2010Prop51ColorRGB
 90
-16777216
102
RTVSPost2010PropOp51
 70
     0
102
RTVSPost2010Prop52
140
1.0
102
RTVSPost2010PropOp52
 70
     0
102
RTVSPost2010Prop53
 90
        2
102
RTVSPost2010PropOp53
 70
     1
102
RTVSPost2010Prop54
  1
strokes_ogs.tif
102
RTVSPost2010PropOp54
 70
     1
102
RTVSPost2010Prop55
280
     0
102
RTVSPost2010PropOp55
 70
     1
102
RTVSPost2010Prop56
140
1.0
102
RTVSPost2010PropOp56
 70
     1
102
RTVSPost2010Prop57
140
1.0
102
RTVSPost2010PropOp57
 70
     1
102
RTVSPropertyOp0
 70
     1
102
RTVSPropertyOp1
 70
     1
102
RTVSPropertyOp2
 70
     1
102
RTVSPropertyOp3
 70
     1
102
RTVSPropertyOp4
 70
     1
102
RTVSPropertyOp5
 70
     1
102
RTVSPropertyOp6
 70
     1
102
RTVSPropertyOp7
 70
     1
102
RTVSPropertyOp8
 70
     1
102
RTVSPropertyOp9
 70
     1
102
RTVSPropertyOp10
 70
     1
102
RTVSPropertyOp11
 70
     1
102
RTVSPropertyOp12
 70
     1
102
RTVSPropertyOp13
 70
     1
102
RTVSPropertyOp14
 70
     1
102
RTVSPropertyOp15
 70
     1
102
RTVSPropertyOp16
 70
     1
102
RTVSPropertyOp17
 70
     1
102
RTVSPropertyOp18
 70
     1
102
RTVSPropertyOp19
 70
     1
102
RTVSPropertyOp20
 70
     1
102
RTVSPropertyOp21
 70
     1
102
RTVSPropertyOp22
 70
     1
102
RTVSPropertyOp23
 70
     1
102
RTVSPropertyOp24
 70
     1
102
RTVSPropertyOp25
 70
     1
102
RTVSPropertyOp26
 70
     1
102
RTVSPropertyOp27
 70
     1
102
RTVSPropertyOp28
 70
     1
102
RTVSPropertyOp29
 70
     1
102
RTVSPropertyOp30
 70
     1
102
RTVSPropertyOp31
 70
     1
102
RTVSPropertyOp32
 70
     1
102
RTVSPropertyOp33
 70
     1
102
RTVSPropertyOp34
 70
     1
102
RTVSPropertyOp35
 70
     1
102
RTVSPropertyOp36
 70
     1
102
RTVSPropertyOp37
 70
     1
102
RTVSPropertyOp38
 70
     1
102
RTVSPropertyOp39
 70
     1
102
RTVSPropertyOp40
 70
     1
102
RTVSPropertyOp41
 70
     1
102
RTVSPropertyOp42
 70
     1
102
RTVSPropertyOp43
 70
     1
102
RTVSPropertyOp44
 70
     1
102
RTVSPropertyOp45
 70
     1
102
RTVSPropertyOp46
 70
     1
102
RTVSPropertyOp47
 70
     1
102
RTVSPropertyOp48
 70
     1
102
RTVSPropertyOp49
 70
     1
102
RTVSPropertyOp50
 70
     1
102
RTVSPropertyOp51
 70
     0
102
RTVSPropertyOp52
 70
     0
102
RTVSPropertyOp53
 70
     1
102
RTVSPropertyOp54
 70
     1
102
RTVSPropertyOp55
 70
     1
102
RTVSPropertyOp56
 70
     1
102
RTVSPropertyOp57
 70
     1
102
RTVSPropertyOp58
 70
     1
102
RTVSPropertyOp59
 70
     1
102
RTVSPropertyOp60
 70
     1
102
RTVSPropertyOp61
 70
     1
102
RTVSPropertyOp62
 70
     1
  0
XRECORD
  5
1421
102
{ACAD_REACTORS
330
1420
102
}
330
1420
100
AcDbXrecord
280
     1
102
RTVSPost2010Prop28
280
     0
102
RTVSPost2010PropOp28
 70
     1
102
RTVSPost2010Prop29
280
     1
102
RTVSPost2010PropOp29
 70
     1
102
RTVSPost2010Prop30
280
     1
102
RTVSPost2010PropOp30
 70
     1
102
RTVSPost2010Prop31
280
     0
102
RTVSPost2010PropOp31
 70
     1
102
RTVSPost2010Prop32
280
     0
102
RTVSPost2010PropOp32
 70
     1
102
RTVSPost2010Prop33
280
     0
102
RTVSPost2010PropOp33
 70
     1
102
RTVSPost2010Prop34
280
     0
102
RTVSPost2010PropOp34
 70
     1
102
RTVSPost2010Prop35
280
     0
102
RTVSPost2010PropOp35
 70
     1
102
RTVSPost2010Prop36
280
     0
102
RTVSPost2010PropOp36
 70
     1
102
RTVSPost2010Prop37
 90
       50
102
RTVSPost2010PropOp37
 70
     1
102
RTVSPost2010Prop38
140
0.0
102
RTVSPost2010PropOp38
 70
     1
102
RTVSPost2010Prop39
140
1.0
102
RTVSPost2010PropOp39
 70
     1
102
RTVSPost2010Prop40
 90
        0
102
RTVSPost2010PropOp40
 70
     1
102
RTVSPost2010Prop41ColorIndex
 90
       18
102
RTVSPost2010Prop41ColorRGB
 90
        0
102
RTVSPost2010PropOp41
 70
     1
102
RTVSPost2010Prop42
 90
       50
102
RTVSPost2010PropOp42
 70
     1
102
RTVSPost2010Prop43
 90
        3
102
RTVSPost2010PropOp43
 70
     1
102
RTVSPost2010Prop44ColorIndex
 90
        5
102
RTVSPost2010Prop44ColorRGB
 90
      255
102
RTVSPost2010PropOp44
 70
     1
102
RTVSPost2010Prop45
280
     0
102
RTVSPost2010PropOp45
 70
     1
102
RTVSPost2010Prop46
 90
       50
102
RTVSPost2010PropOp46
 70
     1
102
RTVSPost2010Prop47
 90
       50
102
RTVSPost2010PropOp47
 70
     1
102
RTVSPost2010Prop48
 90
       50
102
RTVSPost2010PropOp48
 70
     1
102
RTVSPost2010Prop49
280
     0
102
RTVSPost2010PropOp49
 70
     1
102
RTVSPost2010Prop50
 90
       50
102
RTVSPost2010PropOp50
 70
     1
102
RTVSPost2010Prop51ColorIndex
 90
      256
102
RTVSPost2010Prop51ColorRGB
 90
-16777216
102
RTVSPost2010PropOp51
 70
     0
102
RTVSPost2010Prop52
140
1.0
102
RTVSPost2010PropOp52
 70
     0
102
RTVSPost2010Prop53
 90
        2
102
RTVSPost2010PropOp53
 70
     1
102
RTVSPost2010Prop54
  1
strokes_ogs.tif
102
RTVSPost2010PropOp54
 70
     1
102
RTVSPost2010Prop55
280
     0
102
RTVSPost2010PropOp55
 70
     1
102
RTVSPost2010Prop56
140
1.0
102
RTVSPost2010PropOp56
 70
     1
102
RTVSPost2010Prop57
140
1.0
102
RTVSPost2010PropOp57
 70
     1
102
RTVSPropertyOp0
 70
     1
102
RTVSPropertyOp1
 70
     1
102
RTVSPropertyOp2
 70
     1
102
RTVSPropertyOp3
 70
     1
102
RTVSPropertyOp4
 70
     1
102
RTVSPropertyOp5
 70
     1
102
RTVSPropertyOp6
 70
     1
102
RTVSPropertyOp7
 70
     1
102
RTVSPropertyOp8
 70
     1
102
RTVSPropertyOp9
 70
     1
102
RTVSPropertyOp10
 70
     1
102
RTVSPropertyOp11
 70
     1
102
RTVSPropertyOp12
 70
     1
102
RTVSPropertyOp13
 70
     1
102
RTVSPropertyOp14
 70
     1
102
RTVSPropertyOp15
 70
     1
102
RTVSPropertyOp16
 70
     1
102
RTVSPropertyOp17
 70
     1
102
RTVSPropertyOp18
 70
     1
102
RTVSPropertyOp19
 70
     1
102
RTVSPropertyOp20
 70
     1
102
RTVSPropertyOp21
 70
     1
102
RTVSPropertyOp22
 70
     1
102
RTVSPropertyOp23
 70
     1
102
RTVSPropertyOp24
 70
     1
102
RTVSPropertyOp25
 70
     1
102
RTVSPropertyOp26
 70
     1
102
RTVSPropertyOp27
 70
     1
102
RTVSPropertyOp28
 70
     1
102
RTVSPropertyOp29
 70
     1
102
RTVSPropertyOp30
 70
     1
102
RTVSPropertyOp31
 70
     1
102
RTVSPropertyOp32
 70
     1
102
RTVSPropertyOp33
 70
     1
102
RTVSPropertyOp34
 70
     1
102
RTVSPropertyOp35
 70
     1
102
RTVSPropertyOp36
 70
     1
102
RTVSPropertyOp37
 70
     1
102
RTVSPropertyOp38
 70
     1
102
RTVSPropertyOp39
 70
     1
102
RTVSPropertyOp40
 70
     1
102
RTVSPropertyOp41
 70
     1
102
RTVSPropertyOp42
 70
     1
102
RTVSPropertyOp43
 70
     1
102
RTVSPropertyOp44
 70
     1
102
RTVSPropertyOp45
 70
     1
102
RTVSPropertyOp46
 70
     1
102
RTVSPropertyOp47
 70
     1
102
RTVSPropertyOp48
 70
     1
102
RTVSPropertyOp49
 70
     1
102
RTVSPropertyOp50
 70
     1
102
RTVSPropertyOp51
 70
     0
102
RTVSPropertyOp52
 70
     0
102
RTVSPropertyOp53
 70
     1
102
RTVSPropertyOp54
 70
     1
102
RTVSPropertyOp55
 70
     1
102
RTVSPropertyOp56
 70
     1
102
RTVSPropertyOp57
 70
     1
102
RTVSPropertyOp58
 70
     1
102
RTVSPropertyOp59
 70
     1
102
RTVSPropertyOp60
 70
     1
102
RTVSPropertyOp61
 70
     1
102
RTVSPropertyOp62
 70
     1
  0
XRECORD
  5
1429
102
{ACAD_REACTORS
330
1428
102
}
330
1428
100
AcDbXrecord
280
     1
102
RTVSPost2010Prop28
280
     0
102
RTVSPost2010PropOp28
 70
     1
102
RTVSPost2010Prop29
280
     1
102
RTVSPost2010PropOp29
 70
     1
102
RTVSPost2010Prop30
280
     1
102
RTVSPost2010PropOp30
 70
     1
102
RTVSPost2010Prop31
280
     0
102
RTVSPost2010PropOp31
 70
     1
102
RTVSPost2010Prop32
280
     0
102
RTVSPost2010PropOp32
 70
     1
102
RTVSPost2010Prop33
280
     0
102
RTVSPost2010PropOp33
 70
     1
102
RTVSPost2010Prop34
280
     0
102
RTVSPost2010PropOp34
 70
     1
102
RTVSPost2010Prop35
280
     0
102
RTVSPost2010PropOp35
 70
     1
102
RTVSPost2010Prop36
280
     0
102
RTVSPost2010PropOp36
 70
     1
102
RTVSPost2010Prop37
 90
       50
102
RTVSPost2010PropOp37
 70
     1
102
RTVSPost2010Prop38
140
0.0
102
RTVSPost2010PropOp38
 70
     1
102
RTVSPost2010Prop39
140
1.0
102
RTVSPost2010PropOp39
 70
     1
102
RTVSPost2010Prop40
 90
        0
102
RTVSPost2010PropOp40
 70
     1
102
RTVSPost2010Prop41ColorIndex
 90
       18
102
RTVSPost2010Prop41ColorRGB
 90
        0
102
RTVSPost2010PropOp41
 70
     1
102
RTVSPost2010Prop42
 90
       50
102
RTVSPost2010PropOp42
 70
     1
102
RTVSPost2010Prop43
 90
        3
102
RTVSPost2010PropOp43
 70
     1
102
RTVSPost2010Prop44ColorIndex
 90
        5
102
RTVSPost2010Prop44ColorRGB
 90
      255
102
RTVSPost2010PropOp44
 70
     1
102
RTVSPost2010Prop45
280
     0
102
RTVSPost2010PropOp45
 70
     1
102
RTVSPost2010Prop46
 90
       50
102
RTVSPost2010PropOp46
 70
     1
102
RTVSPost2010Prop47
 90
       50
102
RTVSPost2010PropOp47
 70
     1
102
RTVSPost2010Prop48
 90
       50
102
RTVSPost2010PropOp48
 70
     1
102
RTVSPost2010Prop49
280
     0
102
RTVSPost2010PropOp49
 70
     1
102
RTVSPost2010Prop50
 90
       50
102
RTVSPost2010PropOp50
 70
     1
102
RTVSPost2010Prop51ColorIndex
 90
      256
102
RTVSPost2010Prop51ColorRGB
 90
-16777216
102
RTVSPost2010PropOp51
 70
     0
102
RTVSPost2010Prop52
140
1.0
102
RTVSPost2010PropOp52
 70
     0
102
RTVSPost2010Prop53
 90
        2
102
RTVSPost2010PropOp53
 70
     1
102
RTVSPost2010Prop54
  1
strokes_ogs.tif
102
RTVSPost2010PropOp54
 70
     1
102
RTVSPost2010Prop55
280
     0
102
RTVSPost2010PropOp55
 70
     1
102
RTVSPost2010Prop56
140
1.0
102
RTVSPost2010PropOp56
 70
     1
102
RTVSPost2010Prop57
140
1.0
102
RTVSPost2010PropOp57
 70
     1
102
RTVSPropertyOp0
 70
     1
102
RTVSPropertyOp1
 70
     1
102
RTVSPropertyOp2
 70
     1
102
RTVSPropertyOp3
 70
     1
102
RTVSPropertyOp4
 70
     1
102
RTVSPropertyOp5
 70
     1
102
RTVSPropertyOp6
 70
     1
102
RTVSPropertyOp7
 70
     1
102
RTVSPropertyOp8
 70
     1
102
RTVSPropertyOp9
 70
     1
102
RTVSPropertyOp10
 70
     1
102
RTVSPropertyOp11
 70
     1
102
RTVSPropertyOp12
 70
     1
102
RTVSPropertyOp13
 70
     1
102
RTVSPropertyOp14
 70
     1
102
RTVSPropertyOp15
 70
     1
102
RTVSPropertyOp16
 70
     1
102
RTVSPropertyOp17
 70
     1
102
RTVSPropertyOp18
 70
     1
102
RTVSPropertyOp19
 70
     1
102
RTVSPropertyOp20
 70
     1
102
RTVSPropertyOp21
 70
     1
102
RTVSPropertyOp22
 70
     1
102
RTVSPropertyOp23
 70
     1
102
RTVSPropertyOp24
 70
     1
102
RTVSPropertyOp25
 70
     1
102
RTVSPropertyOp26
 70
     1
102
RTVSPropertyOp27
 70
     1
102
RTVSPropertyOp28
 70
     1
102
RTVSPropertyOp29
 70
     1
102
RTVSPropertyOp30
 70
     1
102
RTVSPropertyOp31
 70
     1
102
RTVSPropertyOp32
 70
     1
102
RTVSPropertyOp33
 70
     1
102
RTVSPropertyOp34
 70
     1
102
RTVSPropertyOp35
 70
     1
102
RTVSPropertyOp36
 70
     1
102
RTVSPropertyOp37
 70
     1
102
RTVSPropertyOp38
 70
     1
102
RTVSPropertyOp39
 70
     1
102
RTVSPropertyOp40
 70
     1
102
RTVSPropertyOp41
 70
     1
102
RTVSPropertyOp42
 70
     1
102
RTVSPropertyOp43
 70
     1
102
RTVSPropertyOp44
 70
     1
102
RTVSPropertyOp45
 70
     1
102
RTVSPropertyOp46
 70
     1
102
RTVSPropertyOp47
 70
     1
102
RTVSPropertyOp48
 70
     1
102
RTVSPropertyOp49
 70
     1
102
RTVSPropertyOp50
 70
     1
102
RTVSPropertyOp51
 70
     0
102
RTVSPropertyOp52
 70
     0
102
RTVSPropertyOp53
 70
     1
102
RTVSPropertyOp54
 70
     1
102
RTVSPropertyOp55
 70
     1
102
RTVSPropertyOp56
 70
     1
102
RTVSPropertyOp57
 70
     1
102
RTVSPropertyOp58
 70
     1
102
RTVSPropertyOp59
 70
     1
102
RTVSPropertyOp60
 70
     1
102
RTVSPropertyOp61
 70
     1
102
RTVSPropertyOp62
 70
     1
  0
XRECORD
  5
141B
102
{ACAD_REACTORS
330
141A
102
}
330
141A
100
AcDbXrecord
280
     1
102
RTVSPost2010Prop28
280
     0
102
RTVSPost2010PropOp28
 70
     1
102
RTVSPost2010Prop29
280
     1
102
RTVSPost2010PropOp29
 70
     1
102
RTVSPost2010Prop30
280
     1
102
RTVSPost2010PropOp30
 70
     1
102
RTVSPost2010Prop31
280
     0
102
RTVSPost2010PropOp31
 70
     1
102
RTVSPost2010Prop32
280
     0
102
RTVSPost2010PropOp32
 70
     1
102
RTVSPost2010Prop33
280
     0
102
RTVSPost2010PropOp33
 70
     1
102
RTVSPost2010Prop34
280
     0
102
RTVSPost2010PropOp34
 70
     1
102
RTVSPost2010Prop35
280
     0
102
RTVSPost2010PropOp35
 70
     1
102
RTVSPost2010Prop36
280
     0
102
RTVSPost2010PropOp36
 70
     1
102
RTVSPost2010Prop37
 90
       50
102
RTVSPost2010PropOp37
 70
     1
102
RTVSPost2010Prop38
140
0.0
102
RTVSPost2010PropOp38
 70
     1
102
RTVSPost2010Prop39
140
1.0
102
RTVSPost2010PropOp39
 70
     1
102
RTVSPost2010Prop40
 90
        0
102
RTVSPost2010PropOp40
 70
     1
102
RTVSPost2010Prop41ColorIndex
 90
       18
102
RTVSPost2010Prop41ColorRGB
 90
        0
102
RTVSPost2010PropOp41
 70
     1
102
RTVSPost2010Prop42
 90
       50
102
RTVSPost2010PropOp42
 70
     1
102
RTVSPost2010Prop43
 90
        3
102
RTVSPost2010PropOp43
 70
     1
102
RTVSPost2010Prop44ColorIndex
 90
        5
102
RTVSPost2010Prop44ColorRGB
 90
      255
102
RTVSPost2010PropOp44
 70
     1
102
RTVSPost2010Prop45
280
     0
102
RTVSPost2010PropOp45
 70
     1
102
RTVSPost2010Prop46
 90
       50
102
RTVSPost2010PropOp46
 70
     1
102
RTVSPost2010Prop47
 90
       50
102
RTVSPost2010PropOp47
 70
     1
102
RTVSPost2010Prop48
 90
       50
102
RTVSPost2010PropOp48
 70
     1
102
RTVSPost2010Prop49
280
     0
102
RTVSPost2010PropOp49
 70
     1
102
RTVSPost2010Prop50
 90
       50
102
RTVSPost2010PropOp50
 70
     1
102
RTVSPost2010Prop51ColorIndex
 90
      256
102
RTVSPost2010Prop51ColorRGB
 90
-16777216
102
RTVSPost2010PropOp51
 70
     0
102
RTVSPost2010Prop52
140
1.0
102
RTVSPost2010PropOp52
 70
     0
102
RTVSPost2010Prop53
 90
        2
102
RTVSPost2010PropOp53
 70
     1
102
RTVSPost2010Prop54
  1
strokes_ogs.tif
102
RTVSPost2010PropOp54
 70
     1
102
RTVSPost2010Prop55
280
     0
102
RTVSPost2010PropOp55
 70
     1
102
RTVSPost2010Prop56
140
1.0
102
RTVSPost2010PropOp56
 70
     1
102
RTVSPost2010Prop57
140
1.0
102
RTVSPost2010PropOp57
 70
     1
102
RTVSPropertyOp0
 70
     1
102
RTVSPropertyOp1
 70
     1
102
RTVSPropertyOp2
 70
     1
102
RTVSPropertyOp3
 70
     1
102
RTVSPropertyOp4
 70
     1
102
RTVSPropertyOp5
 70
     1
102
RTVSPropertyOp6
 70
     1
102
RTVSPropertyOp7
 70
     1
102
RTVSPropertyOp8
 70
     1
102
RTVSPropertyOp9
 70
     1
102
RTVSPropertyOp10
 70
     1
102
RTVSPropertyOp11
 70
     1
102
RTVSPropertyOp12
 70
     1
102
RTVSPropertyOp13
 70
     1
102
RTVSPropertyOp14
 70
     1
102
RTVSPropertyOp15
 70
     1
102
RTVSPropertyOp16
 70
     1
102
RTVSPropertyOp17
 70
     1
102
RTVSPropertyOp18
 70
     1
102
RTVSPropertyOp19
 70
     1
102
RTVSPropertyOp20
 70
     1
102
RTVSPropertyOp21
 70
     1
102
RTVSPropertyOp22
 70
     1
102
RTVSPropertyOp23
 70
     1
102
RTVSPropertyOp24
 70
     1
102
RTVSPropertyOp25
 70
     1
102
RTVSPropertyOp26
 70
     1
102
RTVSPropertyOp27
 70
     1
102
RTVSPropertyOp28
 70
     1
102
RTVSPropertyOp29
 70
     1
102
RTVSPropertyOp30
 70
     1
102
RTVSPropertyOp31
 70
     1
102
RTVSPropertyOp32
 70
     1
102
RTVSPropertyOp33
 70
     1
102
RTVSPropertyOp34
 70
     1
102
RTVSPropertyOp35
 70
     1
102
RTVSPropertyOp36
 70
     1
102
RTVSPropertyOp37
 70
     1
102
RTVSPropertyOp38
 70
     1
102
RTVSPropertyOp39
 70
     1
102
RTVSPropertyOp40
 70
     1
102
RTVSPropertyOp41
 70
     1
102
RTVSPropertyOp42
 70
     1
102
RTVSPropertyOp43
 70
     1
102
RTVSPropertyOp44
 70
     1
102
RTVSPropertyOp45
 70
     1
102
RTVSPropertyOp46
 70
     1
102
RTVSPropertyOp47
 70
     1
102
RTVSPropertyOp48
 70
     1
102
RTVSPropertyOp49
 70
     1
102
RTVSPropertyOp50
 70
     1
102
RTVSPropertyOp51
 70
     0
102
RTVSPropertyOp52
 70
     0
102
RTVSPropertyOp53
 70
     1
102
RTVSPropertyOp54
 70
     1
102
RTVSPropertyOp55
 70
     1
102
RTVSPropertyOp56
 70
     1
102
RTVSPropertyOp57
 70
     1
102
RTVSPropertyOp58
 70
     1
102
RTVSPropertyOp59
 70
     1
102
RTVSPropertyOp60
 70
     1
102
RTVSPropertyOp61
 70
     1
102
RTVSPropertyOp62
 70
     1
  0
XRECORD
  5
141F
102
{ACAD_REACTORS
330
141E
102
}
330
141E
100
AcDbXrecord
280
     1
102
RTVSPost2010Prop28
280
     0
102
RTVSPost2010PropOp28
 70
     1
102
RTVSPost2010Prop29
280
     1
102
RTVSPost2010PropOp29
 70
     1
102
RTVSPost2010Prop30
280
     1
102
RTVSPost2010PropOp30
 70
     1
102
RTVSPost2010Prop31
280
     0
102
RTVSPost2010PropOp31
 70
     1
102
RTVSPost2010Prop32
280
     0
102
RTVSPost2010PropOp32
 70
     1
102
RTVSPost2010Prop33
280
     0
102
RTVSPost2010PropOp33
 70
     1
102
RTVSPost2010Prop34
280
     0
102
RTVSPost2010PropOp34
 70
     1
102
RTVSPost2010Prop35
280
     0
102
RTVSPost2010PropOp35
 70
     1
102
RTVSPost2010Prop36
280
     0
102
RTVSPost2010PropOp36
 70
     1
102
RTVSPost2010Prop37
 90
       50
102
RTVSPost2010PropOp37
 70
     1
102
RTVSPost2010Prop38
140
0.0
102
RTVSPost2010PropOp38
 70
     1
102
RTVSPost2010Prop39
140
1.0
102
RTVSPost2010PropOp39
 70
     1
102
RTVSPost2010Prop40
 90
        0
102
RTVSPost2010PropOp40
 70
     1
102
RTVSPost2010Prop41ColorIndex
 90
       18
102
RTVSPost2010Prop41ColorRGB
 90
        0
102
RTVSPost2010PropOp41
 70
     1
102
RTVSPost2010Prop42
 90
       50
102
RTVSPost2010PropOp42
 70
     1
102
RTVSPost2010Prop43
 90
        3
102
RTVSPost2010PropOp43
 70
     1
102
RTVSPost2010Prop44ColorIndex
 90
        5
102
RTVSPost2010Prop44ColorRGB
 90
      255
102
RTVSPost2010PropOp44
 70
     1
102
RTVSPost2010Prop45
280
     0
102
RTVSPost2010PropOp45
 70
     1
102
RTVSPost2010Prop46
 90
       50
102
RTVSPost2010PropOp46
 70
     1
102
RTVSPost2010Prop47
 90
       50
102
RTVSPost2010PropOp47
 70
     1
102
RTVSPost2010Prop48
 90
       50
102
RTVSPost2010PropOp48
 70
     1
102
RTVSPost2010Prop49
280
     0
102
RTVSPost2010PropOp49
 70
     1
102
RTVSPost2010Prop50
 90
       50
102
RTVSPost2010PropOp50
 70
     1
102
RTVSPost2010Prop51ColorIndex
 90
      256
102
RTVSPost2010Prop51ColorRGB
 90
-16777216
102
RTVSPost2010PropOp51
 70
     0
102
RTVSPost2010Prop52
140
1.0
102
RTVSPost2010PropOp52
 70
     0
102
RTVSPost2010Prop53
 90
        2
102
RTVSPost2010PropOp53
 70
     1
102
RTVSPost2010Prop54
  1
strokes_ogs.tif
102
RTVSPost2010PropOp54
 70
     1
102
RTVSPost2010Prop55
280
     0
102
RTVSPost2010PropOp55
 70
     1
102
RTVSPost2010Prop56
140
1.0
102
RTVSPost2010PropOp56
 70
     1
102
RTVSPost2010Prop57
140
1.0
102
RTVSPost2010PropOp57
 70
     1
102
RTVSPropertyOp0
 70
     1
102
RTVSPropertyOp1
 70
     1
102
RTVSPropertyOp2
 70
     1
102
RTVSPropertyOp3
 70
     1
102
RTVSPropertyOp4
 70
     1
102
RTVSPropertyOp5
 70
     1
102
RTVSPropertyOp6
 70
     1
102
RTVSPropertyOp7
 70
     1
102
RTVSPropertyOp8
 70
     1
102
RTVSPropertyOp9
 70
     1
102
RTVSPropertyOp10
 70
     1
102
RTVSPropertyOp11
 70
     1
102
RTVSPropertyOp12
 70
     1
102
RTVSPropertyOp13
 70
     1
102
RTVSPropertyOp14
 70
     1
102
RTVSPropertyOp15
 70
     1
102
RTVSPropertyOp16
 70
     1
102
RTVSPropertyOp17
 70
     1
102
RTVSPropertyOp18
 70
     1
102
RTVSPropertyOp19
 70
     1
102
RTVSPropertyOp20
 70
     1
102
RTVSPropertyOp21
 70
     1
102
RTVSPropertyOp22
 70
     1
102
RTVSPropertyOp23
 70
     1
102
RTVSPropertyOp24
 70
     1
102
RTVSPropertyOp25
 70
     1
102
RTVSPropertyOp26
 70
     1
102
RTVSPropertyOp27
 70
     1
102
RTVSPropertyOp28
 70
     1
102
RTVSPropertyOp29
 70
     1
102
RTVSPropertyOp30
 70
     1
102
RTVSPropertyOp31
 70
     1
102
RTVSPropertyOp32
 70
     1
102
RTVSPropertyOp33
 70
     1
102
RTVSPropertyOp34
 70
     1
102
RTVSPropertyOp35
 70
     1
102
RTVSPropertyOp36
 70
     1
102
RTVSPropertyOp37
 70
     1
102
RTVSPropertyOp38
 70
     1
102
RTVSPropertyOp39
 70
     1
102
RTVSPropertyOp40
 70
     1
102
RTVSPropertyOp41
 70
     1
102
RTVSPropertyOp42
 70
     1
102
RTVSPropertyOp43
 70
     1
102
RTVSPropertyOp44
 70
     1
102
RTVSPropertyOp45
 70
     1
102
RTVSPropertyOp46
 70
     1
102
RTVSPropertyOp47
 70
     1
102
RTVSPropertyOp48
 70
     1
102
RTVSPropertyOp49
 70
     1
102
RTVSPropertyOp50
 70
     1
102
RTVSPropertyOp51
 70
     0
102
RTVSPropertyOp52
 70
     0
102
RTVSPropertyOp53
 70
     1
102
RTVSPropertyOp54
 70
     1
102
RTVSPropertyOp55
 70
     1
102
RTVSPropertyOp56
 70
     1
102
RTVSPropertyOp57
 70
     1
102
RTVSPropertyOp58
 70
     1
102
RTVSPropertyOp59
 70
     1
102
RTVSPropertyOp60
 70
     1
102
RTVSPropertyOp61
 70
     1
102
RTVSPropertyOp62
 70
     1
  0
XRECORD
  5
1431
102
{ACAD_REACTORS
330
1430
102
}
330
1430
100
AcDbXrecord
280
     1
102
RTVSPost2010Prop28
280
     0
102
RTVSPost2010PropOp28
 70
     1
102
RTVSPost2010Prop29
280
     1
102
RTVSPost2010PropOp29
 70
     1
102
RTVSPost2010Prop30
280
     1
102
RTVSPost2010PropOp30
 70
     1
102
RTVSPost2010Prop31
280
     0
102
RTVSPost2010PropOp31
 70
     1
102
RTVSPost2010Prop32
280
     0
102
RTVSPost2010PropOp32
 70
     1
102
RTVSPost2010Prop33
280
     0
102
RTVSPost2010PropOp33
 70
     1
102
RTVSPost2010Prop34
280
     0
102
RTVSPost2010PropOp34
 70
     1
102
RTVSPost2010Prop35
280
     0
102
RTVSPost2010PropOp35
 70
     1
102
RTVSPost2010Prop36
280
     0
102
RTVSPost2010PropOp36
 70
     1
102
RTVSPost2010Prop37
 90
       50
102
RTVSPost2010PropOp37
 70
     1
102
RTVSPost2010Prop38
140
0.0
102
RTVSPost2010PropOp38
 70
     1
102
RTVSPost2010Prop39
140
1.0
102
RTVSPost2010PropOp39
 70
     1
102
RTVSPost2010Prop40
 90
        0
102
RTVSPost2010PropOp40
 70
     1
102
RTVSPost2010Prop41ColorIndex
 90
       18
102
RTVSPost2010Prop41ColorRGB
 90
        0
102
RTVSPost2010PropOp41
 70
     1
102
RTVSPost2010Prop42
 90
       50
102
RTVSPost2010PropOp42
 70
     1
102
RTVSPost2010Prop43
 90
        3
102
RTVSPost2010PropOp43
 70
     1
102
RTVSPost2010Prop44ColorIndex
 90
        5
102
RTVSPost2010Prop44ColorRGB
 90
      255
102
RTVSPost2010PropOp44
 70
     1
102
RTVSPost2010Prop45
280
     0
102
RTVSPost2010PropOp45
 70
     1
102
RTVSPost2010Prop46
 90
       50
102
RTVSPost2010PropOp46
 70
     1
102
RTVSPost2010Prop47
 90
       50
102
RTVSPost2010PropOp47
 70
     1
102
RTVSPost2010Prop48
 90
       50
102
RTVSPost2010PropOp48
 70
     1
102
RTVSPost2010Prop49
280
     0
102
RTVSPost2010PropOp49
 70
     1
102
RTVSPost2010Prop50
 90
       50
102
RTVSPost2010PropOp50
 70
     1
102
RTVSPost2010Prop51ColorIndex
 90
      256
102
RTVSPost2010Prop51ColorRGB
 90
-16777216
102
RTVSPost2010PropOp51
 70
     0
102
RTVSPost2010Prop52
140
1.0
102
RTVSPost2010PropOp52
 70
     0
102
RTVSPost2010Prop53
 90
        2
102
RTVSPost2010PropOp53
 70
     1
102
RTVSPost2010Prop54
  1
strokes_ogs.tif
102
RTVSPost2010PropOp54
 70
     1
102
RTVSPost2010Prop55
280
     0
102
RTVSPost2010PropOp55
 70
     1
102
RTVSPost2010Prop56
140
1.0
102
RTVSPost2010PropOp56
 70
     1
102
RTVSPost2010Prop57
140
1.0
102
RTVSPost2010PropOp57
 70
     1
102
RTVSPropertyOp0
 70
     0
102
RTVSPropertyOp1
 70
     0
102
RTVSPropertyOp2
 70
     0
102
RTVSPropertyOp3
 70
     0
102
RTVSPropertyOp4
 70
     0
102
RTVSPropertyOp5
 70
     0
102
RTVSPropertyOp6
 70
     0
102
RTVSPropertyOp7
 70
     0
102
RTVSPropertyOp8
 70
     0
102
RTVSPropertyOp9
 70
     0
102
RTVSPropertyOp10
 70
     0
102
RTVSPropertyOp11
 70
     0
102
RTVSPropertyOp12
 70
     0
102
RTVSPropertyOp13
 70
     0
102
RTVSPropertyOp14
 70
     2
102
RTVSPropertyOp15
 70
     0
102
RTVSPropertyOp16
 70
     0
102
RTVSPropertyOp17
 70
     0
102
RTVSPropertyOp18
 70
     0
102
RTVSPropertyOp19
 70
     0
102
RTVSPropertyOp20
 70
     0
102
RTVSPropertyOp21
 70
     0
102
RTVSPropertyOp22
 70
     0
102
RTVSPropertyOp23
 70
     0
102
RTVSPropertyOp24
 70
     0
102
RTVSPropertyOp25
 70
     0
102
RTVSPropertyOp26
 70
     0
102
RTVSPropertyOp27
 70
     0
102
RTVSPropertyOp28
 70
     1
102
RTVSPropertyOp29
 70
     1
102
RTVSPropertyOp30
 70
     1
102
RTVSPropertyOp31
 70
     1
102
RTVSPropertyOp32
 70
     1
102
RTVSPropertyOp33
 70
     1
102
RTVSPropertyOp34
 70
     1
102
RTVSPropertyOp35
 70
     1
102
RTVSPropertyOp36
 70
     1
102
RTVSPropertyOp37
 70
     1
102
RTVSPropertyOp38
 70
     1
102
RTVSPropertyOp39
 70
     1
102
RTVSPropertyOp40
 70
     1
102
RTVSPropertyOp41
 70
     1
102
RTVSPropertyOp42
 70
     1
102
RTVSPropertyOp43
 70
     1
102
RTVSPropertyOp44
 70
     1
102
RTVSPropertyOp45
 70
     1
102
RTVSPropertyOp46
 70
     1
102
RTVSPropertyOp47
 70
     1
102
RTVSPropertyOp48
 70
     1
102
RTVSPropertyOp49
 70
     1
102
RTVSPropertyOp50
 70
     1
102
RTVSPropertyOp51
 70
     0
102
RTVSPropertyOp52
 70
     0
102
RTVSPropertyOp53
 70
     1
102
RTVSPropertyOp54
 70
     1
102
RTVSPropertyOp55
 70
     1
102
RTVSPropertyOp56
 70
     1
102
RTVSPropertyOp57
 70
     1
102
RTVSPropertyOp58
 70
     1
102
RTVSPropertyOp59
 70
     1
102
RTVSPropertyOp60
 70
     1
102
RTVSPropertyOp61
 70
     1
102
RTVSPropertyOp62
 70
     1
  0
XRECORD
  5
1427
102
{ACAD_REACTORS
330
1426
102
}
330
1426
100
AcDbXrecord
280
     1
102
RTVSPost2010Prop28
280
     0
102
RTVSPost2010PropOp28
 70
     1
102
RTVSPost2010Prop29
280
     1
102
RTVSPost2010PropOp29
 70
     1
102
RTVSPost2010Prop30
280
     1
102
RTVSPost2010PropOp30
 70
     1
102
RTVSPost2010Prop31
280
     0
102
RTVSPost2010PropOp31
 70
     1
102
RTVSPost2010Prop32
280
     0
102
RTVSPost2010PropOp32
 70
     1
102
RTVSPost2010Prop33
280
     0
102
RTVSPost2010PropOp33
 70
     1
102
RTVSPost2010Prop34
280
     0
102
RTVSPost2010PropOp34
 70
     1
102
RTVSPost2010Prop35
280
     0
102
RTVSPost2010PropOp35
 70
     1
102
RTVSPost2010Prop36
280
     0
102
RTVSPost2010PropOp36
 70
     1
102
RTVSPost2010Prop37
 90
       50
102
RTVSPost2010PropOp37
 70
     1
102
RTVSPost2010Prop38
140
0.0
102
RTVSPost2010PropOp38
 70
     1
102
RTVSPost2010Prop39
140
1.0
102
RTVSPost2010PropOp39
 70
     1
102
RTVSPost2010Prop40
 90
        0
102
RTVSPost2010PropOp40
 70
     1
102
RTVSPost2010Prop41ColorIndex
 90
       18
102
RTVSPost2010Prop41ColorRGB
 90
        0
102
RTVSPost2010PropOp41
 70
     1
102
RTVSPost2010Prop42
 90
       50
102
RTVSPost2010PropOp42
 70
     1
102
RTVSPost2010Prop43
 90
        3
102
RTVSPost2010PropOp43
 70
     1
102
RTVSPost2010Prop44ColorIndex
 90
        5
102
RTVSPost2010Prop44ColorRGB
 90
      255
102
RTVSPost2010PropOp44
 70
     1
102
RTVSPost2010Prop45
280
     0
102
RTVSPost2010PropOp45
 70
     1
102
RTVSPost2010Prop46
 90
       50
102
RTVSPost2010PropOp46
 70
     1
102
RTVSPost2010Prop47
 90
       50
102
RTVSPost2010PropOp47
 70
     1
102
RTVSPost2010Prop48
 90
       50
102
RTVSPost2010PropOp48
 70
     1
102
RTVSPost2010Prop49
280
     0
102
RTVSPost2010PropOp49
 70
     1
102
RTVSPost2010Prop50
 90
       50
102
RTVSPost2010PropOp50
 70
     1
102
RTVSPost2010Prop51ColorIndex
 90
      256
102
RTVSPost2010Prop51ColorRGB
 90
-16777216
102
RTVSPost2010PropOp51
 70
     0
102
RTVSPost2010Prop52
140
1.0
102
RTVSPost2010PropOp52
 70
     0
102
RTVSPost2010Prop53
 90
        2
102
RTVSPost2010PropOp53
 70
     1
102
RTVSPost2010Prop54
  1
strokes_ogs.tif
102
RTVSPost2010PropOp54
 70
     1
102
RTVSPost2010Prop55
280
     0
102
RTVSPost2010PropOp55
 70
     1
102
RTVSPost2010Prop56
140
1.0
102
RTVSPost2010PropOp56
 70
     1
102
RTVSPost2010Prop57
140
1.0
102
RTVSPost2010PropOp57
 70
     1
102
RTVSPropertyOp0
 70
     1
102
RTVSPropertyOp1
 70
     1
102
RTVSPropertyOp2
 70
     1
102
RTVSPropertyOp3
 70
     1
102
RTVSPropertyOp4
 70
     1
102
RTVSPropertyOp5
 70
     1
102
RTVSPropertyOp6
 70
     1
102
RTVSPropertyOp7
 70
     1
102
RTVSPropertyOp8
 70
     1
102
RTVSPropertyOp9
 70
     1
102
RTVSPropertyOp10
 70
     1
102
RTVSPropertyOp11
 70
     1
102
RTVSPropertyOp12
 70
     1
102
RTVSPropertyOp13
 70
     1
102
RTVSPropertyOp14
 70
     1
102
RTVSPropertyOp15
 70
     1
102
RTVSPropertyOp16
 70
     1
102
RTVSPropertyOp17
 70
     1
102
RTVSPropertyOp18
 70
     1
102
RTVSPropertyOp19
 70
     1
102
RTVSPropertyOp20
 70
     1
102
RTVSPropertyOp21
 70
     1
102
RTVSPropertyOp22
 70
     1
102
RTVSPropertyOp23
 70
     1
102
RTVSPropertyOp24
 70
     1
102
RTVSPropertyOp25
 70
     1
102
RTVSPropertyOp26
 70
     1
102
RTVSPropertyOp27
 70
     1
102
RTVSPropertyOp28
 70
     1
102
RTVSPropertyOp29
 70
     1
102
RTVSPropertyOp30
 70
     1
102
RTVSPropertyOp31
 70
     1
102
RTVSPropertyOp32
 70
     1
102
RTVSPropertyOp33
 70
     1
102
RTVSPropertyOp34
 70
     1
102
RTVSPropertyOp35
 70
     1
102
RTVSPropertyOp36
 70
     1
102
RTVSPropertyOp37
 70
     1
102
RTVSPropertyOp38
 70
     1
102
RTVSPropertyOp39
 70
     1
102
RTVSPropertyOp40
 70
     1
102
RTVSPropertyOp41
 70
     1
102
RTVSPropertyOp42
 70
     1
102
RTVSPropertyOp43
 70
     1
102
RTVSPropertyOp44
 70
     1
102
RTVSPropertyOp45
 70
     1
102
RTVSPropertyOp46
 70
     1
102
RTVSPropertyOp47
 70
     1
102
RTVSPropertyOp48
 70
     1
102
RTVSPropertyOp49
 70
     1
102
RTVSPropertyOp50
 70
     1
102
RTVSPropertyOp51
 70
     0
102
RTVSPropertyOp52
 70
     0
102
RTVSPropertyOp53
 70
     1
102
RTVSPropertyOp54
 70
     1
102
RTVSPropertyOp55
 70
     1
102
RTVSPropertyOp56
 70
     1
102
RTVSPropertyOp57
 70
     1
102
RTVSPropertyOp58
 70
     1
102
RTVSPropertyOp59
 70
     1
102
RTVSPropertyOp60
 70
     1
102
RTVSPropertyOp61
 70
     1
102
RTVSPropertyOp62
 70
     1
  0
XRECORD
  5
140B
102
{ACAD_REACTORS
330
140A
102
}
330
140A
100
AcDbXrecord
280
     1
102
RTVSPost2010Prop28
280
     0
102
RTVSPost2010PropOp28
 70
     1
102
RTVSPost2010Prop29
280
     1
102
RTVSPost2010PropOp29
 70
     1
102
RTVSPost2010Prop30
280
     1
102
RTVSPost2010PropOp30
 70
     1
102
RTVSPost2010Prop31
280
     0
102
RTVSPost2010PropOp31
 70
     1
102
RTVSPost2010Prop32
280
     0
102
RTVSPost2010PropOp32
 70
     1
102
RTVSPost2010Prop33
280
     0
102
RTVSPost2010PropOp33
 70
     1
102
RTVSPost2010Prop34
280
     0
102
RTVSPost2010PropOp34
 70
     1
102
RTVSPost2010Prop35
280
     0
102
RTVSPost2010PropOp35
 70
     1
102
RTVSPost2010Prop36
280
     0
102
RTVSPost2010PropOp36
 70
     1
102
RTVSPost2010Prop37
 90
       50
102
RTVSPost2010PropOp37
 70
     1
102
RTVSPost2010Prop38
140
0.0
102
RTVSPost2010PropOp38
 70
     1
102
RTVSPost2010Prop39
140
1.0
102
RTVSPost2010PropOp39
 70
     1
102
RTVSPost2010Prop40
 90
        0
102
RTVSPost2010PropOp40
 70
     1
102
RTVSPost2010Prop41ColorIndex
 90
       18
102
RTVSPost2010Prop41ColorRGB
 90
        0
102
RTVSPost2010PropOp41
 70
     1
102
RTVSPost2010Prop42
 90
       50
102
RTVSPost2010PropOp42
 70
     1
102
RTVSPost2010Prop43
 90
        3
102
RTVSPost2010PropOp43
 70
     1
102
RTVSPost2010Prop44ColorIndex
 90
        5
102
RTVSPost2010Prop44ColorRGB
 90
      255
102
RTVSPost2010PropOp44
 70
     1
102
RTVSPost2010Prop45
280
     0
102
RTVSPost2010PropOp45
 70
     1
102
RTVSPost2010Prop46
 90
       50
102
RTVSPost2010PropOp46
 70
     1
102
RTVSPost2010Prop47
 90
       50
102
RTVSPost2010PropOp47
 70
     1
102
RTVSPost2010Prop48
 90
       50
102
RTVSPost2010PropOp48
 70
     1
102
RTVSPost2010Prop49
280
     0
102
RTVSPost2010PropOp49
 70
     1
102
RTVSPost2010Prop50
 90
       50
102
RTVSPost2010PropOp50
 70
     1
102
RTVSPost2010Prop51ColorIndex
 90
      256
102
RTVSPost2010Prop51ColorRGB
 90
-16777216
102
RTVSPost2010PropOp51
 70
     0
102
RTVSPost2010Prop52
140
1.0
102
RTVSPost2010PropOp52
 70
     0
102
RTVSPost2010Prop53
 90
        2
102
RTVSPost2010PropOp53
 70
     1
102
RTVSPost2010Prop54
  1
strokes_ogs.tif
102
RTVSPost2010PropOp54
 70
     1
102
RTVSPost2010Prop55
280
     0
102
RTVSPost2010PropOp55
 70
     1
102
RTVSPost2010Prop56
140
1.0
102
RTVSPost2010PropOp56
 70
     1
102
RTVSPost2010Prop57
140
1.0
102
RTVSPost2010PropOp57
 70
     1
102
RTVSPropertyOp0
 70
     1
102
RTVSPropertyOp1
 70
     1
102
RTVSPropertyOp2
 70
     1
102
RTVSPropertyOp3
 70
     1
102
RTVSPropertyOp4
 70
     1
102
RTVSPropertyOp5
 70
     1
102
RTVSPropertyOp6
 70
     1
102
RTVSPropertyOp7
 70
     1
102
RTVSPropertyOp8
 70
     1
102
RTVSPropertyOp9
 70
     1
102
RTVSPropertyOp10
 70
     1
102
RTVSPropertyOp11
 70
     1
102
RTVSPropertyOp12
 70
     1
102
RTVSPropertyOp13
 70
     1
102
RTVSPropertyOp14
 70
     1
102
RTVSPropertyOp15
 70
     1
102
RTVSPropertyOp16
 70
     1
102
RTVSPropertyOp17
 70
     1
102
RTVSPropertyOp18
 70
     1
102
RTVSPropertyOp19
 70
     1
102
RTVSPropertyOp20
 70
     1
102
RTVSPropertyOp21
 70
     1
102
RTVSPropertyOp22
 70
     1
102
RTVSPropertyOp23
 70
     1
102
RTVSPropertyOp24
 70
     1
102
RTVSPropertyOp25
 70
     1
102
RTVSPropertyOp26
 70
     1
102
RTVSPropertyOp27
 70
     1
102
RTVSPropertyOp28
 70
     1
102
RTVSPropertyOp29
 70
     1
102
RTVSPropertyOp30
 70
     1
102
RTVSPropertyOp31
 70
     1
102
RTVSPropertyOp32
 70
     1
102
RTVSPropertyOp33
 70
     1
102
RTVSPropertyOp34
 70
     1
102
RTVSPropertyOp35
 70
     1
102
RTVSPropertyOp36
 70
     1
102
RTVSPropertyOp37
 70
     1
102
RTVSPropertyOp38
 70
     1
102
RTVSPropertyOp39
 70
     1
102
RTVSPropertyOp40
 70
     1
102
RTVSPropertyOp41
 70
     1
102
RTVSPropertyOp42
 70
     1
102
RTVSPropertyOp43
 70
     1
102
RTVSPropertyOp44
 70
     1
102
RTVSPropertyOp45
 70
     1
102
RTVSPropertyOp46
 70
     1
102
RTVSPropertyOp47
 70
     1
102
RTVSPropertyOp48
 70
     1
102
RTVSPropertyOp49
 70
     1
102
RTVSPropertyOp50
 70
     1
102
RTVSPropertyOp51
 70
     0
102
RTVSPropertyOp52
 70
     0
102
RTVSPropertyOp53
 70
     1
102
RTVSPropertyOp54
 70
     1
102
RTVSPropertyOp55
 70
     1
102
RTVSPropertyOp56
 70
     1
102
RTVSPropertyOp57
 70
     1
102
RTVSPropertyOp58
 70
     1
102
RTVSPropertyOp59
 70
     1
102
RTVSPropertyOp60
 70
     1
102
RTVSPropertyOp61
 70
     1
102
RTVSPropertyOp62
 70
     1
  0
XRECORD
  5
140D
102
{ACAD_REACTORS
330
140C
102
}
330
140C
100
AcDbXrecord
280
     1
102
RTVSPost2010Prop28
280
     0
102
RTVSPost2010PropOp28
 70
     1
102
RTVSPost2010Prop29
280
     1
102
RTVSPost2010PropOp29
 70
     1
102
RTVSPost2010Prop30
280
     1
102
RTVSPost2010PropOp30
 70
     1
102
RTVSPost2010Prop31
280
     0
102
RTVSPost2010PropOp31
 70
     1
102
RTVSPost2010Prop32
280
     0
102
RTVSPost2010PropOp32
 70
     1
102
RTVSPost2010Prop33
280
     0
102
RTVSPost2010PropOp33
 70
     1
102
RTVSPost2010Prop34
280
     0
102
RTVSPost2010PropOp34
 70
     1
102
RTVSPost2010Prop35
280
     0
102
RTVSPost2010PropOp35
 70
     1
102
RTVSPost2010Prop36
280
     0
102
RTVSPost2010PropOp36
 70
     1
102
RTVSPost2010Prop37
 90
       50
102
RTVSPost2010PropOp37
 70
     1
102
RTVSPost2010Prop38
140
0.0
102
RTVSPost2010PropOp38
 70
     1
102
RTVSPost2010Prop39
140
1.0
102
RTVSPost2010PropOp39
 70
     1
102
RTVSPost2010Prop40
 90
        0
102
RTVSPost2010PropOp40
 70
     1
102
RTVSPost2010Prop41ColorIndex
 90
       18
102
RTVSPost2010Prop41ColorRGB
 90
        0
102
RTVSPost2010PropOp41
 70
     1
102
RTVSPost2010Prop42
 90
       50
102
RTVSPost2010PropOp42
 70
     1
102
RTVSPost2010Prop43
 90
        3
102
RTVSPost2010PropOp43
 70
     1
102
RTVSPost2010Prop44ColorIndex
 90
        5
102
RTVSPost2010Prop44ColorRGB
 90
      255
102
RTVSPost2010PropOp44
 70
     1
102
RTVSPost2010Prop45
280
     0
102
RTVSPost2010PropOp45
 70
     1
102
RTVSPost2010Prop46
 90
       50
102
RTVSPost2010PropOp46
 70
     1
102
RTVSPost2010Prop47
 90
       50
102
RTVSPost2010PropOp47
 70
     1
102
RTVSPost2010Prop48
 90
       50
102
RTVSPost2010PropOp48
 70
     1
102
RTVSPost2010Prop49
280
     0
102
RTVSPost2010PropOp49
 70
     1
102
RTVSPost2010Prop50
 90
       50
102
RTVSPost2010PropOp50
 70
     1
102
RTVSPost2010Prop51ColorIndex
 90
      256
102
RTVSPost2010Prop51ColorRGB
 90
-16777216
102
RTVSPost2010PropOp51
 70
     0
102
RTVSPost2010Prop52
140
1.0
102
RTVSPost2010PropOp52
 70
     0
102
RTVSPost2010Prop53
 90
        2
102
RTVSPost2010PropOp53
 70
     1
102
RTVSPost2010Prop54
  1
strokes_ogs.tif
102
RTVSPost2010PropOp54
 70
     1
102
RTVSPost2010Prop55
280
     0
102
RTVSPost2010PropOp55
 70
     1
102
RTVSPost2010Prop56
140
1.0
102
RTVSPost2010PropOp56
 70
     1
102
RTVSPost2010Prop57
140
1.0
102
RTVSPost2010PropOp57
 70
     1
102
RTVSPropertyOp0
 70
     1
102
RTVSPropertyOp1
 70
     1
102
RTVSPropertyOp2
 70
     1
102
RTVSPropertyOp3
 70
     1
102
RTVSPropertyOp4
 70
     1
102
RTVSPropertyOp5
 70
     1
102
RTVSPropertyOp6
 70
     1
102
RTVSPropertyOp7
 70
     1
102
RTVSPropertyOp8
 70
     1
102
RTVSPropertyOp9
 70
     1
102
RTVSPropertyOp10
 70
     1
102
RTVSPropertyOp11
 70
     1
102
RTVSPropertyOp12
 70
     1
102
RTVSPropertyOp13
 70
     1
102
RTVSPropertyOp14
 70
     1
102
RTVSPropertyOp15
 70
     1
102
RTVSPropertyOp16
 70
     1
102
RTVSPropertyOp17
 70
     1
102
RTVSPropertyOp18
 70
     1
102
RTVSPropertyOp19
 70
     1
102
RTVSPropertyOp20
 70
     1
102
RTVSPropertyOp21
 70
     1
102
RTVSPropertyOp22
 70
     1
102
RTVSPropertyOp23
 70
     1
102
RTVSPropertyOp24
 70
     1
102
RTVSPropertyOp25
 70
     1
102
RTVSPropertyOp26
 70
     1
102
RTVSPropertyOp27
 70
     1
102
RTVSPropertyOp28
 70
     1
102
RTVSPropertyOp29
 70
     1
102
RTVSPropertyOp30
 70
     1
102
RTVSPropertyOp31
 70
     1
102
RTVSPropertyOp32
 70
     1
102
RTVSPropertyOp33
 70
     1
102
RTVSPropertyOp34
 70
     1
102
RTVSPropertyOp35
 70
     1
102
RTVSPropertyOp36
 70
     1
102
RTVSPropertyOp37
 70
     1
102
RTVSPropertyOp38
 70
     1
102
RTVSPropertyOp39
 70
     1
102
RTVSPropertyOp40
 70
     1
102
RTVSPropertyOp41
 70
     1
102
RTVSPropertyOp42
 70
     1
102
RTVSPropertyOp43
 70
     1
102
RTVSPropertyOp44
 70
     1
102
RTVSPropertyOp45
 70
     1
102
RTVSPropertyOp46
 70
     1
102
RTVSPropertyOp47
 70
     1
102
RTVSPropertyOp48
 70
     1
102
RTVSPropertyOp49
 70
     1
102
RTVSPropertyOp50
 70
     1
102
RTVSPropertyOp51
 70
     0
102
RTVSPropertyOp52
 70
     0
102
RTVSPropertyOp53
 70
     1
102
RTVSPropertyOp54
 70
     1
102
RTVSPropertyOp55
 70
     1
102
RTVSPropertyOp56
 70
     1
102
RTVSPropertyOp57
 70
     1
102
RTVSPropertyOp58
 70
     1
102
RTVSPropertyOp59
 70
     1
102
RTVSPropertyOp60
 70
     1
102
RTVSPropertyOp61
 70
     1
102
RTVSPropertyOp62
 70
     1
  0
XRECORD
  5
140F
102
{ACAD_REACTORS
330
140E
102
}
330
140E
100
AcDbXrecord
280
     1
102
RTVSPost2010Prop28
280
     0
102
RTVSPost2010PropOp28
 70
     1
102
RTVSPost2010Prop29
280
     1
102
RTVSPost2010PropOp29
 70
     1
102
RTVSPost2010Prop30
280
     1
102
RTVSPost2010PropOp30
 70
     1
102
RTVSPost2010Prop31
280
     0
102
RTVSPost2010PropOp31
 70
     1
102
RTVSPost2010Prop32
280
     0
102
RTVSPost2010PropOp32
 70
     1
102
RTVSPost2010Prop33
280
     0
102
RTVSPost2010PropOp33
 70
     1
102
RTVSPost2010Prop34
280
     0
102
RTVSPost2010PropOp34
 70
     1
102
RTVSPost2010Prop35
280
     0
102
RTVSPost2010PropOp35
 70
     1
102
RTVSPost2010Prop36
280
     0
102
RTVSPost2010PropOp36
 70
     1
102
RTVSPost2010Prop37
 90
       50
102
RTVSPost2010PropOp37
 70
     1
102
RTVSPost2010Prop38
140
0.0
102
RTVSPost2010PropOp38
 70
     1
102
RTVSPost2010Prop39
140
1.0
102
RTVSPost2010PropOp39
 70
     1
102
RTVSPost2010Prop40
 90
        0
102
RTVSPost2010PropOp40
 70
     1
102
RTVSPost2010Prop41ColorIndex
 90
       18
102
RTVSPost2010Prop41ColorRGB
 90
        0
102
RTVSPost2010PropOp41
 70
     1
102
RTVSPost2010Prop42
 90
       50
102
RTVSPost2010PropOp42
 70
     1
102
RTVSPost2010Prop43
 90
        3
102
RTVSPost2010PropOp43
 70
     1
102
RTVSPost2010Prop44ColorIndex
 90
        5
102
RTVSPost2010Prop44ColorRGB
 90
      255
102
RTVSPost2010PropOp44
 70
     1
102
RTVSPost2010Prop45
280
     0
102
RTVSPost2010PropOp45
 70
     1
102
RTVSPost2010Prop46
 90
       50
102
RTVSPost2010PropOp46
 70
     1
102
RTVSPost2010Prop47
 90
       50
102
RTVSPost2010PropOp47
 70
     1
102
RTVSPost2010Prop48
 90
       50
102
RTVSPost2010PropOp48
 70
     1
102
RTVSPost2010Prop49
280
     0
102
RTVSPost2010PropOp49
 70
     1
102
RTVSPost2010Prop50
 90
       50
102
RTVSPost2010PropOp50
 70
     1
102
RTVSPost2010Prop51ColorIndex
 90
      256
102
RTVSPost2010Prop51ColorRGB
 90
-16777216
102
RTVSPost2010PropOp51
 70
     0
102
RTVSPost2010Prop52
140
1.0
102
RTVSPost2010PropOp52
 70
     0
102
RTVSPost2010Prop53
 90
        2
102
RTVSPost2010PropOp53
 70
     1
102
RTVSPost2010Prop54
  1
strokes_ogs.tif
102
RTVSPost2010PropOp54
 70
     1
102
RTVSPost2010Prop55
280
     0
102
RTVSPost2010PropOp55
 70
     1
102
RTVSPost2010Prop56
140
1.0
102
RTVSPost2010PropOp56
 70
     1
102
RTVSPost2010Prop57
140
1.0
102
RTVSPost2010PropOp57
 70
     1
102
RTVSPropertyOp0
 70
     1
102
RTVSPropertyOp1
 70
     1
102
RTVSPropertyOp2
 70
     1
102
RTVSPropertyOp3
 70
     1
102
RTVSPropertyOp4
 70
     1
102
RTVSPropertyOp5
 70
     1
102
RTVSPropertyOp6
 70
     1
102
RTVSPropertyOp7
 70
     1
102
RTVSPropertyOp8
 70
     1
102
RTVSPropertyOp9
 70
     1
102
RTVSPropertyOp10
 70
     1
102
RTVSPropertyOp11
 70
     1
102
RTVSPropertyOp12
 70
     1
102
RTVSPropertyOp13
 70
     1
102
RTVSPropertyOp14
 70
     1
102
RTVSPropertyOp15
 70
     1
102
RTVSPropertyOp16
 70
     1
102
RTVSPropertyOp17
 70
     1
102
RTVSPropertyOp18
 70
     1
102
RTVSPropertyOp19
 70
     1
102
RTVSPropertyOp20
 70
     1
102
RTVSPropertyOp21
 70
     1
102
RTVSPropertyOp22
 70
     1
102
RTVSPropertyOp23
 70
     1
102
RTVSPropertyOp24
 70
     1
102
RTVSPropertyOp25
 70
     1
102
RTVSPropertyOp26
 70
     1
102
RTVSPropertyOp27
 70
     1
102
RTVSPropertyOp28
 70
     1
102
RTVSPropertyOp29
 70
     1
102
RTVSPropertyOp30
 70
     1
102
RTVSPropertyOp31
 70
     1
102
RTVSPropertyOp32
 70
     1
102
RTVSPropertyOp33
 70
     1
102
RTVSPropertyOp34
 70
     1
102
RTVSPropertyOp35
 70
     1
102
RTVSPropertyOp36
 70
     1
102
RTVSPropertyOp37
 70
     1
102
RTVSPropertyOp38
 70
     1
102
RTVSPropertyOp39
 70
     1
102
RTVSPropertyOp40
 70
     1
102
RTVSPropertyOp41
 70
     1
102
RTVSPropertyOp42
 70
     1
102
RTVSPropertyOp43
 70
     1
102
RTVSPropertyOp44
 70
     1
102
RTVSPropertyOp45
 70
     1
102
RTVSPropertyOp46
 70
     1
102
RTVSPropertyOp47
 70
     1
102
RTVSPropertyOp48
 70
     1
102
RTVSPropertyOp49
 70
     1
102
RTVSPropertyOp50
 70
     1
102
RTVSPropertyOp51
 70
     0
102
RTVSPropertyOp52
 70
     0
102
RTVSPropertyOp53
 70
     1
102
RTVSPropertyOp54
 70
     1
102
RTVSPropertyOp55
 70
     1
102
RTVSPropertyOp56
 70
     1
102
RTVSPropertyOp57
 70
     1
102
RTVSPropertyOp58
 70
     1
102
RTVSPropertyOp59
 70
     1
102
RTVSPropertyOp60
 70
     1
102
RTVSPropertyOp61
 70
     1
102
RTVSPropertyOp62
 70
     1
  0
XRECORD
  5
1411
102
{ACAD_REACTORS
330
1410
102
}
330
1410
100
AcDbXrecord
280
     1
102
RTVSPost2010Prop28
280
     0
102
RTVSPost2010PropOp28
 70
     1
102
RTVSPost2010Prop29
280
     1
102
RTVSPost2010PropOp29
 70
     1
102
RTVSPost2010Prop30
280
     1
102
RTVSPost2010PropOp30
 70
     1
102
RTVSPost2010Prop31
280
     0
102
RTVSPost2010PropOp31
 70
     1
102
RTVSPost2010Prop32
280
     0
102
RTVSPost2010PropOp32
 70
     1
102
RTVSPost2010Prop33
280
     0
102
RTVSPost2010PropOp33
 70
     1
102
RTVSPost2010Prop34
280
     0
102
RTVSPost2010PropOp34
 70
     1
102
RTVSPost2010Prop35
280
     0
102
RTVSPost2010PropOp35
 70
     1
102
RTVSPost2010Prop36
280
     0
102
RTVSPost2010PropOp36
 70
     1
102
RTVSPost2010Prop37
 90
       50
102
RTVSPost2010PropOp37
 70
     1
102
RTVSPost2010Prop38
140
0.0
102
RTVSPost2010PropOp38
 70
     1
102
RTVSPost2010Prop39
140
1.0
102
RTVSPost2010PropOp39
 70
     1
102
RTVSPost2010Prop40
 90
        0
102
RTVSPost2010PropOp40
 70
     1
102
RTVSPost2010Prop41ColorIndex
 90
       18
102
RTVSPost2010Prop41ColorRGB
 90
        0
102
RTVSPost2010PropOp41
 70
     1
102
RTVSPost2010Prop42
 90
       50
102
RTVSPost2010PropOp42
 70
     1
102
RTVSPost2010Prop43
 90
        3
102
RTVSPost2010PropOp43
 70
     1
102
RTVSPost2010Prop44ColorIndex
 90
        5
102
RTVSPost2010Prop44ColorRGB
 90
      255
102
RTVSPost2010PropOp44
 70
     1
102
RTVSPost2010Prop45
280
     0
102
RTVSPost2010PropOp45
 70
     1
102
RTVSPost2010Prop46
 90
       50
102
RTVSPost2010PropOp46
 70
     1
102
RTVSPost2010Prop47
 90
       50
102
RTVSPost2010PropOp47
 70
     1
102
RTVSPost2010Prop48
 90
       50
102
RTVSPost2010PropOp48
 70
     1
102
RTVSPost2010Prop49
280
     0
102
RTVSPost2010PropOp49
 70
     1
102
RTVSPost2010Prop50
 90
       50
102
RTVSPost2010PropOp50
 70
     1
102
RTVSPost2010Prop51ColorIndex
 90
      256
102
RTVSPost2010Prop51ColorRGB
 90
-16777216
102
RTVSPost2010PropOp51
 70
     0
102
RTVSPost2010Prop52
140
1.0
102
RTVSPost2010PropOp52
 70
     0
102
RTVSPost2010Prop53
 90
        2
102
RTVSPost2010PropOp53
 70
     1
102
RTVSPost2010Prop54
  1
strokes_ogs.tif
102
RTVSPost2010PropOp54
 70
     1
102
RTVSPost2010Prop55
280
     0
102
RTVSPost2010PropOp55
 70
     1
102
RTVSPost2010Prop56
140
1.0
102
RTVSPost2010PropOp56
 70
     1
102
RTVSPost2010Prop57
140
1.0
102
RTVSPost2010PropOp57
 70
     1
102
RTVSPropertyOp0
 70
     1
102
RTVSPropertyOp1
 70
     1
102
RTVSPropertyOp2
 70
     1
102
RTVSPropertyOp3
 70
     1
102
RTVSPropertyOp4
 70
     1
102
RTVSPropertyOp5
 70
     1
102
RTVSPropertyOp6
 70
     1
102
RTVSPropertyOp7
 70
     1
102
RTVSPropertyOp8
 70
     1
102
RTVSPropertyOp9
 70
     1
102
RTVSPropertyOp10
 70
     1
102
RTVSPropertyOp11
 70
     1
102
RTVSPropertyOp12
 70
     1
102
RTVSPropertyOp13
 70
     1
102
RTVSPropertyOp14
 70
     1
102
RTVSPropertyOp15
 70
     1
102
RTVSPropertyOp16
 70
     1
102
RTVSPropertyOp17
 70
     1
102
RTVSPropertyOp18
 70
     1
102
RTVSPropertyOp19
 70
     1
102
RTVSPropertyOp20
 70
     1
102
RTVSPropertyOp21
 70
     1
102
RTVSPropertyOp22
 70
     1
102
RTVSPropertyOp23
 70
     1
102
RTVSPropertyOp24
 70
     1
102
RTVSPropertyOp25
 70
     1
102
RTVSPropertyOp26
 70
     1
102
RTVSPropertyOp27
 70
     1
102
RTVSPropertyOp28
 70
     1
102
RTVSPropertyOp29
 70
     1
102
RTVSPropertyOp30
 70
     1
102
RTVSPropertyOp31
 70
     1
102
RTVSPropertyOp32
 70
     1
102
RTVSPropertyOp33
 70
     1
102
RTVSPropertyOp34
 70
     1
102
RTVSPropertyOp35
 70
     1
102
RTVSPropertyOp36
 70
     1
102
RTVSPropertyOp37
 70
     1
102
RTVSPropertyOp38
 70
     1
102
RTVSPropertyOp39
 70
     1
102
RTVSPropertyOp40
 70
     1
102
RTVSPropertyOp41
 70
     1
102
RTVSPropertyOp42
 70
     1
102
RTVSPropertyOp43
 70
     1
102
RTVSPropertyOp44
 70
     1
102
RTVSPropertyOp45
 70
     1
102
RTVSPropertyOp46
 70
     1
102
RTVSPropertyOp47
 70
     1
102
RTVSPropertyOp48
 70
     1
102
RTVSPropertyOp49
 70
     1
102
RTVSPropertyOp50
 70
     1
102
RTVSPropertyOp51
 70
     0
102
RTVSPropertyOp52
 70
     0
102
RTVSPropertyOp53
 70
     1
102
RTVSPropertyOp54
 70
     1
102
RTVSPropertyOp55
 70
     1
102
RTVSPropertyOp56
 70
     1
102
RTVSPropertyOp57
 70
     1
102
RTVSPropertyOp58
 70
     1
102
RTVSPropertyOp59
 70
     1
102
RTVSPropertyOp60
 70
     1
102
RTVSPropertyOp61
 70
     1
102
RTVSPropertyOp62
 70
     1
  0
XRECORD
  5
1419
102
{ACAD_REACTORS
330
1418
102
}
330
1418
100
AcDbXrecord
280
     1
102
RTVSPost2010Prop28
280
     0
102
RTVSPost2010PropOp28
 70
     1
102
RTVSPost2010Prop29
280
     1
102
RTVSPost2010PropOp29
 70
     1
102
RTVSPost2010Prop30
280
     1
102
RTVSPost2010PropOp30
 70
     1
102
RTVSPost2010Prop31
280
     0
102
RTVSPost2010PropOp31
 70
     1
102
RTVSPost2010Prop32
280
     0
102
RTVSPost2010PropOp32
 70
     1
102
RTVSPost2010Prop33
280
     0
102
RTVSPost2010PropOp33
 70
     1
102
RTVSPost2010Prop34
280
     0
102
RTVSPost2010PropOp34
 70
     1
102
RTVSPost2010Prop35
280
     0
102
RTVSPost2010PropOp35
 70
     1
102
RTVSPost2010Prop36
280
     0
102
RTVSPost2010PropOp36
 70
     1
102
RTVSPost2010Prop37
 90
       50
102
RTVSPost2010PropOp37
 70
     1
102
RTVSPost2010Prop38
140
0.0
102
RTVSPost2010PropOp38
 70
     1
102
RTVSPost2010Prop39
140
1.0
102
RTVSPost2010PropOp39
 70
     1
102
RTVSPost2010Prop40
 90
        0
102
RTVSPost2010PropOp40
 70
     1
102
RTVSPost2010Prop41ColorIndex
 90
       18
102
RTVSPost2010Prop41ColorRGB
 90
        0
102
RTVSPost2010PropOp41
 70
     1
102
RTVSPost2010Prop42
 90
       50
102
RTVSPost2010PropOp42
 70
     1
102
RTVSPost2010Prop43
 90
        3
102
RTVSPost2010PropOp43
 70
     1
102
RTVSPost2010Prop44ColorIndex
 90
        5
102
RTVSPost2010Prop44ColorRGB
 90
      255
102
RTVSPost2010PropOp44
 70
     1
102
RTVSPost2010Prop45
280
     0
102
RTVSPost2010PropOp45
 70
     1
102
RTVSPost2010Prop46
 90
       50
102
RTVSPost2010PropOp46
 70
     1
102
RTVSPost2010Prop47
 90
       50
102
RTVSPost2010PropOp47
 70
     1
102
RTVSPost2010Prop48
 90
       50
102
RTVSPost2010PropOp48
 70
     1
102
RTVSPost2010Prop49
280
     0
102
RTVSPost2010PropOp49
 70
     1
102
RTVSPost2010Prop50
 90
       50
102
RTVSPost2010PropOp50
 70
     1
102
RTVSPost2010Prop51ColorIndex
 90
      256
102
RTVSPost2010Prop51ColorRGB
 90
-16777216
102
RTVSPost2010PropOp51
 70
     0
102
RTVSPost2010Prop52
140
1.0
102
RTVSPost2010PropOp52
 70
     0
102
RTVSPost2010Prop53
 90
        2
102
RTVSPost2010PropOp53
 70
     1
102
RTVSPost2010Prop54
  1
strokes_ogs.tif
102
RTVSPost2010PropOp54
 70
     1
102
RTVSPost2010Prop55
280
     0
102
RTVSPost2010PropOp55
 70
     1
102
RTVSPost2010Prop56
140
1.0
102
RTVSPost2010PropOp56
 70
     1
102
RTVSPost2010Prop57
140
1.0
102
RTVSPost2010PropOp57
 70
     1
102
RTVSPropertyOp0
 70
     1
102
RTVSPropertyOp1
 70
     1
102
RTVSPropertyOp2
 70
     1
102
RTVSPropertyOp3
 70
     1
102
RTVSPropertyOp4
 70
     1
102
RTVSPropertyOp5
 70
     1
102
RTVSPropertyOp6
 70
     1
102
RTVSPropertyOp7
 70
     1
102
RTVSPropertyOp8
 70
     1
102
RTVSPropertyOp9
 70
     1
102
RTVSPropertyOp10
 70
     1
102
RTVSPropertyOp11
 70
     1
102
RTVSPropertyOp12
 70
     1
102
RTVSPropertyOp13
 70
     1
102
RTVSPropertyOp14
 70
     1
102
RTVSPropertyOp15
 70
     1
102
RTVSPropertyOp16
 70
     1
102
RTVSPropertyOp17
 70
     1
102
RTVSPropertyOp18
 70
     1
102
RTVSPropertyOp19
 70
     1
102
RTVSPropertyOp20
 70
     1
102
RTVSPropertyOp21
 70
     1
102
RTVSPropertyOp22
 70
     1
102
RTVSPropertyOp23
 70
     1
102
RTVSPropertyOp24
 70
     1
102
RTVSPropertyOp25
 70
     1
102
RTVSPropertyOp26
 70
     1
102
RTVSPropertyOp27
 70
     1
102
RTVSPropertyOp28
 70
     1
102
RTVSPropertyOp29
 70
     1
102
RTVSPropertyOp30
 70
     1
102
RTVSPropertyOp31
 70
     1
102
RTVSPropertyOp32
 70
     1
102
RTVSPropertyOp33
 70
     1
102
RTVSPropertyOp34
 70
     1
102
RTVSPropertyOp35
 70
     1
102
RTVSPropertyOp36
 70
     1
102
RTVSPropertyOp37
 70
     1
102
RTVSPropertyOp38
 70
     1
102
RTVSPropertyOp39
 70
     1
102
RTVSPropertyOp40
 70
     1
102
RTVSPropertyOp41
 70
     1
102
RTVSPropertyOp42
 70
     1
102
RTVSPropertyOp43
 70
     1
102
RTVSPropertyOp44
 70
     1
102
RTVSPropertyOp45
 70
     1
102
RTVSPropertyOp46
 70
     1
102
RTVSPropertyOp47
 70
     1
102
RTVSPropertyOp48
 70
     1
102
RTVSPropertyOp49
 70
     1
102
RTVSPropertyOp50
 70
     1
102
RTVSPropertyOp51
 70
     0
102
RTVSPropertyOp52
 70
     0
102
RTVSPropertyOp53
 70
     1
102
RTVSPropertyOp54
 70
     1
102
RTVSPropertyOp55
 70
     1
102
RTVSPropertyOp56
 70
     1
102
RTVSPropertyOp57
 70
     1
102
RTVSPropertyOp58
 70
     1
102
RTVSPropertyOp59
 70
     1
102
RTVSPropertyOp60
 70
     1
102
RTVSPropertyOp61
 70
     1
102
RTVSPropertyOp62
 70
     1
  0
XRECORD
  5
142D
102
{ACAD_REACTORS
330
142C
102
}
330
142C
100
AcDbXrecord
280
     1
102
RTVSPost2010Prop28
280
     0
102
RTVSPost2010PropOp28
 70
     1
102
RTVSPost2010Prop29
280
     1
102
RTVSPost2010PropOp29
 70
     1
102
RTVSPost2010Prop30
280
     1
102
RTVSPost2010PropOp30
 70
     1
102
RTVSPost2010Prop31
280
     0
102
RTVSPost2010PropOp31
 70
     1
102
RTVSPost2010Prop32
280
     0
102
RTVSPost2010PropOp32
 70
     1
102
RTVSPost2010Prop33
280
     0
102
RTVSPost2010PropOp33
 70
     1
102
RTVSPost2010Prop34
280
     0
102
RTVSPost2010PropOp34
 70
     1
102
RTVSPost2010Prop35
280
     0
102
RTVSPost2010PropOp35
 70
     1
102
RTVSPost2010Prop36
280
     0
102
RTVSPost2010PropOp36
 70
     1
102
RTVSPost2010Prop37
 90
       50
102
RTVSPost2010PropOp37
 70
     1
102
RTVSPost2010Prop38
140
0.0
102
RTVSPost2010PropOp38
 70
     1
102
RTVSPost2010Prop39
140
1.0
102
RTVSPost2010PropOp39
 70
     1
102
RTVSPost2010Prop40
 90
        0
102
RTVSPost2010PropOp40
 70
     1
102
RTVSPost2010Prop41ColorIndex
 90
       18
102
RTVSPost2010Prop41ColorRGB
 90
        0
102
RTVSPost2010PropOp41
 70
     1
102
RTVSPost2010Prop42
 90
       50
102
RTVSPost2010PropOp42
 70
     1
102
RTVSPost2010Prop43
 90
        3
102
RTVSPost2010PropOp43
 70
     1
102
RTVSPost2010Prop44ColorIndex
 90
        5
102
RTVSPost2010Prop44ColorRGB
 90
      255
102
RTVSPost2010PropOp44
 70
     1
102
RTVSPost2010Prop45
280
     0
102
RTVSPost2010PropOp45
 70
     1
102
RTVSPost2010Prop46
 90
       50
102
RTVSPost2010PropOp46
 70
     1
102
RTVSPost2010Prop47
 90
       50
102
RTVSPost2010PropOp47
 70
     1
102
RTVSPost2010Prop48
 90
       50
102
RTVSPost2010PropOp48
 70
     1
102
RTVSPost2010Prop49
280
     0
102
RTVSPost2010PropOp49
 70
     1
102
RTVSPost2010Prop50
 90
       50
102
RTVSPost2010PropOp50
 70
     1
102
RTVSPost2010Prop51ColorIndex
 90
      256
102
RTVSPost2010Prop51ColorRGB
 90
-16777216
102
RTVSPost2010PropOp51
 70
     0
102
RTVSPost2010Prop52
140
1.0
102
RTVSPost2010PropOp52
 70
     0
102
RTVSPost2010Prop53
 90
        2
102
RTVSPost2010PropOp53
 70
     1
102
RTVSPost2010Prop54
  1
strokes_ogs.tif
102
RTVSPost2010PropOp54
 70
     1
102
RTVSPost2010Prop55
280
     0
102
RTVSPost2010PropOp55
 70
     1
102
RTVSPost2010Prop56
140
1.0
102
RTVSPost2010PropOp56
 70
     1
102
RTVSPost2010Prop57
140
1.0
102
RTVSPost2010PropOp57
 70
     1
102
RTVSPropertyOp0
 70
     0
102
RTVSPropertyOp1
 70
     0
102
RTVSPropertyOp2
 70
     0
102
RTVSPropertyOp3
 70
     0
102
RTVSPropertyOp4
 70
     0
102
RTVSPropertyOp5
 70
     0
102
RTVSPropertyOp6
 70
     0
102
RTVSPropertyOp7
 70
     0
102
RTVSPropertyOp8
 70
     0
102
RTVSPropertyOp9
 70
     0
102
RTVSPropertyOp10
 70
     0
102
RTVSPropertyOp11
 70
     0
102
RTVSPropertyOp12
 70
     0
102
RTVSPropertyOp13
 70
     0
102
RTVSPropertyOp14
 70
     2
102
RTVSPropertyOp15
 70
     0
102
RTVSPropertyOp16
 70
     0
102
RTVSPropertyOp17
 70
     0
102
RTVSPropertyOp18
 70
     0
102
RTVSPropertyOp19
 70
     0
102
RTVSPropertyOp20
 70
     0
102
RTVSPropertyOp21
 70
     0
102
RTVSPropertyOp22
 70
     0
102
RTVSPropertyOp23
 70
     0
102
RTVSPropertyOp24
 70
     0
102
RTVSPropertyOp25
 70
     0
102
RTVSPropertyOp26
 70
     0
102
RTVSPropertyOp27
 70
     0
102
RTVSPropertyOp28
 70
     1
102
RTVSPropertyOp29
 70
     1
102
RTVSPropertyOp30
 70
     1
102
RTVSPropertyOp31
 70
     1
102
RTVSPropertyOp32
 70
     1
102
RTVSPropertyOp33
 70
     1
102
RTVSPropertyOp34
 70
     1
102
RTVSPropertyOp35
 70
     1
102
RTVSPropertyOp36
 70
     1
102
RTVSPropertyOp37
 70
     1
102
RTVSPropertyOp38
 70
     1
102
RTVSPropertyOp39
 70
     1
102
RTVSPropertyOp40
 70
     1
102
RTVSPropertyOp41
 70
     1
102
RTVSPropertyOp42
 70
     1
102
RTVSPropertyOp43
 70
     1
102
RTVSPropertyOp44
 70
     1
102
RTVSPropertyOp45
 70
     1
102
RTVSPropertyOp46
 70
     1
102
RTVSPropertyOp47
 70
     1
102
RTVSPropertyOp48
 70
     1
102
RTVSPropertyOp49
 70
     1
102
RTVSPropertyOp50
 70
     1
102
RTVSPropertyOp51
 70
     0
102
RTVSPropertyOp52
 70
     0
102
RTVSPropertyOp53
 70
     1
102
RTVSPropertyOp54
 70
     1
102
RTVSPropertyOp55
 70
     1
102
RTVSPropertyOp56
 70
     1
102
RTVSPropertyOp57
 70
     1
102
RTVSPropertyOp58
 70
     1
102
RTVSPropertyOp59
 70
     1
102
RTVSPropertyOp60
 70
     1
102
RTVSPropertyOp61
 70
     1
102
RTVSPropertyOp62
 70
     1
  0
XRECORD
  5
1425
102
{ACAD_REACTORS
330
1424
102
}
330
1424
100
AcDbXrecord
280
     1
102
RTVSPost2010Prop28
280
     0
102
RTVSPost2010PropOp28
 70
     1
102
RTVSPost2010Prop29
280
     1
102
RTVSPost2010PropOp29
 70
     1
102
RTVSPost2010Prop30
280
     1
102
RTVSPost2010PropOp30
 70
     1
102
RTVSPost2010Prop31
280
     0
102
RTVSPost2010PropOp31
 70
     1
102
RTVSPost2010Prop32
280
     0
102
RTVSPost2010PropOp32
 70
     1
102
RTVSPost2010Prop33
280
     0
102
RTVSPost2010PropOp33
 70
     1
102
RTVSPost2010Prop34
280
     0
102
RTVSPost2010PropOp34
 70
     1
102
RTVSPost2010Prop35
280
     0
102
RTVSPost2010PropOp35
 70
     1
102
RTVSPost2010Prop36
280
     0
102
RTVSPost2010PropOp36
 70
     1
102
RTVSPost2010Prop37
 90
       50
102
RTVSPost2010PropOp37
 70
     1
102
RTVSPost2010Prop38
140
0.0
102
RTVSPost2010PropOp38
 70
     1
102
RTVSPost2010Prop39
140
1.0
102
RTVSPost2010PropOp39
 70
     1
102
RTVSPost2010Prop40
 90
        0
102
RTVSPost2010PropOp40
 70
     1
102
RTVSPost2010Prop41ColorIndex
 90
       18
102
RTVSPost2010Prop41ColorRGB
 90
        0
102
RTVSPost2010PropOp41
 70
     1
102
RTVSPost2010Prop42
 90
       50
102
RTVSPost2010PropOp42
 70
     1
102
RTVSPost2010Prop43
 90
        3
102
RTVSPost2010PropOp43
 70
     1
102
RTVSPost2010Prop44ColorIndex
 90
        5
102
RTVSPost2010Prop44ColorRGB
 90
      255
102
RTVSPost2010PropOp44
 70
     1
102
RTVSPost2010Prop45
280
     0
102
RTVSPost2010PropOp45
 70
     1
102
RTVSPost2010Prop46
 90
       50
102
RTVSPost2010PropOp46
 70
     1
102
RTVSPost2010Prop47
 90
       50
102
RTVSPost2010PropOp47
 70
     1
102
RTVSPost2010Prop48
 90
       50
102
RTVSPost2010PropOp48
 70
     1
102
RTVSPost2010Prop49
280
     0
102
RTVSPost2010PropOp49
 70
     1
102
RTVSPost2010Prop50
 90
       50
102
RTVSPost2010PropOp50
 70
     1
102
RTVSPost2010Prop51ColorIndex
 90
      256
102
RTVSPost2010Prop51ColorRGB
 90
-16777216
102
RTVSPost2010PropOp51
 70
     0
102
RTVSPost2010Prop52
140
1.0
102
RTVSPost2010PropOp52
 70
     0
102
RTVSPost2010Prop53
 90
        2
102
RTVSPost2010PropOp53
 70
     1
102
RTVSPost2010Prop54
  1
strokes_ogs.tif
102
RTVSPost2010PropOp54
 70
     1
102
RTVSPost2010Prop55
280
     0
102
RTVSPost2010PropOp55
 70
     1
102
RTVSPost2010Prop56
140
1.0
102
RTVSPost2010PropOp56
 70
     1
102
RTVSPost2010Prop57
140
1.0
102
RTVSPost2010PropOp57
 70
     1
102
RTVSPropertyOp0
 70
     1
102
RTVSPropertyOp1
 70
     1
102
RTVSPropertyOp2
 70
     1
102
RTVSPropertyOp3
 70
     1
102
RTVSPropertyOp4
 70
     1
102
RTVSPropertyOp5
 70
     1
102
RTVSPropertyOp6
 70
     1
102
RTVSPropertyOp7
 70
     1
102
RTVSPropertyOp8
 70
     1
102
RTVSPropertyOp9
 70
     1
102
RTVSPropertyOp10
 70
     1
102
RTVSPropertyOp11
 70
     1
102
RTVSPropertyOp12
 70
     1
102
RTVSPropertyOp13
 70
     1
102
RTVSPropertyOp14
 70
     1
102
RTVSPropertyOp15
 70
     1
102
RTVSPropertyOp16
 70
     1
102
RTVSPropertyOp17
 70
     1
102
RTVSPropertyOp18
 70
     1
102
RTVSPropertyOp19
 70
     1
102
RTVSPropertyOp20
 70
     1
102
RTVSPropertyOp21
 70
     1
102
RTVSPropertyOp22
 70
     1
102
RTVSPropertyOp23
 70
     1
102
RTVSPropertyOp24
 70
     1
102
RTVSPropertyOp25
 70
     1
102
RTVSPropertyOp26
 70
     1
102
RTVSPropertyOp27
 70
     1
102
RTVSPropertyOp28
 70
     1
102
RTVSPropertyOp29
 70
     1
102
RTVSPropertyOp30
 70
     1
102
RTVSPropertyOp31
 70
     1
102
RTVSPropertyOp32
 70
     1
102
RTVSPropertyOp33
 70
     1
102
RTVSPropertyOp34
 70
     1
102
RTVSPropertyOp35
 70
     1
102
RTVSPropertyOp36
 70
     1
102
RTVSPropertyOp37
 70
     1
102
RTVSPropertyOp38
 70
     1
102
RTVSPropertyOp39
 70
     1
102
RTVSPropertyOp40
 70
     1
102
RTVSPropertyOp41
 70
     1
102
RTVSPropertyOp42
 70
     1
102
RTVSPropertyOp43
 70
     1
102
RTVSPropertyOp44
 70
     1
102
RTVSPropertyOp45
 70
     1
102
RTVSPropertyOp46
 70
     1
102
RTVSPropertyOp47
 70
     1
102
RTVSPropertyOp48
 70
     1
102
RTVSPropertyOp49
 70
     1
102
RTVSPropertyOp50
 70
     1
102
RTVSPropertyOp51
 70
     0
102
RTVSPropertyOp52
 70
     0
102
RTVSPropertyOp53
 70
     1
102
RTVSPropertyOp54
 70
     1
102
RTVSPropertyOp55
 70
     1
102
RTVSPropertyOp56
 70
     1
102
RTVSPropertyOp57
 70
     1
102
RTVSPropertyOp58
 70
     1
102
RTVSPropertyOp59
 70
     1
102
RTVSPropertyOp60
 70
     1
102
RTVSPropertyOp61
 70
     1
102
RTVSPropertyOp62
 70
     1
  0
XRECORD
  5
142F
102
{ACAD_REACTORS
330
142E
102
}
330
142E
100
AcDbXrecord
280
     1
102
RTVSPost2010Prop28
280
     0
102
RTVSPost2010PropOp28
 70
     1
102
RTVSPost2010Prop29
280
     1
102
RTVSPost2010PropOp29
 70
     1
102
RTVSPost2010Prop30
280
     1
102
RTVSPost2010PropOp30
 70
     1
102
RTVSPost2010Prop31
280
     0
102
RTVSPost2010PropOp31
 70
     1
102
RTVSPost2010Prop32
280
     0
102
RTVSPost2010PropOp32
 70
     1
102
RTVSPost2010Prop33
280
     0
102
RTVSPost2010PropOp33
 70
     1
102
RTVSPost2010Prop34
280
     0
102
RTVSPost2010PropOp34
 70
     1
102
RTVSPost2010Prop35
280
     0
102
RTVSPost2010PropOp35
 70
     1
102
RTVSPost2010Prop36
280
     0
102
RTVSPost2010PropOp36
 70
     1
102
RTVSPost2010Prop37
 90
       50
102
RTVSPost2010PropOp37
 70
     1
102
RTVSPost2010Prop38
140
0.0
102
RTVSPost2010PropOp38
 70
     1
102
RTVSPost2010Prop39
140
1.0
102
RTVSPost2010PropOp39
 70
     1
102
RTVSPost2010Prop40
 90
        0
102
RTVSPost2010PropOp40
 70
     1
102
RTVSPost2010Prop41ColorIndex
 90
       18
102
RTVSPost2010Prop41ColorRGB
 90
        0
102
RTVSPost2010PropOp41
 70
     1
102
RTVSPost2010Prop42
 90
       50
102
RTVSPost2010PropOp42
 70
     1
102
RTVSPost2010Prop43
 90
        3
102
RTVSPost2010PropOp43
 70
     1
102
RTVSPost2010Prop44ColorIndex
 90
        5
102
RTVSPost2010Prop44ColorRGB
 90
      255
102
RTVSPost2010PropOp44
 70
     1
102
RTVSPost2010Prop45
280
     0
102
RTVSPost2010PropOp45
 70
     1
102
RTVSPost2010Prop46
 90
       50
102
RTVSPost2010PropOp46
 70
     1
102
RTVSPost2010Prop47
 90
       50
102
RTVSPost2010PropOp47
 70
     1
102
RTVSPost2010Prop48
 90
       50
102
RTVSPost2010PropOp48
 70
     1
102
RTVSPost2010Prop49
280
     0
102
RTVSPost2010PropOp49
 70
     1
102
RTVSPost2010Prop50
 90
       50
102
RTVSPost2010PropOp50
 70
     1
102
RTVSPost2010Prop51ColorIndex
 90
      256
102
RTVSPost2010Prop51ColorRGB
 90
-16777216
102
RTVSPost2010PropOp51
 70
     0
102
RTVSPost2010Prop52
140
1.0
102
RTVSPost2010PropOp52
 70
     0
102
RTVSPost2010Prop53
 90
        2
102
RTVSPost2010PropOp53
 70
     1
102
RTVSPost2010Prop54
  1
strokes_ogs.tif
102
RTVSPost2010PropOp54
 70
     1
102
RTVSPost2010Prop55
280
     0
102
RTVSPost2010PropOp55
 70
     1
102
RTVSPost2010Prop56
140
1.0
102
RTVSPost2010PropOp56
 70
     1
102
RTVSPost2010Prop57
140
1.0
102
RTVSPost2010PropOp57
 70
     1
102
RTVSPropertyOp0
 70
     0
102
RTVSPropertyOp1
 70
     0
102
RTVSPropertyOp2
 70
     0
102
RTVSPropertyOp3
 70
     0
102
RTVSPropertyOp4
 70
     0
102
RTVSPropertyOp5
 70
     0
102
RTVSPropertyOp6
 70
     0
102
RTVSPropertyOp7
 70
     0
102
RTVSPropertyOp8
 70
     0
102
RTVSPropertyOp9
 70
     0
102
RTVSPropertyOp10
 70
     0
102
RTVSPropertyOp11
 70
     0
102
RTVSPropertyOp12
 70
     0
102
RTVSPropertyOp13
 70
     0
102
RTVSPropertyOp14
 70
     2
102
RTVSPropertyOp15
 70
     0
102
RTVSPropertyOp16
 70
     0
102
RTVSPropertyOp17
 70
     0
102
RTVSPropertyOp18
 70
     0
102
RTVSPropertyOp19
 70
     0
102
RTVSPropertyOp20
 70
     0
102
RTVSPropertyOp21
 70
     0
102
RTVSPropertyOp22
 70
     0
102
RTVSPropertyOp23
 70
     0
102
RTVSPropertyOp24
 70
     0
102
RTVSPropertyOp25
 70
     0
102
RTVSPropertyOp26
 70
     0
102
RTVSPropertyOp27
 70
     0
102
RTVSPropertyOp28
 70
     1
102
RTVSPropertyOp29
 70
     1
102
RTVSPropertyOp30
 70
     1
102
RTVSPropertyOp31
 70
     1
102
RTVSPropertyOp32
 70
     1
102
RTVSPropertyOp33
 70
     1
102
RTVSPropertyOp34
 70
     1
102
RTVSPropertyOp35
 70
     1
102
RTVSPropertyOp36
 70
     1
102
RTVSPropertyOp37
 70
     1
102
RTVSPropertyOp38
 70
     1
102
RTVSPropertyOp39
 70
     1
102
RTVSPropertyOp40
 70
     1
102
RTVSPropertyOp41
 70
     1
102
RTVSPropertyOp42
 70
     1
102
RTVSPropertyOp43
 70
     1
102
RTVSPropertyOp44
 70
     1
102
RTVSPropertyOp45
 70
     1
102
RTVSPropertyOp46
 70
     1
102
RTVSPropertyOp47
 70
     1
102
RTVSPropertyOp48
 70
     1
102
RTVSPropertyOp49
 70
     1
102
RTVSPropertyOp50
 70
     1
102
RTVSPropertyOp51
 70
     0
102
RTVSPropertyOp52
 70
     0
102
RTVSPropertyOp53
 70
     1
102
RTVSPropertyOp54
 70
     1
102
RTVSPropertyOp55
 70
     1
102
RTVSPropertyOp56
 70
     1
102
RTVSPropertyOp57
 70
     1
102
RTVSPropertyOp58
 70
     1
102
RTVSPropertyOp59
 70
     1
102
RTVSPropertyOp60
 70
     1
102
RTVSPropertyOp61
 70
     1
102
RTVSPropertyOp62
 70
     1
  0
XRECORD
  5
141D
102
{ACAD_REACTORS
330
141C
102
}
330
141C
100
AcDbXrecord
280
     1
102
RTVSPost2010Prop28
280
     0
102
RTVSPost2010PropOp28
 70
     1
102
RTVSPost2010Prop29
280
     1
102
RTVSPost2010PropOp29
 70
     1
102
RTVSPost2010Prop30
280
     1
102
RTVSPost2010PropOp30
 70
     1
102
RTVSPost2010Prop31
280
     0
102
RTVSPost2010PropOp31
 70
     1
102
RTVSPost2010Prop32
280
     0
102
RTVSPost2010PropOp32
 70
     1
102
RTVSPost2010Prop33
280
     0
102
RTVSPost2010PropOp33
 70
     1
102
RTVSPost2010Prop34
280
     0
102
RTVSPost2010PropOp34
 70
     1
102
RTVSPost2010Prop35
280
     0
102
RTVSPost2010PropOp35
 70
     1
102
RTVSPost2010Prop36
280
     0
102
RTVSPost2010PropOp36
 70
     1
102
RTVSPost2010Prop37
 90
       50
102
RTVSPost2010PropOp37
 70
     1
102
RTVSPost2010Prop38
140
0.0
102
RTVSPost2010PropOp38
 70
     1
102
RTVSPost2010Prop39
140
1.0
102
RTVSPost2010PropOp39
 70
     1
102
RTVSPost2010Prop40
 90
        0
102
RTVSPost2010PropOp40
 70
     1
102
RTVSPost2010Prop41ColorIndex
 90
       18
102
RTVSPost2010Prop41ColorRGB
 90
        0
102
RTVSPost2010PropOp41
 70
     1
102
RTVSPost2010Prop42
 90
       50
102
RTVSPost2010PropOp42
 70
     1
102
RTVSPost2010Prop43
 90
        3
102
RTVSPost2010PropOp43
 70
     1
102
RTVSPost2010Prop44ColorIndex
 90
        5
102
RTVSPost2010Prop44ColorRGB
 90
      255
102
RTVSPost2010PropOp44
 70
     1
102
RTVSPost2010Prop45
280
     0
102
RTVSPost2010PropOp45
 70
     1
102
RTVSPost2010Prop46
 90
       50
102
RTVSPost2010PropOp46
 70
     1
102
RTVSPost2010Prop47
 90
       50
102
RTVSPost2010PropOp47
 70
     1
102
RTVSPost2010Prop48
 90
       50
102
RTVSPost2010PropOp48
 70
     1
102
RTVSPost2010Prop49
280
     0
102
RTVSPost2010PropOp49
 70
     1
102
RTVSPost2010Prop50
 90
       50
102
RTVSPost2010PropOp50
 70
     1
102
RTVSPost2010Prop51ColorIndex
 90
      256
102
RTVSPost2010Prop51ColorRGB
 90
-16777216
102
RTVSPost2010PropOp51
 70
     0
102
RTVSPost2010Prop52
140
1.0
102
RTVSPost2010PropOp52
 70
     0
102
RTVSPost2010Prop53
 90
        2
102
RTVSPost2010PropOp53
 70
     1
102
RTVSPost2010Prop54
  1
strokes_ogs.tif
102
RTVSPost2010PropOp54
 70
     1
102
RTVSPost2010Prop55
280
     0
102
RTVSPost2010PropOp55
 70
     1
102
RTVSPost2010Prop56
140
1.0
102
RTVSPost2010PropOp56
 70
     1
102
RTVSPost2010Prop57
140
1.0
102
RTVSPost2010PropOp57
 70
     1
102
RTVSPropertyOp0
 70
     1
102
RTVSPropertyOp1
 70
     1
102
RTVSPropertyOp2
 70
     1
102
RTVSPropertyOp3
 70
     1
102
RTVSPropertyOp4
 70
     1
102
RTVSPropertyOp5
 70
     1
102
RTVSPropertyOp6
 70
     1
102
RTVSPropertyOp7
 70
     1
102
RTVSPropertyOp8
 70
     1
102
RTVSPropertyOp9
 70
     1
102
RTVSPropertyOp10
 70
     1
102
RTVSPropertyOp11
 70
     1
102
RTVSPropertyOp12
 70
     1
102
RTVSPropertyOp13
 70
     1
102
RTVSPropertyOp14
 70
     1
102
RTVSPropertyOp15
 70
     1
102
RTVSPropertyOp16
 70
     1
102
RTVSPropertyOp17
 70
     1
102
RTVSPropertyOp18
 70
     1
102
RTVSPropertyOp19
 70
     1
102
RTVSPropertyOp20
 70
     1
102
RTVSPropertyOp21
 70
     1
102
RTVSPropertyOp22
 70
     1
102
RTVSPropertyOp23
 70
     1
102
RTVSPropertyOp24
 70
     1
102
RTVSPropertyOp25
 70
     1
102
RTVSPropertyOp26
 70
     1
102
RTVSPropertyOp27
 70
     1
102
RTVSPropertyOp28
 70
     1
102
RTVSPropertyOp29
 70
     1
102
RTVSPropertyOp30
 70
     1
102
RTVSPropertyOp31
 70
     1
102
RTVSPropertyOp32
 70
     1
102
RTVSPropertyOp33
 70
     1
102
RTVSPropertyOp34
 70
     1
102
RTVSPropertyOp35
 70
     1
102
RTVSPropertyOp36
 70
     1
102
RTVSPropertyOp37
 70
     1
102
RTVSPropertyOp38
 70
     1
102
RTVSPropertyOp39
 70
     1
102
RTVSPropertyOp40
 70
     1
102
RTVSPropertyOp41
 70
     1
102
RTVSPropertyOp42
 70
     1
102
RTVSPropertyOp43
 70
     1
102
RTVSPropertyOp44
 70
     1
102
RTVSPropertyOp45
 70
     1
102
RTVSPropertyOp46
 70
     1
102
RTVSPropertyOp47
 70
     1
102
RTVSPropertyOp48
 70
     1
102
RTVSPropertyOp49
 70
     1
102
RTVSPropertyOp50
 70
     1
102
RTVSPropertyOp51
 70
     0
102
RTVSPropertyOp52
 70
     0
102
RTVSPropertyOp53
 70
     1
102
RTVSPropertyOp54
 70
     1
102
RTVSPropertyOp55
 70
     1
102
RTVSPropertyOp56
 70
     1
102
RTVSPropertyOp57
 70
     1
102
RTVSPropertyOp58
 70
     1
102
RTVSPropertyOp59
 70
     1
102
RTVSPropertyOp60
 70
     1
102
RTVSPropertyOp61
 70
     1
102
RTVSPropertyOp62
 70
     1
  0
XRECORD
  5
143B
102
{ACAD_REACTORS
330
143A
102
}
330
143A
100
AcDbXrecord
280
     1
102
RTVSPost2010Prop28
280
     0
102
RTVSPost2010PropOp28
 70
     1
102
RTVSPost2010Prop29
280
     1
102
RTVSPost2010PropOp29
 70
     1
102
RTVSPost2010Prop30
280
     1
102
RTVSPost2010PropOp30
 70
     1
102
RTVSPost2010Prop31
280
     0
102
RTVSPost2010PropOp31
 70
     1
102
RTVSPost2010Prop32
280
     0
102
RTVSPost2010PropOp32
 70
     1
102
RTVSPost2010Prop33
280
     0
102
RTVSPost2010PropOp33
 70
     1
102
RTVSPost2010Prop34
280
     0
102
RTVSPost2010PropOp34
 70
     1
102
RTVSPost2010Prop35
280
     0
102
RTVSPost2010PropOp35
 70
     1
102
RTVSPost2010Prop36
280
     0
102
RTVSPost2010PropOp36
 70
     1
102
RTVSPost2010Prop37
 90
       50
102
RTVSPost2010PropOp37
 70
     1
102
RTVSPost2010Prop38
140
0.0
102
RTVSPost2010PropOp38
 70
     1
102
RTVSPost2010Prop39
140
1.0
102
RTVSPost2010PropOp39
 70
     1
102
RTVSPost2010Prop40
 90
        0
102
RTVSPost2010PropOp40
 70
     1
102
RTVSPost2010Prop41ColorIndex
 90
       18
102
RTVSPost2010Prop41ColorRGB
 90
        0
102
RTVSPost2010PropOp41
 70
     1
102
RTVSPost2010Prop42
 90
       50
102
RTVSPost2010PropOp42
 70
     1
102
RTVSPost2010Prop43
 90
        3
102
RTVSPost2010PropOp43
 70
     1
102
RTVSPost2010Prop44ColorIndex
 90
        5
102
RTVSPost2010Prop44ColorRGB
 90
      255
102
RTVSPost2010PropOp44
 70
     1
102
RTVSPost2010Prop45
280
     0
102
RTVSPost2010PropOp45
 70
     1
102
RTVSPost2010Prop46
 90
       50
102
RTVSPost2010PropOp46
 70
     1
102
RTVSPost2010Prop47
 90
       50
102
RTVSPost2010PropOp47
 70
     1
102
RTVSPost2010Prop48
 90
       50
102
RTVSPost2010PropOp48
 70
     1
102
RTVSPost2010Prop49
280
     0
102
RTVSPost2010PropOp49
 70
     1
102
RTVSPost2010Prop50
 90
       50
102
RTVSPost2010PropOp50
 70
     1
102
RTVSPost2010Prop51ColorIndex
 90
      256
102
RTVSPost2010Prop51ColorRGB
 90
-16777216
102
RTVSPost2010PropOp51
 70
     0
102
RTVSPost2010Prop52
140
1.0
102
RTVSPost2010PropOp52
 70
     0
102
RTVSPost2010Prop53
 90
        2
102
RTVSPost2010PropOp53
 70
     1
102
RTVSPost2010Prop54
  1
strokes_ogs.tif
102
RTVSPost2010PropOp54
 70
     1
102
RTVSPost2010Prop55
280
     0
102
RTVSPost2010PropOp55
 70
     1
102
RTVSPost2010Prop56
140
1.0
102
RTVSPost2010PropOp56
 70
     1
102
RTVSPost2010Prop57
140
1.0
102
RTVSPost2010PropOp57
 70
     1
102
RTVSPropertyOp0
 70
     1
102
RTVSPropertyOp1
 70
     1
102
RTVSPropertyOp2
 70
     1
102
RTVSPropertyOp3
 70
     1
102
RTVSPropertyOp4
 70
     1
102
RTVSPropertyOp5
 70
     1
102
RTVSPropertyOp6
 70
     1
102
RTVSPropertyOp7
 70
     1
102
RTVSPropertyOp8
 70
     1
102
RTVSPropertyOp9
 70
     1
102
RTVSPropertyOp10
 70
     1
102
RTVSPropertyOp11
 70
     1
102
RTVSPropertyOp12
 70
     1
102
RTVSPropertyOp13
 70
     1
102
RTVSPropertyOp14
 70
     1
102
RTVSPropertyOp15
 70
     1
102
RTVSPropertyOp16
 70
     1
102
RTVSPropertyOp17
 70
     1
102
RTVSPropertyOp18
 70
     1
102
RTVSPropertyOp19
 70
     1
102
RTVSPropertyOp20
 70
     1
102
RTVSPropertyOp21
 70
     1
102
RTVSPropertyOp22
 70
     1
102
RTVSPropertyOp23
 70
     1
102
RTVSPropertyOp24
 70
     1
102
RTVSPropertyOp25
 70
     1
102
RTVSPropertyOp26
 70
     1
102
RTVSPropertyOp27
 70
     1
102
RTVSPropertyOp28
 70
     1
102
RTVSPropertyOp29
 70
     1
102
RTVSPropertyOp30
 70
     1
102
RTVSPropertyOp31
 70
     1
102
RTVSPropertyOp32
 70
     1
102
RTVSPropertyOp33
 70
     1
102
RTVSPropertyOp34
 70
     1
102
RTVSPropertyOp35
 70
     1
102
RTVSPropertyOp36
 70
     1
102
RTVSPropertyOp37
 70
     1
102
RTVSPropertyOp38
 70
     1
102
RTVSPropertyOp39
 70
     1
102
RTVSPropertyOp40
 70
     1
102
RTVSPropertyOp41
 70
     1
102
RTVSPropertyOp42
 70
     1
102
RTVSPropertyOp43
 70
     1
102
RTVSPropertyOp44
 70
     1
102
RTVSPropertyOp45
 70
     1
102
RTVSPropertyOp46
 70
     1
102
RTVSPropertyOp47
 70
     1
102
RTVSPropertyOp48
 70
     1
102
RTVSPropertyOp49
 70
     1
102
RTVSPropertyOp50
 70
     1
102
RTVSPropertyOp51
 70
     0
102
RTVSPropertyOp52
 70
     0
102
RTVSPropertyOp53
 70
     1
102
RTVSPropertyOp54
 70
     1
102
RTVSPropertyOp55
 70
     1
102
RTVSPropertyOp56
 70
     1
102
RTVSPropertyOp57
 70
     1
102
RTVSPropertyOp58
 70
     1
102
RTVSPropertyOp59
 70
     1
102
RTVSPropertyOp60
 70
     1
102
RTVSPropertyOp61
 70
     1
102
RTVSPropertyOp62
 70
     1
  0
XRECORD
  5
1439
102
{ACAD_REACTORS
330
1438
102
}
330
1438
100
AcDbXrecord
280
     1
102
RTVSPost2010Prop28
280
     0
102
RTVSPost2010PropOp28
 70
     1
102
RTVSPost2010Prop29
280
     1
102
RTVSPost2010PropOp29
 70
     1
102
RTVSPost2010Prop30
280
     1
102
RTVSPost2010PropOp30
 70
     1
102
RTVSPost2010Prop31
280
     0
102
RTVSPost2010PropOp31
 70
     1
102
RTVSPost2010Prop32
280
     0
102
RTVSPost2010PropOp32
 70
     1
102
RTVSPost2010Prop33
280
     0
102
RTVSPost2010PropOp33
 70
     1
102
RTVSPost2010Prop34
280
     0
102
RTVSPost2010PropOp34
 70
     1
102
RTVSPost2010Prop35
280
     0
102
RTVSPost2010PropOp35
 70
     1
102
RTVSPost2010Prop36
280
     0
102
RTVSPost2010PropOp36
 70
     1
102
RTVSPost2010Prop37
 90
       50
102
RTVSPost2010PropOp37
 70
     1
102
RTVSPost2010Prop38
140
0.0
102
RTVSPost2010PropOp38
 70
     1
102
RTVSPost2010Prop39
140
1.0
102
RTVSPost2010PropOp39
 70
     1
102
RTVSPost2010Prop40
 90
        0
102
RTVSPost2010PropOp40
 70
     1
102
RTVSPost2010Prop41ColorIndex
 90
       18
102
RTVSPost2010Prop41ColorRGB
 90
        0
102
RTVSPost2010PropOp41
 70
     1
102
RTVSPost2010Prop42
 90
       50
102
RTVSPost2010PropOp42
 70
     1
102
RTVSPost2010Prop43
 90
        3
102
RTVSPost2010PropOp43
 70
     1
102
RTVSPost2010Prop44ColorIndex
 90
        5
102
RTVSPost2010Prop44ColorRGB
 90
      255
102
RTVSPost2010PropOp44
 70
     1
102
RTVSPost2010Prop45
280
     0
102
RTVSPost2010PropOp45
 70
     1
102
RTVSPost2010Prop46
 90
       50
102
RTVSPost2010PropOp46
 70
     1
102
RTVSPost2010Prop47
 90
       50
102
RTVSPost2010PropOp47
 70
     1
102
RTVSPost2010Prop48
 90
       50
102
RTVSPost2010PropOp48
 70
     1
102
RTVSPost2010Prop49
280
     0
102
RTVSPost2010PropOp49
 70
     1
102
RTVSPost2010Prop50
 90
       50
102
RTVSPost2010PropOp50
 70
     1
102
RTVSPost2010Prop51ColorIndex
 90
      256
102
RTVSPost2010Prop51ColorRGB
 90
-16777216
102
RTVSPost2010PropOp51
 70
     0
102
RTVSPost2010Prop52
140
1.0
102
RTVSPost2010PropOp52
 70
     0
102
RTVSPost2010Prop53
 90
        2
102
RTVSPost2010PropOp53
 70
     1
102
RTVSPost2010Prop54
  1
strokes_ogs.tif
102
RTVSPost2010PropOp54
 70
     1
102
RTVSPost2010Prop55
280
     0
102
RTVSPost2010PropOp55
 70
     1
102
RTVSPost2010Prop56
140
1.0
102
RTVSPost2010PropOp56
 70
     1
102
RTVSPost2010Prop57
140
1.0
102
RTVSPost2010PropOp57
 70
     1
102
RTVSPropertyOp0
 70
     1
102
RTVSPropertyOp1
 70
     1
102
RTVSPropertyOp2
 70
     1
102
RTVSPropertyOp3
 70
     1
102
RTVSPropertyOp4
 70
     1
102
RTVSPropertyOp5
 70
     1
102
RTVSPropertyOp6
 70
     1
102
RTVSPropertyOp7
 70
     1
102
RTVSPropertyOp8
 70
     1
102
RTVSPropertyOp9
 70
     1
102
RTVSPropertyOp10
 70
     1
102
RTVSPropertyOp11
 70
     1
102
RTVSPropertyOp12
 70
     1
102
RTVSPropertyOp13
 70
     1
102
RTVSPropertyOp14
 70
     1
102
RTVSPropertyOp15
 70
     1
102
RTVSPropertyOp16
 70
     1
102
RTVSPropertyOp17
 70
     1
102
RTVSPropertyOp18
 70
     1
102
RTVSPropertyOp19
 70
     1
102
RTVSPropertyOp20
 70
     1
102
RTVSPropertyOp21
 70
     1
102
RTVSPropertyOp22
 70
     1
102
RTVSPropertyOp23
 70
     1
102
RTVSPropertyOp24
 70
     1
102
RTVSPropertyOp25
 70
     1
102
RTVSPropertyOp26
 70
     1
102
RTVSPropertyOp27
 70
     1
102
RTVSPropertyOp28
 70
     1
102
RTVSPropertyOp29
 70
     1
102
RTVSPropertyOp30
 70
     1
102
RTVSPropertyOp31
 70
     1
102
RTVSPropertyOp32
 70
     1
102
RTVSPropertyOp33
 70
     1
102
RTVSPropertyOp34
 70
     1
102
RTVSPropertyOp35
 70
     1
102
RTVSPropertyOp36
 70
     1
102
RTVSPropertyOp37
 70
     1
102
RTVSPropertyOp38
 70
     1
102
RTVSPropertyOp39
 70
     1
102
RTVSPropertyOp40
 70
     1
102
RTVSPropertyOp41
 70
     1
102
RTVSPropertyOp42
 70
     1
102
RTVSPropertyOp43
 70
     1
102
RTVSPropertyOp44
 70
     1
102
RTVSPropertyOp45
 70
     1
102
RTVSPropertyOp46
 70
     1
102
RTVSPropertyOp47
 70
     1
102
RTVSPropertyOp48
 70
     1
102
RTVSPropertyOp49
 70
     1
102
RTVSPropertyOp50
 70
     1
102
RTVSPropertyOp51
 70
     0
102
RTVSPropertyOp52
 70
     0
102
RTVSPropertyOp53
 70
     1
102
RTVSPropertyOp54
 70
     1
102
RTVSPropertyOp55
 70
     1
102
RTVSPropertyOp56
 70
     1
102
RTVSPropertyOp57
 70
     1
102
RTVSPropertyOp58
 70
     1
102
RTVSPropertyOp59
 70
     1
102
RTVSPropertyOp60
 70
     1
102
RTVSPropertyOp61
 70
     1
102
RTVSPropertyOp62
 70
     1
  0
XRECORD
  5
1433
102
{ACAD_REACTORS
330
1432
102
}
330
1432
100
AcDbXrecord
280
     1
102
RTVSPost2010Prop28
280
     0
102
RTVSPost2010PropOp28
 70
     1
102
RTVSPost2010Prop29
280
     1
102
RTVSPost2010PropOp29
 70
     1
102
RTVSPost2010Prop30
280
     1
102
RTVSPost2010PropOp30
 70
     1
102
RTVSPost2010Prop31
280
     0
102
RTVSPost2010PropOp31
 70
     1
102
RTVSPost2010Prop32
280
     0
102
RTVSPost2010PropOp32
 70
     1
102
RTVSPost2010Prop33
280
     0
102
RTVSPost2010PropOp33
 70
     1
102
RTVSPost2010Prop34
280
     0
102
RTVSPost2010PropOp34
 70
     1
102
RTVSPost2010Prop35
280
     0
102
RTVSPost2010PropOp35
 70
     1
102
RTVSPost2010Prop36
280
     0
102
RTVSPost2010PropOp36
 70
     1
102
RTVSPost2010Prop37
 90
       50
102
RTVSPost2010PropOp37
 70
     1
102
RTVSPost2010Prop38
140
0.0
102
RTVSPost2010PropOp38
 70
     1
102
RTVSPost2010Prop39
140
1.0
102
RTVSPost2010PropOp39
 70
     1
102
RTVSPost2010Prop40
 90
        0
102
RTVSPost2010PropOp40
 70
     1
102
RTVSPost2010Prop41ColorIndex
 90
       18
102
RTVSPost2010Prop41ColorRGB
 90
        0
102
RTVSPost2010PropOp41
 70
     1
102
RTVSPost2010Prop42
 90
       50
102
RTVSPost2010PropOp42
 70
     1
102
RTVSPost2010Prop43
 90
        3
102
RTVSPost2010PropOp43
 70
     1
102
RTVSPost2010Prop44ColorIndex
 90
        5
102
RTVSPost2010Prop44ColorRGB
 90
      255
102
RTVSPost2010PropOp44
 70
     1
102
RTVSPost2010Prop45
280
     0
102
RTVSPost2010PropOp45
 70
     1
102
RTVSPost2010Prop46
 90
       50
102
RTVSPost2010PropOp46
 70
     1
102
RTVSPost2010Prop47
 90
       50
102
RTVSPost2010PropOp47
 70
     1
102
RTVSPost2010Prop48
 90
       50
102
RTVSPost2010PropOp48
 70
     1
102
RTVSPost2010Prop49
280
     0
102
RTVSPost2010PropOp49
 70
     1
102
RTVSPost2010Prop50
 90
       50
102
RTVSPost2010PropOp50
 70
     1
102
RTVSPost2010Prop51ColorIndex
 90
      256
102
RTVSPost2010Prop51ColorRGB
 90
-16777216
102
RTVSPost2010PropOp51
 70
     0
102
RTVSPost2010Prop52
140
1.0
102
RTVSPost2010PropOp52
 70
     0
102
RTVSPost2010Prop53
 90
        2
102
RTVSPost2010PropOp53
 70
     1
102
RTVSPost2010Prop54
  1
strokes_ogs.tif
102
RTVSPost2010PropOp54
 70
     1
102
RTVSPost2010Prop55
280
     0
102
RTVSPost2010PropOp55
 70
     1
102
RTVSPost2010Prop56
140
1.0
102
RTVSPost2010PropOp56
 70
     1
102
RTVSPost2010Prop57
140
1.0
102
RTVSPost2010PropOp57
 70
     1
102
RTVSPropertyOp0
 70
     1
102
RTVSPropertyOp1
 70
     1
102
RTVSPropertyOp2
 70
     1
102
RTVSPropertyOp3
 70
     1
102
RTVSPropertyOp4
 70
     1
102
RTVSPropertyOp5
 70
     1
102
RTVSPropertyOp6
 70
     1
102
RTVSPropertyOp7
 70
     1
102
RTVSPropertyOp8
 70
     1
102
RTVSPropertyOp9
 70
     1
102
RTVSPropertyOp10
 70
     1
102
RTVSPropertyOp11
 70
     1
102
RTVSPropertyOp12
 70
     1
102
RTVSPropertyOp13
 70
     1
102
RTVSPropertyOp14
 70
     1
102
RTVSPropertyOp15
 70
     1
102
RTVSPropertyOp16
 70
     1
102
RTVSPropertyOp17
 70
     1
102
RTVSPropertyOp18
 70
     1
102
RTVSPropertyOp19
 70
     1
102
RTVSPropertyOp20
 70
     1
102
RTVSPropertyOp21
 70
     1
102
RTVSPropertyOp22
 70
     1
102
RTVSPropertyOp23
 70
     1
102
RTVSPropertyOp24
 70
     1
102
RTVSPropertyOp25
 70
     1
102
RTVSPropertyOp26
 70
     1
102
RTVSPropertyOp27
 70
     1
102
RTVSPropertyOp28
 70
     1
102
RTVSPropertyOp29
 70
     1
102
RTVSPropertyOp30
 70
     1
102
RTVSPropertyOp31
 70
     1
102
RTVSPropertyOp32
 70
     1
102
RTVSPropertyOp33
 70
     1
102
RTVSPropertyOp34
 70
     1
102
RTVSPropertyOp35
 70
     1
102
RTVSPropertyOp36
 70
     1
102
RTVSPropertyOp37
 70
     1
102
RTVSPropertyOp38
 70
     1
102
RTVSPropertyOp39
 70
     1
102
RTVSPropertyOp40
 70
     1
102
RTVSPropertyOp41
 70
     1
102
RTVSPropertyOp42
 70
     1
102
RTVSPropertyOp43
 70
     1
102
RTVSPropertyOp44
 70
     1
102
RTVSPropertyOp45
 70
     1
102
RTVSPropertyOp46
 70
     1
102
RTVSPropertyOp47
 70
     1
102
RTVSPropertyOp48
 70
     1
102
RTVSPropertyOp49
 70
     1
102
RTVSPropertyOp50
 70
     1
102
RTVSPropertyOp51
 70
     0
102
RTVSPropertyOp52
 70
     0
102
RTVSPropertyOp53
 70
     1
102
RTVSPropertyOp54
 70
     1
102
RTVSPropertyOp55
 70
     1
102
RTVSPropertyOp56
 70
     1
102
RTVSPropertyOp57
 70
     1
102
RTVSPropertyOp58
 70
     1
102
RTVSPropertyOp59
 70
     1
102
RTVSPropertyOp60
 70
     1
102
RTVSPropertyOp61
 70
     1
102
RTVSPropertyOp62
 70
     1
  0
XRECORD
  5
1435
102
{ACAD_REACTORS
330
1434
102
}
330
1434
100
AcDbXrecord
280
     1
102
RTVSPost2010Prop28
280
     0
102
RTVSPost2010PropOp28
 70
     1
102
RTVSPost2010Prop29
280
     1
102
RTVSPost2010PropOp29
 70
     1
102
RTVSPost2010Prop30
280
     1
102
RTVSPost2010PropOp30
 70
     1
102
RTVSPost2010Prop31
280
     0
102
RTVSPost2010PropOp31
 70
     1
102
RTVSPost2010Prop32
280
     0
102
RTVSPost2010PropOp32
 70
     1
102
RTVSPost2010Prop33
280
     0
102
RTVSPost2010PropOp33
 70
     1
102
RTVSPost2010Prop34
280
     0
102
RTVSPost2010PropOp34
 70
     1
102
RTVSPost2010Prop35
280
     0
102
RTVSPost2010PropOp35
 70
     1
102
RTVSPost2010Prop36
280
     0
102
RTVSPost2010PropOp36
 70
     1
102
RTVSPost2010Prop37
 90
       50
102
RTVSPost2010PropOp37
 70
     1
102
RTVSPost2010Prop38
140
0.0
102
RTVSPost2010PropOp38
 70
     1
102
RTVSPost2010Prop39
140
1.0
102
RTVSPost2010PropOp39
 70
     1
102
RTVSPost2010Prop40
 90
        0
102
RTVSPost2010PropOp40
 70
     1
102
RTVSPost2010Prop41ColorIndex
 90
       18
102
RTVSPost2010Prop41ColorRGB
 90
        0
102
RTVSPost2010PropOp41
 70
     1
102
RTVSPost2010Prop42
 90
       50
102
RTVSPost2010PropOp42
 70
     1
102
RTVSPost2010Prop43
 90
        3
102
RTVSPost2010PropOp43
 70
     1
102
RTVSPost2010Prop44ColorIndex
 90
        5
102
RTVSPost2010Prop44ColorRGB
 90
      255
102
RTVSPost2010PropOp44
 70
     1
102
RTVSPost2010Prop45
280
     0
102
RTVSPost2010PropOp45
 70
     1
102
RTVSPost2010Prop46
 90
       50
102
RTVSPost2010PropOp46
 70
     1
102
RTVSPost2010Prop47
 90
       50
102
RTVSPost2010PropOp47
 70
     1
102
RTVSPost2010Prop48
 90
       50
102
RTVSPost2010PropOp48
 70
     1
102
RTVSPost2010Prop49
280
     0
102
RTVSPost2010PropOp49
 70
     1
102
RTVSPost2010Prop50
 90
       50
102
RTVSPost2010PropOp50
 70
     1
102
RTVSPost2010Prop51ColorIndex
 90
      256
102
RTVSPost2010Prop51ColorRGB
 90
-16777216
102
RTVSPost2010PropOp51
 70
     0
102
RTVSPost2010Prop52
140
1.0
102
RTVSPost2010PropOp52
 70
     0
102
RTVSPost2010Prop53
 90
        2
102
RTVSPost2010PropOp53
 70
     1
102
RTVSPost2010Prop54
  1
strokes_ogs.tif
102
RTVSPost2010PropOp54
 70
     1
102
RTVSPost2010Prop55
280
     0
102
RTVSPost2010PropOp55
 70
     1
102
RTVSPost2010Prop56
140
1.0
102
RTVSPost2010PropOp56
 70
     1
102
RTVSPost2010Prop57
140
1.0
102
RTVSPost2010PropOp57
 70
     1
102
RTVSPropertyOp0
 70
     1
102
RTVSPropertyOp1
 70
     1
102
RTVSPropertyOp2
 70
     1
102
RTVSPropertyOp3
 70
     1
102
RTVSPropertyOp4
 70
     1
102
RTVSPropertyOp5
 70
     1
102
RTVSPropertyOp6
 70
     1
102
RTVSPropertyOp7
 70
     1
102
RTVSPropertyOp8
 70
     1
102
RTVSPropertyOp9
 70
     1
102
RTVSPropertyOp10
 70
     1
102
RTVSPropertyOp11
 70
     1
102
RTVSPropertyOp12
 70
     1
102
RTVSPropertyOp13
 70
     1
102
RTVSPropertyOp14
 70
     1
102
RTVSPropertyOp15
 70
     1
102
RTVSPropertyOp16
 70
     1
102
RTVSPropertyOp17
 70
     1
102
RTVSPropertyOp18
 70
     1
102
RTVSPropertyOp19
 70
     1
102
RTVSPropertyOp20
 70
     1
102
RTVSPropertyOp21
 70
     1
102
RTVSPropertyOp22
 70
     1
102
RTVSPropertyOp23
 70
     1
102
RTVSPropertyOp24
 70
     1
102
RTVSPropertyOp25
 70
     1
102
RTVSPropertyOp26
 70
     1
102
RTVSPropertyOp27
 70
     1
102
RTVSPropertyOp28
 70
     1
102
RTVSPropertyOp29
 70
     1
102
RTVSPropertyOp30
 70
     1
102
RTVSPropertyOp31
 70
     1
102
RTVSPropertyOp32
 70
     1
102
RTVSPropertyOp33
 70
     1
102
RTVSPropertyOp34
 70
     1
102
RTVSPropertyOp35
 70
     1
102
RTVSPropertyOp36
 70
     1
102
RTVSPropertyOp37
 70
     1
102
RTVSPropertyOp38
 70
     1
102
RTVSPropertyOp39
 70
     1
102
RTVSPropertyOp40
 70
     1
102
RTVSPropertyOp41
 70
     1
102
RTVSPropertyOp42
 70
     1
102
RTVSPropertyOp43
 70
     1
102
RTVSPropertyOp44
 70
     1
102
RTVSPropertyOp45
 70
     1
102
RTVSPropertyOp46
 70
     1
102
RTVSPropertyOp47
 70
     1
102
RTVSPropertyOp48
 70
     1
102
RTVSPropertyOp49
 70
     1
102
RTVSPropertyOp50
 70
     1
102
RTVSPropertyOp51
 70
     0
102
RTVSPropertyOp52
 70
     0
102
RTVSPropertyOp53
 70
     1
102
RTVSPropertyOp54
 70
     1
102
RTVSPropertyOp55
 70
     1
102
RTVSPropertyOp56
 70
     1
102
RTVSPropertyOp57
 70
     1
102
RTVSPropertyOp58
 70
     1
102
RTVSPropertyOp59
 70
     1
102
RTVSPropertyOp60
 70
     1
102
RTVSPropertyOp61
 70
     1
102
RTVSPropertyOp62
 70
     1
  0
XRECORD
  5
1423
102
{ACAD_REACTORS
330
1422
102
}
330
1422
100
AcDbXrecord
280
     1
102
RTVSPost2010Prop28
280
     0
102
RTVSPost2010PropOp28
 70
     1
102
RTVSPost2010Prop29
280
     1
102
RTVSPost2010PropOp29
 70
     1
102
RTVSPost2010Prop30
280
     1
102
RTVSPost2010PropOp30
 70
     1
102
RTVSPost2010Prop31
280
     0
102
RTVSPost2010PropOp31
 70
     1
102
RTVSPost2010Prop32
280
     0
102
RTVSPost2010PropOp32
 70
     1
102
RTVSPost2010Prop33
280
     0
102
RTVSPost2010PropOp33
 70
     1
102
RTVSPost2010Prop34
280
     0
102
RTVSPost2010PropOp34
 70
     1
102
RTVSPost2010Prop35
280
     0
102
RTVSPost2010PropOp35
 70
     1
102
RTVSPost2010Prop36
280
     0
102
RTVSPost2010PropOp36
 70
     1
102
RTVSPost2010Prop37
 90
       50
102
RTVSPost2010PropOp37
 70
     1
102
RTVSPost2010Prop38
140
0.0
102
RTVSPost2010PropOp38
 70
     1
102
RTVSPost2010Prop39
140
1.0
102
RTVSPost2010PropOp39
 70
     1
102
RTVSPost2010Prop40
 90
        0
102
RTVSPost2010PropOp40
 70
     1
102
RTVSPost2010Prop41ColorIndex
 90
       18
102
RTVSPost2010Prop41ColorRGB
 90
        0
102
RTVSPost2010PropOp41
 70
     1
102
RTVSPost2010Prop42
 90
       50
102
RTVSPost2010PropOp42
 70
     1
102
RTVSPost2010Prop43
 90
        3
102
RTVSPost2010PropOp43
 70
     1
102
RTVSPost2010Prop44ColorIndex
 90
        5
102
RTVSPost2010Prop44ColorRGB
 90
      255
102
RTVSPost2010PropOp44
 70
     1
102
RTVSPost2010Prop45
280
     0
102
RTVSPost2010PropOp45
 70
     1
102
RTVSPost2010Prop46
 90
       50
102
RTVSPost2010PropOp46
 70
     1
102
RTVSPost2010Prop47
 90
       50
102
RTVSPost2010PropOp47
 70
     1
102
RTVSPost2010Prop48
 90
       50
102
RTVSPost2010PropOp48
 70
     1
102
RTVSPost2010Prop49
280
     0
102
RTVSPost2010PropOp49
 70
     1
102
RTVSPost2010Prop50
 90
       50
102
RTVSPost2010PropOp50
 70
     1
102
RTVSPost2010Prop51ColorIndex
 90
      256
102
RTVSPost2010Prop51ColorRGB
 90
-16777216
102
RTVSPost2010PropOp51
 70
     0
102
RTVSPost2010Prop52
140
1.0
102
RTVSPost2010PropOp52
 70
     0
102
RTVSPost2010Prop53
 90
        2
102
RTVSPost2010PropOp53
 70
     1
102
RTVSPost2010Prop54
  1
strokes_ogs.tif
102
RTVSPost2010PropOp54
 70
     1
102
RTVSPost2010Prop55
280
     0
102
RTVSPost2010PropOp55
 70
     1
102
RTVSPost2010Prop56
140
1.0
102
RTVSPost2010PropOp56
 70
     1
102
RTVSPost2010Prop57
140
1.0
102
RTVSPost2010PropOp57
 70
     1
102
RTVSPropertyOp0
 70
     1
102
RTVSPropertyOp1
 70
     1
102
RTVSPropertyOp2
 70
     1
102
RTVSPropertyOp3
 70
     1
102
RTVSPropertyOp4
 70
     1
102
RTVSPropertyOp5
 70
     1
102
RTVSPropertyOp6
 70
     1
102
RTVSPropertyOp7
 70
     1
102
RTVSPropertyOp8
 70
     1
102
RTVSPropertyOp9
 70
     1
102
RTVSPropertyOp10
 70
     1
102
RTVSPropertyOp11
 70
     1
102
RTVSPropertyOp12
 70
     1
102
RTVSPropertyOp13
 70
     1
102
RTVSPropertyOp14
 70
     1
102
RTVSPropertyOp15
 70
     1
102
RTVSPropertyOp16
 70
     1
102
RTVSPropertyOp17
 70
     1
102
RTVSPropertyOp18
 70
     1
102
RTVSPropertyOp19
 70
     1
102
RTVSPropertyOp20
 70
     1
102
RTVSPropertyOp21
 70
     1
102
RTVSPropertyOp22
 70
     1
102
RTVSPropertyOp23
 70
     1
102
RTVSPropertyOp24
 70
     1
102
RTVSPropertyOp25
 70
     1
102
RTVSPropertyOp26
 70
     1
102
RTVSPropertyOp27
 70
     1
102
RTVSPropertyOp28
 70
     1
102
RTVSPropertyOp29
 70
     1
102
RTVSPropertyOp30
 70
     1
102
RTVSPropertyOp31
 70
     1
102
RTVSPropertyOp32
 70
     1
102
RTVSPropertyOp33
 70
     1
102
RTVSPropertyOp34
 70
     1
102
RTVSPropertyOp35
 70
     1
102
RTVSPropertyOp36
 70
     1
102
RTVSPropertyOp37
 70
     1
102
RTVSPropertyOp38
 70
     1
102
RTVSPropertyOp39
 70
     1
102
RTVSPropertyOp40
 70
     1
102
RTVSPropertyOp41
 70
     1
102
RTVSPropertyOp42
 70
     1
102
RTVSPropertyOp43
 70
     1
102
RTVSPropertyOp44
 70
     1
102
RTVSPropertyOp45
 70
     1
102
RTVSPropertyOp46
 70
     1
102
RTVSPropertyOp47
 70
     1
102
RTVSPropertyOp48
 70
     1
102
RTVSPropertyOp49
 70
     1
102
RTVSPropertyOp50
 70
     1
102
RTVSPropertyOp51
 70
     0
102
RTVSPropertyOp52
 70
     0
102
RTVSPropertyOp53
 70
     1
102
RTVSPropertyOp54
 70
     1
102
RTVSPropertyOp55
 70
     1
102
RTVSPropertyOp56
 70
     1
102
RTVSPropertyOp57
 70
     1
102
RTVSPropertyOp58
 70
     1
102
RTVSPropertyOp59
 70
     1
102
RTVSPropertyOp60
 70
     1
102
RTVSPropertyOp61
 70
     1
102
RTVSPropertyOp62
 70
     1
  0
XRECORD
  5
1417
102
{ACAD_REACTORS
330
1416
102
}
330
1416
100
AcDbXrecord
280
     1
102
RTVSPost2010Prop28
280
     0
102
RTVSPost2010PropOp28
 70
     1
102
RTVSPost2010Prop29
280
     1
102
RTVSPost2010PropOp29
 70
     1
102
RTVSPost2010Prop30
280
     1
102
RTVSPost2010PropOp30
 70
     1
102
RTVSPost2010Prop31
280
     0
102
RTVSPost2010PropOp31
 70
     1
102
RTVSPost2010Prop32
280
     0
102
RTVSPost2010PropOp32
 70
     1
102
RTVSPost2010Prop33
280
     0
102
RTVSPost2010PropOp33
 70
     1
102
RTVSPost2010Prop34
280
     0
102
RTVSPost2010PropOp34
 70
     1
102
RTVSPost2010Prop35
280
     0
102
RTVSPost2010PropOp35
 70
     1
102
RTVSPost2010Prop36
280
     0
102
RTVSPost2010PropOp36
 70
     1
102
RTVSPost2010Prop37
 90
       50
102
RTVSPost2010PropOp37
 70
     1
102
RTVSPost2010Prop38
140
0.0
102
RTVSPost2010PropOp38
 70
     1
102
RTVSPost2010Prop39
140
1.0
102
RTVSPost2010PropOp39
 70
     1
102
RTVSPost2010Prop40
 90
        0
102
RTVSPost2010PropOp40
 70
     1
102
RTVSPost2010Prop41ColorIndex
 90
       18
102
RTVSPost2010Prop41ColorRGB
 90
        0
102
RTVSPost2010PropOp41
 70
     1
102
RTVSPost2010Prop42
 90
       50
102
RTVSPost2010PropOp42
 70
     1
102
RTVSPost2010Prop43
 90
        3
102
RTVSPost2010PropOp43
 70
     1
102
RTVSPost2010Prop44ColorIndex
 90
        5
102
RTVSPost2010Prop44ColorRGB
 90
      255
102
RTVSPost2010PropOp44
 70
     1
102
RTVSPost2010Prop45
280
     0
102
RTVSPost2010PropOp45
 70
     1
102
RTVSPost2010Prop46
 90
       50
102
RTVSPost2010PropOp46
 70
     1
102
RTVSPost2010Prop47
 90
       50
102
RTVSPost2010PropOp47
 70
     1
102
RTVSPost2010Prop48
 90
       50
102
RTVSPost2010PropOp48
 70
     1
102
RTVSPost2010Prop49
280
     0
102
RTVSPost2010PropOp49
 70
     1
102
RTVSPost2010Prop50
 90
       50
102
RTVSPost2010PropOp50
 70
     1
102
RTVSPost2010Prop51ColorIndex
 90
      256
102
RTVSPost2010Prop51ColorRGB
 90
-16777216
102
RTVSPost2010PropOp51
 70
     0
102
RTVSPost2010Prop52
140
1.0
102
RTVSPost2010PropOp52
 70
     0
102
RTVSPost2010Prop53
 90
        2
102
RTVSPost2010PropOp53
 70
     1
102
RTVSPost2010Prop54
  1
strokes_ogs.tif
102
RTVSPost2010PropOp54
 70
     1
102
RTVSPost2010Prop55
280
     0
102
RTVSPost2010PropOp55
 70
     1
102
RTVSPost2010Prop56
140
1.0
102
RTVSPost2010PropOp56
 70
     1
102
RTVSPost2010Prop57
140
1.0
102
RTVSPost2010PropOp57
 70
     1
102
RTVSPropertyOp0
 70
     1
102
RTVSPropertyOp1
 70
     1
102
RTVSPropertyOp2
 70
     1
102
RTVSPropertyOp3
 70
     1
102
RTVSPropertyOp4
 70
     1
102
RTVSPropertyOp5
 70
     1
102
RTVSPropertyOp6
 70
     1
102
RTVSPropertyOp7
 70
     1
102
RTVSPropertyOp8
 70
     1
102
RTVSPropertyOp9
 70
     1
102
RTVSPropertyOp10
 70
     1
102
RTVSPropertyOp11
 70
     1
102
RTVSPropertyOp12
 70
     1
102
RTVSPropertyOp13
 70
     1
102
RTVSPropertyOp14
 70
     1
102
RTVSPropertyOp15
 70
     1
102
RTVSPropertyOp16
 70
     1
102
RTVSPropertyOp17
 70
     1
102
RTVSPropertyOp18
 70
     1
102
RTVSPropertyOp19
 70
     1
102
RTVSPropertyOp20
 70
     1
102
RTVSPropertyOp21
 70
     1
102
RTVSPropertyOp22
 70
     1
102
RTVSPropertyOp23
 70
     1
102
RTVSPropertyOp24
 70
     1
102
RTVSPropertyOp25
 70
     1
102
RTVSPropertyOp26
 70
     1
102
RTVSPropertyOp27
 70
     1
102
RTVSPropertyOp28
 70
     1
102
RTVSPropertyOp29
 70
     1
102
RTVSPropertyOp30
 70
     1
102
RTVSPropertyOp31
 70
     1
102
RTVSPropertyOp32
 70
     1
102
RTVSPropertyOp33
 70
     1
102
RTVSPropertyOp34
 70
     1
102
RTVSPropertyOp35
 70
     1
102
RTVSPropertyOp36
 70
     1
102
RTVSPropertyOp37
 70
     1
102
RTVSPropertyOp38
 70
     1
102
RTVSPropertyOp39
 70
     1
102
RTVSPropertyOp40
 70
     1
102
RTVSPropertyOp41
 70
     1
102
RTVSPropertyOp42
 70
     1
102
RTVSPropertyOp43
 70
     1
102
RTVSPropertyOp44
 70
     1
102
RTVSPropertyOp45
 70
     1
102
RTVSPropertyOp46
 70
     1
102
RTVSPropertyOp47
 70
     1
102
RTVSPropertyOp48
 70
     1
102
RTVSPropertyOp49
 70
     1
102
RTVSPropertyOp50
 70
     1
102
RTVSPropertyOp51
 70
     0
102
RTVSPropertyOp52
 70
     0
102
RTVSPropertyOp53
 70
     1
102
RTVSPropertyOp54
 70
     1
102
RTVSPropertyOp55
 70
     1
102
RTVSPropertyOp56
 70
     1
102
RTVSPropertyOp57
 70
     1
102
RTVSPropertyOp58
 70
     1
102
RTVSPropertyOp59
 70
     1
102
RTVSPropertyOp60
 70
     1
102
RTVSPropertyOp61
 70
     1
102
RTVSPropertyOp62
 70
     1
  0
XRECORD
  5
1437
102
{ACAD_REACTORS
330
1436
102
}
330
1436
100
AcDbXrecord
280
     1
102
RTVSPost2010Prop28
280
     0
102
RTVSPost2010PropOp28
 70
     1
102
RTVSPost2010Prop29
280
     1
102
RTVSPost2010PropOp29
 70
     1
102
RTVSPost2010Prop30
280
     1
102
RTVSPost2010PropOp30
 70
     1
102
RTVSPost2010Prop31
280
     0
102
RTVSPost2010PropOp31
 70
     1
102
RTVSPost2010Prop32
280
     0
102
RTVSPost2010PropOp32
 70
     1
102
RTVSPost2010Prop33
280
     0
102
RTVSPost2010PropOp33
 70
     1
102
RTVSPost2010Prop34
280
     0
102
RTVSPost2010PropOp34
 70
     1
102
RTVSPost2010Prop35
280
     0
102
RTVSPost2010PropOp35
 70
     1
102
RTVSPost2010Prop36
280
     0
102
RTVSPost2010PropOp36
 70
     1
102
RTVSPost2010Prop37
 90
       50
102
RTVSPost2010PropOp37
 70
     1
102
RTVSPost2010Prop38
140
0.0
102
RTVSPost2010PropOp38
 70
     1
102
RTVSPost2010Prop39
140
1.0
102
RTVSPost2010PropOp39
 70
     1
102
RTVSPost2010Prop40
 90
        0
102
RTVSPost2010PropOp40
 70
     1
102
RTVSPost2010Prop41ColorIndex
 90
       18
102
RTVSPost2010Prop41ColorRGB
 90
        0
102
RTVSPost2010PropOp41
 70
     1
102
RTVSPost2010Prop42
 90
       50
102
RTVSPost2010PropOp42
 70
     1
102
RTVSPost2010Prop43
 90
        3
102
RTVSPost2010PropOp43
 70
     1
102
RTVSPost2010Prop44ColorIndex
 90
        5
102
RTVSPost2010Prop44ColorRGB
 90
      255
102
RTVSPost2010PropOp44
 70
     1
102
RTVSPost2010Prop45
280
     0
102
RTVSPost2010PropOp45
 70
     1
102
RTVSPost2010Prop46
 90
       50
102
RTVSPost2010PropOp46
 70
     1
102
RTVSPost2010Prop47
 90
       50
102
RTVSPost2010PropOp47
 70
     1
102
RTVSPost2010Prop48
 90
       50
102
RTVSPost2010PropOp48
 70
     1
102
RTVSPost2010Prop49
280
     0
102
RTVSPost2010PropOp49
 70
     1
102
RTVSPost2010Prop50
 90
       50
102
RTVSPost2010PropOp50
 70
     1
102
RTVSPost2010Prop51ColorIndex
 90
      256
102
RTVSPost2010Prop51ColorRGB
 90
-16777216
102
RTVSPost2010PropOp51
 70
     0
102
RTVSPost2010Prop52
140
1.0
102
RTVSPost2010PropOp52
 70
     0
102
RTVSPost2010Prop53
 90
        2
102
RTVSPost2010PropOp53
 70
     1
102
RTVSPost2010Prop54
  1
strokes_ogs.tif
102
RTVSPost2010PropOp54
 70
     1
102
RTVSPost2010Prop55
280
     0
102
RTVSPost2010PropOp55
 70
     1
102
RTVSPost2010Prop56
140
1.0
102
RTVSPost2010PropOp56
 70
     1
102
RTVSPost2010Prop57
140
1.0
102
RTVSPost2010PropOp57
 70
     1
102
RTVSPropertyOp0
 70
     1
102
RTVSPropertyOp1
 70
     1
102
RTVSPropertyOp2
 70
     1
102
RTVSPropertyOp3
 70
     1
102
RTVSPropertyOp4
 70
     1
102
RTVSPropertyOp5
 70
     1
102
RTVSPropertyOp6
 70
     1
102
RTVSPropertyOp7
 70
     1
102
RTVSPropertyOp8
 70
     1
102
RTVSPropertyOp9
 70
     1
102
RTVSPropertyOp10
 70
     1
102
RTVSPropertyOp11
 70
     1
102
RTVSPropertyOp12
 70
     1
102
RTVSPropertyOp13
 70
     1
102
RTVSPropertyOp14
 70
     1
102
RTVSPropertyOp15
 70
     1
102
RTVSPropertyOp16
 70
     1
102
RTVSPropertyOp17
 70
     1
102
RTVSPropertyOp18
 70
     1
102
RTVSPropertyOp19
 70
     1
102
RTVSPropertyOp20
 70
     1
102
RTVSPropertyOp21
 70
     1
102
RTVSPropertyOp22
 70
     1
102
RTVSPropertyOp23
 70
     1
102
RTVSPropertyOp24
 70
     1
102
RTVSPropertyOp25
 70
     1
102
RTVSPropertyOp26
 70
     1
102
RTVSPropertyOp27
 70
     1
102
RTVSPropertyOp28
 70
     1
102
RTVSPropertyOp29
 70
     1
102
RTVSPropertyOp30
 70
     1
102
RTVSPropertyOp31
 70
     1
102
RTVSPropertyOp32
 70
     1
102
RTVSPropertyOp33
 70
     1
102
RTVSPropertyOp34
 70
     1
102
RTVSPropertyOp35
 70
     1
102
RTVSPropertyOp36
 70
     1
102
RTVSPropertyOp37
 70
     1
102
RTVSPropertyOp38
 70
     1
102
RTVSPropertyOp39
 70
     1
102
RTVSPropertyOp40
 70
     1
102
RTVSPropertyOp41
 70
     1
102
RTVSPropertyOp42
 70
     1
102
RTVSPropertyOp43
 70
     1
102
RTVSPropertyOp44
 70
     1
102
RTVSPropertyOp45
 70
     1
102
RTVSPropertyOp46
 70
     1
102
RTVSPropertyOp47
 70
     1
102
RTVSPropertyOp48
 70
     1
102
RTVSPropertyOp49
 70
     1
102
RTVSPropertyOp50
 70
     1
102
RTVSPropertyOp51
 70
     0
102
RTVSPropertyOp52
 70
     0
102
RTVSPropertyOp53
 70
     1
102
RTVSPropertyOp54
 70
     1
102
RTVSPropertyOp55
 70
     1
102
RTVSPropertyOp56
 70
     1
102
RTVSPropertyOp57
 70
     1
102
RTVSPropertyOp58
 70
     1
102
RTVSPropertyOp59
 70
     1
102
RTVSPropertyOp60
 70
     1
102
RTVSPropertyOp61
 70
     1
102
RTVSPropertyOp62
 70
     1
  0
ENDSEC
  0
EOF
