  0
SECTION
  2
HEADER
  9
$ACADVER
  1
AC1015
  9
$ACADMAINTVER
 70
    18
  9
$DWGCODEPAGE
  3
ANSI_1252
  9
$INSBASE
 10
0.0
 20
0.0
 30
0.0
  9
$EXTMIN
 10
-118.541564101518
 20
-125.1337274815116
 30
-0.0015258207003583
  9
$EXTMAX
 10
133.3840948825052
 20
161.030594405288
 30
0.0000000349246037
  9
$LIMMIN
 10
0.0
 20
0.0
  9
$LIMMAX
 10
420.0
 20
297.0
  9
$ORTHOMODE
 70
     0
  9
$REGENMODE
 70
     1
  9
$FILLMODE
 70
     1
  9
$QTEXTMODE
 70
     0
  9
$MIRRTEXT
 70
     0
  9
$LTSCALE
 40
1.0
  9
$ATTMODE
 70
     1
  9
$TEXTSIZE
 40
2.5
  9
$TRACEWID
 40
1.0
  9
$TEXTSTYLE
  7
Standard
  9
$CLAYER
  8
0
  9
$CELTYPE
  6
ByLayer
  9
$CECOLOR
 62
   256
  9
$CELTSCALE
 40
1.0
  9
$DISPSILH
 70
     0
  9
$DIMSCALE
 40
1.0
  9
$DIMASZ
 40
2.5
  9
$DIMEXO
 40
0.625
  9
$DIMDLI
 40
3.75
  9
$DIMRND
 40
0.0
  9
$DIMDLE
 40
0.0
  9
$DIMEXE
 40
1.25
  9
$DIMTP
 40
0.0
  9
$DIMTM
 40
0.0
  9
$DIMTXT
 40
2.5
  9
$DIMCEN
 40
2.5
  9
$DIMTSZ
 40
0.0
  9
$DIMTOL
 70
     0
  9
$DIMLIM
 70
     0
  9
$DIMTIH
 70
     0
  9
$DIMTOH
 70
     0
  9
$DIMSE1
 70
     0
  9
$DIMSE2
 70
     0
  9
$DIMTAD
 70
     1
  9
$DIMZIN
 70
     8
  9
$DIMBLK
  1

  9
$DIMASO
 70
     1
  9
$DIMSHO
 70
     1
  9
$DIMPOST
  1

  9
$DIMAPOST
  1

  9
$DIMALT
 70
     0
  9
$DIMALTD
 70
     3
  9
$DIMALTF
 40
0.03937007874016
  9
$DIMLFAC
 40
1.0
  9
$DIMTOFL
 70
     1
  9
$DIMTVP
 40
0.0
  9
$DIMTIX
 70
     0
  9
$DIMSOXD
 70
     0
  9
$DIMSAH
 70
     0
  9
$DIMBLK1
  1

  9
$DIMBLK2
  1

  9
$DIMSTYLE
  2
ISO-25
  9
$DIMCLRD
 70
     0
  9
$DIMCLRE
 70
     0
  9
$DIMCLRT
 70
     0
  9
$DIMTFAC
 40
1.0
  9
$DIMGAP
 40
0.625
  9
$DIMJUST
 70
     0
  9
$DIMSD1
 70
     0
  9
$DIMSD2
 70
     0
  9
$DIMTOLJ
 70
     0
  9
$DIMTZIN
 70
     8
  9
$DIMALTZ
 70
     0
  9
$DIMALTTZ
 70
     0
  9
$DIMUPT
 70
     0
  9
$DIMDEC
 70
     2
  9
$DIMTDEC
 70
     2
  9
$DIMALTU
 70
     2
  9
$DIMALTTD
 70
     3
  9
$DIMTXSTY
  7
Standard
  9
$DIMAUNIT
 70
     0
  9
$DIMADEC
 70
     0
  9
$DIMALTRND
 40
0.0
  9
$DIMAZIN
 70
     0
  9
$DIMDSEP
 70
    44
  9
$DIMATFIT
 70
     3
  9
$DIMFRAC
 70
     0
  9
$DIMLDRBLK
  1

  9
$DIMLUNIT
 70
     2
  9
$DIMLWD
 70
    -2
  9
$DIMLWE
 70
    -2
  9
$DIMTMOVE
 70
     0
  9
$LUNITS
 70
     2
  9
$LUPREC
 70
     4
  9
$SKETCHINC
 40
1.0
  9
$FILLETRAD
 40
0.0
  9
$AUNITS
 70
     0
  9
$AUPREC
 70
     0
  9
$MENU
  1
.
  9
$ELEVATION
 40
0.0
  9
$PELEVATION
 40
0.0
  9
$THICKNESS
 40
0.0
  9
$LIMCHECK
 70
     0
  9
$CHAMFERA
 40
0.0
  9
$CHAMFERB
 40
0.0
  9
$CHAMFERC
 40
0.0
  9
$CHAMFERD
 40
0.0
  9
$SKPOLY
 70
     0
  9
$TDCREATE
 40
2460367.705740741
  9
$TDUCREATE
 40
2460367.414074074
  9
$TDUPDATE
 40
2460367.711273149
  9
$TDUUPDATE
 40
2460367.419606482
  9
$TDINDWG
 40
0.0035069444
  9
$TDUSRTIMER
 40
0.0035069444
  9
$USRTIMER
 70
     1
  9
$ANGBASE
 50
0.0
  9
$ANGDIR
 70
     0
  9
$PDMODE
 70
     0
  9
$PDSIZE
 40
0.0
  9
$PLINEWID
 40
0.0
  9
$SPLFRAME
 70
     0
  9
$SPLINETYPE
 70
     6
  9
$SPLINESEGS
 70
     8
  9
$HANDSEED
  5
270D
  9
$SURFTAB1
 70
     6
  9
$SURFTAB2
 70
     6
  9
$SURFTYPE
 70
     6
  9
$SURFU
 70
     6
  9
$SURFV
 70
     6
  9
$UCSBASE
  2

  9
$UCSNAME
  2

  9
$UCSORG
 10
0.0
 20
0.0
 30
0.0
  9
$UCSXDIR
 10
1.0
 20
0.0
 30
0.0
  9
$UCSYDIR
 10
0.0
 20
1.0
 30
0.0
  9
$UCSORTHOREF
  2

  9
$UCSORTHOVIEW
 70
     0
  9
$UCSORGTOP
 10
0.0
 20
0.0
 30
0.0
  9
$UCSORGBOTTOM
 10
0.0
 20
0.0
 30
0.0
  9
$UCSORGLEFT
 10
0.0
 20
0.0
 30
0.0
  9
$UCSORGRIGHT
 10
0.0
 20
0.0
 30
0.0
  9
$UCSORGFRONT
 10
0.0
 20
0.0
 30
0.0
  9
$UCSORGBACK
 10
0.0
 20
0.0
 30
0.0
  9
$PUCSBASE
  2

  9
$PUCSNAME
  2

  9
$PUCSORG
 10
0.0
 20
0.0
 30
0.0
  9
$PUCSXDIR
 10
1.0
 20
0.0
 30
0.0
  9
$PUCSYDIR
 10
0.0
 20
1.0
 30
0.0
  9
$PUCSORTHOREF
  2

  9
$PUCSORTHOVIEW
 70
     0
  9
$PUCSORGTOP
 10
0.0
 20
0.0
 30
0.0
  9
$PUCSORGBOTTOM
 10
0.0
 20
0.0
 30
0.0
  9
$PUCSORGLEFT
 10
0.0
 20
0.0
 30
0.0
  9
$PUCSORGRIGHT
 10
0.0
 20
0.0
 30
0.0
  9
$PUCSORGFRONT
 10
0.0
 20
0.0
 30
0.0
  9
$PUCSORGBACK
 10
0.0
 20
0.0
 30
0.0
  9
$USERI1
 70
     0
  9
$USERI2
 70
     0
  9
$USERI3
 70
     0
  9
$USERI4
 70
     0
  9
$USERI5
 70
     0
  9
$USERR1
 40
0.0
  9
$USERR2
 40
0.0
  9
$USERR3
 40
0.0
  9
$USERR4
 40
0.0
  9
$USERR5
 40
0.0
  9
$WORLDVIEW
 70
     1
  9
$SHADEDGE
 70
     3
  9
$SHADEDIF
 70
    70
  9
$TILEMODE
 70
     1
  9
$MAXACTVP
 70
    48
  9
$PINSBASE
 10
0.0
 20
0.0
 30
0.0
  9
$PLIMCHECK
 70
     0
  9
$PEXTMIN
 10
0.0
 20
0.0
 30
0.0
  9
$PEXTMAX
 10
0.0
 20
0.0
 30
0.0
  9
$PLIMMIN
 10
0.0
 20
0.0
  9
$PLIMMAX
 10
12.0
 20
9.0
  9
$UNITMODE
 70
     0
  9
$VISRETAIN
 70
     1
  9
$PLINEGEN
 70
     0
  9
$PSLTSCALE
 70
     1
  9
$TREEDEPTH
 70
  3020
  9
$CMLSTYLE
  2
Standard
  9
$CMLJUST
 70
     0
  9
$CMLSCALE
 40
20.0
  9
$PROXYGRAPHICS
 70
     1
  9
$MEASUREMENT
 70
     1
  9
$CELWEIGHT
370
    -1
  9
$ENDCAPS
280
     0
  9
$JOINSTYLE
280
     0
  9
$LWDISPLAY
290
     0
  9
$INSUNITS
 70
     4
  9
$HYPERLINKBASE
  1

  9
$STYLESHEET
  1

  9
$XEDIT
290
     1
  9
$CEPSNTYPE
380
     0
  9
$PSTYLEMODE
290
     1
  9
$FINGERPRINTGUID
  2
{09ACAAAA-6FF3-F94C-B944-1C0D1F37C415}
  9
$VERSIONGUID
  2
{BCDF77B5-F385-3049-B315-5A66602A1E00}
  9
$EXTNAMES
290
     1
  9
$PSVPSCALE
 40
0.0
  9
$OLESTARTUP
290
     0
  0
ENDSEC
  0
SECTION
  2
CLASSES
  0
CLASS
  1
ACDBDICTIONARYWDFLT
  2
AcDbDictionaryWithDefault
  3
ObjectDBX Classes
 90
        0
280
     0
281
     0
  0
CLASS
  1
ACDBPLACEHOLDER
  2
AcDbPlaceHolder
  3
ObjectDBX Classes
 90
        0
280
     0
281
     0
  0
CLASS
  1
LAYOUT
  2
AcDbLayout
  3
ObjectDBX Classes
 90
        0
280
     0
281
     0
  0
CLASS
  1
DICTIONARYVAR
  2
AcDbDictionaryVar
  3
ObjectDBX Classes
 90
        0
280
     0
281
     0
  0
CLASS
  1
TABLESTYLE
  2
AcDbTableStyle
  3
ObjectDBX Classes
 90
     4095
280
     0
281
     0
  0
CLASS
  1
MATERIAL
  2
AcDbMaterial
  3
ObjectDBX Classes
 90
     1153
280
     0
281
     0
  0
CLASS
  1
VISUALSTYLE
  2
AcDbVisualStyle
  3
ObjectDBX Classes
 90
     4095
280
     0
281
     0
  0
CLASS
  1
SCALE
  2
AcDbScale
  3
ObjectDBX Classes
 90
     1153
280
     0
281
     0
  0
CLASS
  1
MLEADERSTYLE
  2
AcDbMLeaderStyle
  3
ACDB_MLEADERSTYLE_CLASS
 90
     4095
280
     0
281
     0
  0
CLASS
  1
CELLSTYLEMAP
  2
AcDbCellStyleMap
  3
ObjectDBX Classes
 90
     1152
280
     0
281
     0
  0
CLASS
  1
EXACXREFPANELOBJECT
  2
ExAcXREFPanelObject
  3
EXAC_ESW
 90
    33793
280
     0
281
     0
  0
CLASS
  1
NPOCOLLECTION
  2
AcDbImpNonPersistentObjectsCollection
  3
ObjectDBX Classes
 90
    33921
280
     0
281
     0
  0
CLASS
  1
LAYER_INDEX
  2
AcDbLayerIndex
  3
ObjectDBX Classes
 90
    32768
280
     0
281
     0
  0
CLASS
  1
SPATIAL_INDEX
  2
AcDbSpatialIndex
  3
ObjectDBX Classes
 90
    32768
280
     0
281
     0
  0
CLASS
  1
IDBUFFER
  2
AcDbIdBuffer
  3
ObjectDBX Classes
 90
    32768
280
     0
281
     0
  0
CLASS
  1
ACDBSECTIONVIEWSTYLE
  2
AcDbSectionViewStyle
  3
ObjectDBX Classes
 90
     1025
280
     0
281
     0
  0
CLASS
  1
ACDBDETAILVIEWSTYLE
  2
AcDbDetailViewStyle
  3
ObjectDBX Classes
 90
     1025
280
     0
281
     0
  0
CLASS
  1
XRECORD
  2
AcDbXrecord
  3
ObjectDBX Classes
 90
        0
280
     0
281
     0
  0
ENDSEC
  0
SECTION
  2
TABLES
  0
TABLE
  2
VPORT
  5
8
102
{ACAD_XDICTIONARY
360
261B
102
}
330
0
100
AcDbSymbolTable
 70
     1
  0
VPORT
  5
EA
330
8
100
AcDbSymbolTableRecord
100
AcDbViewportTableRecord
  2
*Active
 70
     0
 10
0.0
 20
0.0
 11
1.0
 21
1.0
 12
7.4212653904936
 22
17.94843346188823
 13
0.0
 23
0.0
 14
10.0
 24
10.0
 15
10.0
 25
10.0
 16
0.0
 26
0.0
 36
1.0
 17
0.0
 27
0.0
 37
0.0
 40
304.30982316685
 41
0.9846153846153846
 42
50.0
 43
0.0
 44
0.0
 50
0.0
 51
0.0
 71
     0
 72
  1000
 73
     1
 74
     3
 75
     0
 76
     1
 77
     0
 78
     0
281
     0
 65
     1
110
0.0
120
0.0
130
0.0
111
1.0
121
0.0
131
0.0
112
0.0
122
1.0
132
0.0
 79
     0
146
0.0
1001
ACAD_NAV_VCDISPLAY
1070
     3
  0
ENDTAB
  0
TABLE
  2
LTYPE
  5
5
330
0
100
AcDbSymbolTable
 70
     1
  0
LTYPE
  5
14
330
5
100
AcDbSymbolTableRecord
100
AcDbLinetypeTableRecord
  2
ByBlock
 70
     0
  3

 72
    65
 73
     0
 40
0.0
  0
LTYPE
  5
15
330
5
100
AcDbSymbolTableRecord
100
AcDbLinetypeTableRecord
  2
ByLayer
 70
     0
  3

 72
    65
 73
     0
 40
0.0
  0
LTYPE
  5
16
330
5
100
AcDbSymbolTableRecord
100
AcDbLinetypeTableRecord
  2
Continuous
 70
     0
  3
Solid line
 72
    65
 73
     0
 40
0.0
  0
ENDTAB
  0
TABLE
  2
LAYER
  5
2
102
{ACAD_XDICTIONARY
360
1FF
102
}
330
0
100
AcDbSymbolTable
 70
     1
  0
LAYER
  5
10
102
{ACAD_XDICTIONARY
360
13C
102
}
330
2
100
AcDbSymbolTableRecord
100
AcDbLayerTableRecord
  2
0
 70
     0
 62
     7
  6
Continuous
370
    -3
390
F
  0
ENDTAB
  0
TABLE
  2
STYLE
  5
3
330
0
100
AcDbSymbolTable
 70
     1
  0
STYLE
  5
11
330
3
100
AcDbSymbolTableRecord
100
AcDbTextStyleTableRecord
  2
Standard
 70
     0
 40
0.0
 41
1.0
 50
0.0
 71
     0
 42
2.5
  3
arial.ttf
  4

1001
ACAD
1000
Arial
1071
       34
  0
ENDTAB
  0
TABLE
  2
VIEW
  5
6
330
0
100
AcDbSymbolTable
 70
     0
  0
ENDTAB
  0
TABLE
  2
UCS
  5
7
330
0
100
AcDbSymbolTable
 70
     0
  0
ENDTAB
  0
TABLE
  2
APPID
  5
9
330
0
100
AcDbSymbolTable
 70
     8
  0
APPID
  5
12
330
9
100
AcDbSymbolTableRecord
100
AcDbRegAppTableRecord
  2
ACAD
 70
     0
  0
APPID
  5
9E
330
9
100
AcDbSymbolTableRecord
100
AcDbRegAppTableRecord
  2
ACAD_PSEXT
 70
     0
  0
APPID
  5
133
330
9
100
AcDbSymbolTableRecord
100
AcDbRegAppTableRecord
  2
AcadAnnoPO
 70
     0
  0
APPID
  5
134
330
9
100
AcDbSymbolTableRecord
100
AcDbRegAppTableRecord
  2
AcadAnnotative
 70
     0
  0
APPID
  5
135
330
9
100
AcDbSymbolTableRecord
100
AcDbRegAppTableRecord
  2
ACAD_DSTYLE_DIMJAG
 70
     0
  0
APPID
  5
136
330
9
100
AcDbSymbolTableRecord
100
AcDbRegAppTableRecord
  2
ACAD_DSTYLE_DIMTALN
 70
     0
  0
APPID
  5
165
330
9
100
AcDbSymbolTableRecord
100
AcDbRegAppTableRecord
  2
ACAD_MLEADERVER
 70
     0
  0
APPID
  5
217
330
9
100
AcDbSymbolTableRecord
100
AcDbRegAppTableRecord
  2
ACAD_NAV_VCDISPLAY
 70
     0
  0
ENDTAB
  0
TABLE
  2
DIMSTYLE
  5
A
330
0
100
AcDbSymbolTable
 70
     1
100
AcDbDimStyleTable
 71
     0
  0
DIMSTYLE
105
27
330
A
100
AcDbSymbolTableRecord
100
AcDbDimStyleTableRecord
  2
ISO-25
 70
     0
 41
2.5
 42
0.625
 43
3.75
 44
1.25
 73
     0
 74
     0
 77
     1
 78
     8
140
2.5
141
2.5
143
0.03937007874016
147
0.625
171
     3
172
     1
271
     2
272
     2
274
     3
278
    44
283
     0
284
     8
340
11
  0
ENDTAB
  0
TABLE
  2
BLOCK_RECORD
  5
1
330
0
100
AcDbSymbolTable
 70
     7
  0
BLOCK_RECORD
  5
1F
102
{ACAD_XDICTIONARY
360
1CE
102
}
330
1
100
AcDbSymbolTableRecord
100
AcDbBlockTableRecord
  2
*Model_Space
340
22
  0
BLOCK_RECORD
  5
D2
102
{ACAD_XDICTIONARY
360
25CE
102
}
330
1
100
AcDbSymbolTableRecord
100
AcDbBlockTableRecord
  2
*Paper_Space
340
D3
  0
BLOCK_RECORD
  5
D6
102
{ACAD_XDICTIONARY
360
25D0
102
}
330
1
100
AcDbSymbolTableRecord
100
AcDbBlockTableRecord
  2
*Paper_Space0
340
D7
  0
BLOCK_RECORD
  5
244E
330
1
100
AcDbSymbolTableRecord
100
AcDbBlockTableRecord
  2
ABR70-Front
340
0
102
{BLKREFS
331
25C4
102
}
  0
BLOCK_RECORD
  5
2482
330
1
100
AcDbSymbolTableRecord
100
AcDbBlockTableRecord
  2
ABR70-Left
340
0
102
{BLKREFS
331
25C5
102
}
  0
BLOCK_RECORD
  5
24A8
330
1
100
AcDbSymbolTableRecord
100
AcDbBlockTableRecord
  2
ABR70-Right
340
0
102
{BLKREFS
331
25C6
102
}
  0
BLOCK_RECORD
  5
24CE
330
1
100
AcDbSymbolTableRecord
100
AcDbBlockTableRecord
  2
ABR70-Top
340
0
102
{BLKREFS
331
25C7
102
}
  0
BLOCK_RECORD
  5
2503
330
1
100
AcDbSymbolTableRecord
100
AcDbBlockTableRecord
  2
ABR70-Bottom
340
0
102
{BLKREFS
331
25C8
102
}
  0
BLOCK_RECORD
  5
2549
330
1
100
AcDbSymbolTableRecord
100
AcDbBlockTableRecord
  2
ABR70-ISO
340
0
102
{BLKREFS
331
25C9
102
}
  0
ENDTAB
  0
ENDSEC
  0
SECTION
  2
BLOCKS
  0
BLOCK
  5
20
330
1F
100
AcDbEntity
  8
0
100
AcDbBlockBegin
  2
*Model_Space
 70
     0
 10
0.0
 20
0.0
 30
0.0
  3
*Model_Space
  1

  0
ENDBLK
  5
21
330
1F
100
AcDbEntity
  8
0
100
AcDbBlockEnd
  0
BLOCK
  5
D4
330
D2
100
AcDbEntity
 67
     1
  8
0
100
AcDbBlockBegin
  2
*Paper_Space
 70
     0
 10
0.0
 20
0.0
 30
0.0
  3
*Paper_Space
  1

  0
ENDBLK
  5
D5
330
D2
100
AcDbEntity
 67
     1
  8
0
100
AcDbBlockEnd
  0
BLOCK
  5
D8
330
D6
100
AcDbEntity
 67
     1
  8
0
100
AcDbBlockBegin
  2
*Paper_Space0
 70
     0
 10
0.0
 20
0.0
 30
0.0
  3
*Paper_Space0
  1

  0
ENDBLK
  5
D9
330
D6
100
AcDbEntity
 67
     1
  8
0
100
AcDbBlockEnd
  0
BLOCK
  5
244F
330
244E
100
AcDbEntity
  8
0
100
AcDbBlockBegin
  2
ABR70-Front
 70
     0
 10
0.0
 20
0.0
 30
0.0
  3
ABR70-Front
  1

  0
LINE
  5
2451
330
244E
100
AcDbEntity
  8
0
100
AcDbLine
 10
7.060579595672749
 20
35.35806993848005
 30
0.0
 11
6.311181557334907
 21
35.35806993848005
 31
0.0
  0
ARC
  5
2452
330
244E
100
AcDbEntity
  8
0
100
AcDbCircle
 10
-0.0000000000000095
 20
34.92622639062766
 30
0.0
 40
7.07377360937232
100
AcDbArc
 50
3.499999999999946
 51
89.99999999999937
  0
ARC
  5
2453
330
244E
100
AcDbEntity
  8
0
100
AcDbCircle
 10
-0.0000000000000095
 20
34.92622639062766
 30
0.0
 40
7.07377360937232
100
AcDbArc
 50
89.99999999999936
 51
176.5
  0
LINE
  5
2454
330
244E
100
AcDbEntity
  8
0
100
AcDbLine
 10
-6.311181557334945
 20
35.35806993848005
 30
0.0
 11
-7.06057959567277
 21
35.35806993848005
 31
0.0
  0
LINE
  5
2455
330
244E
100
AcDbEntity
  8
0
100
AcDbLine
 10
-6.311181557334947
 20
35.35806993848005
 30
0.0
 11
-5.298496595528414
 21
35.35806993848005
 31
0.0
  0
LINE
  5
2456
330
244E
100
AcDbEntity
  8
0
100
AcDbLine
 10
-5.298496595528416
 20
35.35806993848005
 30
0.0
 11
0.0
 21
35.35806993848005
 31
0.0
  0
LINE
  5
2457
330
244E
100
AcDbEntity
  8
0
100
AcDbLine
 10
0.0
 20
35.35806993848005
 30
0.0
 11
5.29849659552839
 21
35.35806993848005
 31
0.0
  0
LINE
  5
2458
330
244E
100
AcDbEntity
  8
0
100
AcDbLine
 10
5.298496595528387
 20
35.35806993848005
 30
0.0
 11
6.311181557334921
 21
35.35806993848005
 31
0.0
  0
ARC
  5
2459
330
244E
100
AcDbEntity
  8
0
100
AcDbCircle
 10
-0.0000000000000021
 20
-13.47053334296902
 30
0.0
 40
16.84333620977513
100
AcDbArc
 50
73.6651489168284
 51
89.99999999999998
  0
ARC
  5
245A
330
244E
100
AcDbEntity
  8
0
100
AcDbCircle
 10
-0.0000000000000021
 20
-13.47053334296902
 30
0.0
 40
16.84333620977513
100
AcDbArc
 50
90.00000000000003
 51
106.3348510831717
  0
SPLINE
  5
245B
330
244E
100
AcDbEntity
  8
0
100
AcDbSpline
210
0.0
220
0.0
230
1.0
 70
     8
 71
     3
 72
    32
 73
    28
 74
     0
 42
0.000000001
 43
0.0000000001
 40
0.0
 40
0.0
 40
0.0
 40
0.0
 40
0.041606331312248
 40
0.041606331312248
 40
0.2826642956665687
 40
0.2826642956665687
 40
0.5235687030518501
 40
0.5235687030518501
 40
0.7426848158804729
 40
0.7426848158804729
 40
0.9417337928522499
 40
0.9417337928522499
 40
1.102995130482221
 40
1.102995130482221
 40
1.156335396392111
 40
1.156335396392111
 40
1.272222185811036
 40
1.272222185811036
 40
1.517583093089505
 40
1.517583093089505
 40
1.752563723972358
 40
1.752563723972358
 40
1.834790181710904
 40
1.834790181710904
 40
2.052126349231309
 40
2.052126349231309
 40
2.101581365659888
 40
2.101581365659888
 40
2.101581365659888
 40
2.101581365659888
 10
7.060579595672757
 20
-0.0000000000000018
 30
0.0
 10
7.033358415384557
 20
-0.0023014787353036
 30
0.0
 10
7.002192193818941
 20
-0.0040936864002404
 30
0.0
 10
6.764192319833349
 20
-0.0127787187100724
 30
0.0
 10
6.547325439142688
 20
-0.0073489718136575
 30
0.0
 10
5.814966554298739
 20
-0.0049968372420466
 30
0.0
 10
5.321601608051309
 20
-0.0037366666749354
 30
0.0
 10
4.222848921593913
 20
-0.0017120687309047
 30
0.0
 10
3.618575098057703
 20
-0.0009574928764003
 30
0.0
 10
2.378660631326704
 20
-0.0001616620236983
 30
0.0
 10
1.738231109284588
 20
-0.0000435240103974
 30
0.0
 10
0.556146307427373
 20
0.0000113315492253
 30
0.0
 10
0.0098185665675736
 20
0.0000023948866589
 30
0.0
 10
-0.7028030638432236
 20
-0.0000018625018528
 30
0.0
 10
-0.8794101160117923
 20
-0.0000043434113715
 30
0.0
 10
-1.435084192421226
 20
-0.0000281658678822
 30
0.0
 10
-1.810843760972724
 20
-0.000069355439412
 30
0.0
 10
-2.942074499462265
 20
-0.000404189102217
 30
0.0
 10
-3.668717577470669
 20
-0.0009859336463411
 30
0.0
 10
-4.901474859622043
 20
-0.0028324939118958
 30
0.0
 10
-5.432479165264155
 20
-0.0040517382154373
 30
0.0
 10
-5.998956927588439
 20
-0.0056075489460805
 30
0.0
 10
-6.133240910778528
 20
-0.0060016462740224
 30
0.0
 10
-6.567510205662053
 20
-0.0074845648477536
 30
0.0
 10
-6.76122658177228
 20
-0.0116494342548571
 30
0.0
 10
-6.989464732965608
 20
-0.0047603542842134
 30
0.0
 10
-7.02730318293642
 20
-0.0027462608286642
 30
0.0
 10
-7.060579595672765
 20
-0.0000000000000094
 30
0.0
  0
SPLINE
  5
245C
330
244E
100
AcDbEntity
  8
0
100
AcDbSpline
210
0.0
220
0.0
230
1.0
 70
     8
 71
     3
 72
    42
 73
    38
 74
     0
 42
0.000000001
 43
0.0000000001
 40
0.0
 40
0.0
 40
0.0
 40
0.0
 40
0.0051567420185627
 40
0.0051567420185627
 40
0.0101994292672844
 40
0.0101994292672844
 40
0.0197975187587514
 40
0.0197975187587514
 40
0.0381790988584221
 40
0.0381790988584221
 40
0.0606327819412473
 40
0.0606327819412473
 40
0.0643694472637434
 40
0.0643694472637434
 40
0.0681061125862395
 40
0.0681061125862395
 40
0.0681199287500397
 40
0.0681199287500397
 40
0.0681454532617568
 40
0.0681454532617568
 40
0.0681924211048933
 40
0.0681924211048933
 40
0.0683869944777844
 40
0.0683869944777844
 40
0.068776141634973
 40
0.068776141634973
 40
0.0695544390394582
 40
0.0695544390394582
 40
0.0714025934901107
 40
0.0714025934901107
 40
0.0812629359116256
 40
0.0812629359116256
 40
0.0944072433374672
 40
0.0944072433374672
 40
0.1296020291947382
 40
0.1296020291947382
 40
0.2544658789322153
 40
0.2544658789322153
 40
0.2544658789322153
 40
0.2544658789322153
 10
-7.060579595672762
 20
1.99999999999999
 30
0.0
 10
-7.043390456547346
 20
1.999994962099649
 30
0.0
 10
-7.026149459392828
 20
2.000224782116895
 30
0.0
 10
-6.992560309872231
 20
2.001135674768494
 30
0.0
 10
-6.976114871040289
 20
2.00181322949324
 30
0.0
 10
-6.929472509661987
 20
2.004396179160672
 30
0.0
 10
-6.900041081938299
 20
2.00687052717991
 30
0.0
 10
-6.818202216802738
 20
2.015890318017041
 30
0.0
 10
-6.768347234424237
 20
2.024079150541165
 30
0.0
 10
-6.658607569614147
 20
2.047207555298055
 30
0.0
 10
-6.598576249501464
 20
2.063418024500957
 30
0.0
 10
-6.527599669120469
 20
2.086901516012505
 30
0.0
 10
-6.514829557705478
 20
2.091263966273454
 30
0.0
 10
-6.493537675906098
 20
2.098787480118172
 30
0.0
 10
-6.487988236832704
 20
2.10079473817754
 30
0.0
 10
-6.476682527286635
 20
2.104998352659939
 30
0.0
 10
-6.476640878272701
 20
2.105013838589066
 30
0.0
 10
-6.476522283510743
 20
2.105057935231977
 30
0.0
 10
-6.476445336270606
 20
2.105086547143862
 30
0.0
 10
-6.47622679186384
 20
2.105167812847325
 30
0.0
 10
-6.476085189668587
 20
2.10522047067366
 30
0.0
 10
-6.475356936457183
 20
2.105491303034527
 30
0.0
 10
-6.474770170332673
 20
2.105709569770731
 30
0.0
 10
-6.473009510230647
 20
2.10636465853873
 30
0.0
 10
-6.471835253138923
 20
2.106801769634713
 30
0.0
 10
-6.468311071086856
 20
2.1081142175887
 30
0.0
 10
-6.465959724597473
 20
2.108990672946262
 30
0.0
 10
-6.458018888913103
 20
2.111953010427191
 30
0.0
 10
-6.452420990253999
 20
2.114045349920834
 30
0.0
 10
-6.41690223272389
 20
2.127341511958555
 30
0.0
 10
-6.386732982762319
 20
2.138721267106042
 30
0.0
 10
-6.316101361653318
 20
2.165354446400787
 30
0.0
 10
-6.275521496770975
 20
2.180648962194465
 30
0.0
 10
-6.125962349789584
 20
2.236625913499401
 30
0.0
 10
-6.016390044654697
 20
2.276815271742045
 30
0.0
 10
-5.51724134869884
 20
2.454436401281234
 30
0.0
 10
-5.12427705705298
 20
2.579465436543598
 30
0.0
 10
-4.737196293281867
 20
2.692911399858499
 30
0.0
  0
SPLINE
  5
245D
330
244E
100
AcDbEntity
  8
0
100
AcDbSpline
210
0.0
220
0.0
230
1.0
 70
     8
 71
     3
 72
    34
 73
    30
 74
     0
 42
0.000000001
 43
0.0000000001
 40
0.0
 40
0.0
 40
0.0
 40
0.0
 40
0.1332426101893475
 40
0.1332426101893475
 40
0.1693201240203384
 40
0.1693201240203384
 40
0.1828553797942109
 40
0.1828553797942109
 40
0.1853919702833329
 40
0.1853919702833329
 40
0.186222225156243
 40
0.186222225156243
 40
0.1862823310218087
 40
0.1862823310218087
 40
0.1863150031547575
 40
0.1863150031547575
 40
0.1863326777153837
 40
0.1863326777153837
 40
0.1943051262087923
 40
0.1943051262087923
 40
0.218261685574336
 40
0.218261685574336
 40
0.2356645642036459
 40
0.2356645642036459
 40
0.2447831417534112
 40
0.2447831417534112
 40
0.2495631561675893
 40
0.2495631561675893
 40
0.2544411619966969
 40
0.2544411619966969
 40
0.2544411619966969
 40
0.2544411619966969
 10
4.737196293281854
 20
2.692911399858501
 30
0.0
 10
5.150251404327892
 20
2.571852852494289
 30
0.0
 10
5.57013047428539
 20
2.437445160747448
 30
0.0
 10
6.097533523873942
 20
2.247201679694557
 30
0.0
 10
6.209741652116971
 20
2.205424901777869
 30
0.0
 10
6.362510592480346
 20
2.147863285053227
 30
0.0
 10
6.404054458250998
 20
2.132155704941137
 30
0.0
 10
6.45282508895423
 20
2.113893305596243
 30
0.0
 10
6.460506544171059
 20
2.111022792049438
 30
0.0
 10
6.470675772971969
 20
2.107233282100103
 30
0.0
 10
6.473181399818508
 20
2.106300439262487
 30
0.0
 10
6.475866025205946
 20
2.105301975071126
 30
0.0
 10
6.476047245454036
 20
2.105234580739331
 30
0.0
 10
6.476326954743245
 20
2.105130566889052
 30
0.0
 10
6.476425452011089
 20
2.105093940772743
 30
0.0
 10
6.47657722777017
 20
2.105037505394751
 30
0.0
 10
6.476630508706271
 20
2.105017694170411
 30
0.0
 10
6.500716716894455
 20
2.096062019036455
 30
0.0
 10
6.52016274829532
 20
2.089309377477242
 30
0.0
 10
6.606653193984795
 20
2.06092588985286
 30
0.0
 10
6.670530530044331
 20
2.04409097099866
 30
0.0
 10
6.782009854016973
 20
2.021787243296729
 30
0.0
 10
6.829638967212918
 20
2.014358647988111
 30
0.0
 10
6.907890634586157
 20
2.006187312801812
 30
0.0
 10
6.936072567371659
 20
2.003948683745834
 30
0.0
 10
6.980543226666549
 20
2.001623220803728
 30
0.0
 10
6.996168814016549
 20
2.001015874838481
 30
0.0
 10
7.028015486262299
 20
2.000200833664629
 30
0.0
 10
7.044319577231489
 20
1.999995565821782
 30
0.0
 10
7.060579595672757
 20
1.999999999999966
 30
0.0
  0
ELLIPSE
  5
245E
330
244E
100
AcDbEntity
  8
0
100
AcDbEllipse
 10
-0.0000000000000096
 20
14.11564424059544
 30
0.0
 11
5.799999999999999
 21
-0.0000000000000038
 31
0.0
210
0.0
220
0.0
230
1.0
 40
0.2024091302778046
 41
0.5105404167415433
 42
1.570796326794889
  0
ELLIPSE
  5
245F
330
244E
100
AcDbEntity
  8
0
100
AcDbEllipse
 10
-0.0000000000000096
 20
14.11564424059544
 30
0.0
 11
5.799999999999998
 21
-0.0000000000001218
 31
0.0
210
0.0
220
0.0
230
1.0
 40
0.2024091302778046
 41
1.57079632679672
 42
2.631052236852058
  0
LINE
  5
2460
330
244E
100
AcDbEntity
  8
0
100
AcDbLine
 10
-5.661949061536482
 20
14.4718998765928
 30
0.0
 11
-5.060387254141862
 21
14.68930474161266
 31
0.0
  0
SPLINE
  5
2461
330
244E
100
AcDbEntity
  8
0
100
AcDbSpline
210
0.0
220
0.0
230
1.0
 70
     8
 71
     3
 72
    12
 73
     8
 74
     0
 42
0.000000001
 43
0.0000000001
 40
0.0
 40
0.0
 40
0.0
 40
0.0
 40
0.1232182299558693
 40
0.1232182299558693
 40
0.2264867741881304
 40
0.2264867741881304
 40
0.329363208254894
 40
0.329363208254894
 40
0.329363208254894
 40
0.329363208254894
 10
-5.661949061536482
 20
14.4718998765928
 30
0.0
 10
-5.862650537645399
 20
14.39936622038926
 30
0.0
 10
-6.131721705487965
 20
14.33539071858263
 30
0.0
 10
-6.72351281683831
 20
14.24054108302169
 30
0.0
 10
-7.026891185009045
 20
14.20656455547891
 30
0.0
 10
-7.67492254525184
 20
14.16045972654183
 30
0.0
 10
-8.015111798667049
 20
14.14855880091215
 30
0.0
 10
-8.357808868957363
 20
14.14855880091215
 30
0.0
  0
SPLINE
  5
2462
330
244E
100
AcDbEntity
  8
0
100
AcDbSpline
210
0.0
220
0.0
230
1.0
 70
     8
 71
     3
 72
    12
 73
     8
 74
     0
 42
0.000000001
 43
0.0000000001
 40
0.0
 40
0.0
 40
0.0
 40
0.0
 40
0.1173410086684419
 40
0.1173410086684419
 40
0.2232347004282379
 40
0.2232347004282379
 40
0.3291246614663504
 40
0.3291246614663504
 40
0.3291246614663504
 40
0.3291246614663504
 10
8.357808868957341
 20
14.14855880091215
 30
0.0
 10
7.966672173395869
 20
14.14855880091215
 30
0.0
 10
7.579252811326781
 20
14.164059204479
 30
0.0
 10
6.889279097116958
 20
14.22062959053806
 30
0.0
 10
6.586944486127426
 20
14.25865908279552
 30
0.0
 10
6.057897718905516
 20
14.35340766835488
 30
0.0
 10
5.834551060401922
 20
14.40952139144923
 30
0.0
 10
5.661949061536462
 20
14.47189987659279
 30
0.0
  0
LINE
  5
2463
330
244E
100
AcDbEntity
  8
0
100
AcDbLine
 10
5.060387254141844
 20
14.68930474161266
 30
0.0
 11
5.661949061536462
 21
14.4718998765928
 31
0.0
  0
ELLIPSE
  5
2464
330
244E
100
AcDbEntity
  8
0
100
AcDbEllipse
 10
-0.0000000000000068
 20
1.840751929562968
 30
0.0
 11
5.799999999999999
 21
-0.0000000000000172
 31
0.0
210
0.0
220
0.0
230
1.0
 40
0.9793010486975816
 41
0.5105404167414882
 42
1.570796326794896
  0
ELLIPSE
  5
2465
330
244E
100
AcDbEntity
  8
0
100
AcDbEllipse
 10
-0.0000000000000068
 20
1.840751929562968
 30
0.0
 11
5.799999999999999
 21
-0.0000000000005723
 31
0.0
210
0.0
220
0.0
230
1.0
 40
0.9793010486975816
 41
1.57079632679499
 42
2.631052236848413
  0
LINE
  5
2466
330
244E
100
AcDbEntity
  8
0
100
AcDbLine
 10
-5.661949061536478
 20
3.564397090518923
 30
0.0
 11
-5.060387254141859
 21
4.616250887893039
 31
0.0
  0
SPLINE
  5
2467
330
244E
100
AcDbEntity
  8
0
100
AcDbSpline
210
0.0
220
0.0
230
1.0
 70
     8
 71
     3
 72
    12
 73
     8
 74
     0
 42
0.000000001
 43
0.0000000001
 40
0.0
 40
0.0
 40
0.0
 40
0.0
 40
0.1173410086685641
 40
0.1173410086685641
 40
0.2232347004284267
 40
0.2232347004284267
 40
0.3291246614663436
 40
0.3291246614663436
 40
0.3291246614663436
 40
0.3291246614663436
 10
-8.357808868957356
 20
1.999999999999993
 30
0.0
 10
-7.966672173395476
 20
1.999999999999993
 30
0.0
 10
-7.579252811325991
 20
2.074994450001171
 30
0.0
 10
-6.889279097115692
 20
2.348694743643679
 30
0.0
 10
-6.586944486126055
 20
2.532690009260745
 30
0.0
 10
-6.057897718904728
 20
2.991105047522899
 30
0.0
 10
-5.834551060401626
 20
3.26259590282887
 30
0.0
 10
-5.661949061536477
 20
3.564397090518922
 30
0.0
  0
SPLINE
  5
2468
330
244E
100
AcDbEntity
  8
0
100
AcDbSpline
210
0.0
220
0.0
230
1.0
 70
     8
 71
     3
 72
    12
 73
     8
 74
     0
 42
0.000000001
 43
0.0000000001
 40
0.0
 40
0.0
 40
0.0
 40
0.0
 40
0.1232182299560861
 40
0.1232182299560861
 40
0.2264867741882525
 40
0.2264867741882525
 40
0.3293632082549001
 40
0.3293632082549001
 40
0.3293632082549001
 40
0.3293632082549001
 10
5.661949061536464
 20
3.56439709051892
 30
0.0
 10
5.862650537645734
 20
3.213462893585036
 30
0.0
 10
6.131721705488887
 20
2.903934979111047
 30
0.0
 10
6.723512816839855
 20
2.445031038138172
 30
0.0
 10
7.026891185010388
 20
2.280644930455546
 30
0.0
 10
7.674922545252588
 20
2.05757936386755
 30
0.0
 10
8.015111798667417
 20
1.999999999999993
 30
0.0
 10
8.357808868957341
 20
1.999999999999993
 30
0.0
  0
LINE
  5
2469
330
244E
100
AcDbEntity
  8
0
100
AcDbLine
 10
5.060387254141847
 20
4.616250887893039
 30
0.0
 11
5.661949061536464
 21
3.564397090518921
 31
0.0
  0
LINE
  5
246A
330
244E
100
AcDbEntity
  8
0
100
AcDbLine
 10
22.5
 20
0.0
 30
0.0
 11
27.5
 21
0.0
 31
0.0
  0
LINE
  5
246B
330
244E
100
AcDbEntity
  8
0
100
AcDbLine
 10
-27.5
 20
0.0
 30
0.0
 11
-22.5
 21
0.0
 31
0.0
  0
LINE
  5
246C
330
244E
100
AcDbEntity
  8
0
100
AcDbLine
 10
-22.5
 20
1.999999999999977
 30
0.0
 11
-27.5
 21
1.999999999999979
 31
0.0
  0
LINE
  5
246D
330
244E
100
AcDbEntity
  8
0
100
AcDbLine
 10
27.5
 20
1.999999999999979
 30
0.0
 11
22.5
 21
1.999999999999977
 31
0.0
  0
LINE
  5
246E
330
244E
100
AcDbEntity
  8
0
100
AcDbLine
 10
22.5
 20
70.0
 30
0.0
 11
27.5
 21
65.0
 31
0.0
  0
LINE
  5
246F
330
244E
100
AcDbEntity
  8
0
100
AcDbLine
 10
-27.50000000000001
 20
65.0
 30
0.0
 11
-22.50000000000001
 21
70.0
 31
0.0
  0
LINE
  5
2470
330
244E
100
AcDbEntity
  8
0
100
AcDbLine
 10
-22.5
 20
0.0
 30
0.0
 11
-22.5
 21
1.999999999999977
 31
0.0
  0
LINE
  5
2471
330
244E
100
AcDbEntity
  8
0
100
AcDbLine
 10
22.5
 20
1.999999999999977
 30
0.0
 11
22.5
 21
0.0
 31
0.0
  0
LINE
  5
2472
330
244E
100
AcDbEntity
  8
0
100
AcDbLine
 10
-22.5
 20
0.0
 30
0.0
 11
22.5
 21
0.0
 31
0.0
  0
LINE
  5
2473
330
244E
100
AcDbEntity
  8
0
100
AcDbLine
 10
-22.5
 20
1.999999999999977
 30
0.0
 11
22.5
 21
1.999999999999977
 31
0.0
  0
LINE
  5
2474
330
244E
100
AcDbEntity
  8
0
100
AcDbLine
 10
-22.50000000000001
 20
70.0
 30
0.0
 11
22.5
 21
70.0
 31
0.0
  0
SPLINE
  5
2475
330
244E
100
AcDbEntity
  8
0
100
AcDbSpline
210
0.0
220
0.0
230
1.0
 70
     8
 71
     3
 72
     8
 73
     4
 74
     0
 42
0.000000001
 43
0.0000000001
 40
-1.0
 40
-1.0
 40
-1.0
 40
-1.0
 40
0.0
 40
0.0
 40
0.0
 40
0.0
 10
-25.80504235018952
 20
6.000000000197806
 30
0.0
 10
-25.73165759463548
 20
3.906180782855109
 30
0.0
 10
-25.73165759463574
 20
1.999999999571402
 30
0.0
 10
-25.80504235019127
 20
1.999999999999995
 30
0.0
  0
LINE
  5
2476
330
244E
100
AcDbEntity
  8
0
100
AcDbLine
 10
25.8050423501895
 20
6.000000000197456
 30
0.0
 11
27.5
 21
65.0
 31
0.0
  0
SPLINE
  5
2477
330
244E
100
AcDbEntity
  8
0
100
AcDbSpline
210
0.0
220
0.0
230
1.0
 70
     8
 71
     3
 72
     8
 73
     4
 74
     0
 42
0.000000001
 43
0.0000000001
 40
-1.0
 40
-1.0
 40
-1.0
 40
-1.0
 40
0.0
 40
0.0
 40
0.0
 40
0.0
 10
25.80504235019119
 20
1.999999999999995
 30
0.0
 10
25.73165759463627
 20
1.999999999571966
 30
0.0
 10
25.73165759463462
 20
3.906180782860103
 30
0.0
 10
25.80504235018946
 20
6.000000000197446
 30
0.0
  0
LINE
  5
2478
330
244E
100
AcDbEntity
  8
0
100
AcDbLine
 10
27.5
 20
0.0
 30
0.0
 11
27.5
 21
1.999999999999979
 31
0.0
  0
LINE
  5
2479
330
244E
100
AcDbEntity
  8
0
100
AcDbLine
 10
-27.50000000000001
 20
65.0
 30
0.0
 11
-25.80504235018953
 21
6.000000000197456
 31
0.0
  0
LINE
  5
247A
330
244E
100
AcDbEntity
  8
0
100
AcDbLine
 10
-27.5
 20
1.999999999999979
 30
0.0
 11
-27.5
 21
0.0
 31
0.0
  0
CIRCLE
  5
247B
330
244E
100
AcDbEntity
  8
0
100
AcDbCircle
 10
14.13815712721211
 20
35.00000000000001
 30
0.0
 40
2.5
  0
CIRCLE
  5
247C
330
244E
100
AcDbEntity
  8
0
100
AcDbCircle
 10
18.56359521202019
 20
15.00000000000001
 30
0.0
 40
2.5
  0
CIRCLE
  5
247D
330
244E
100
AcDbEntity
  8
0
100
AcDbCircle
 10
17.428179760601
 20
62.5
 30
0.0
 40
2.5
  0
CIRCLE
  5
247E
330
244E
100
AcDbEntity
  8
0
100
AcDbCircle
 10
-14.13815712721213
 20
35.00000000000001
 30
0.0
 40
2.5
  0
CIRCLE
  5
247F
330
244E
100
AcDbEntity
  8
0
100
AcDbCircle
 10
-17.42817976060102
 20
62.5
 30
0.0
 40
2.5
  0
CIRCLE
  5
2480
330
244E
100
AcDbEntity
  8
0
100
AcDbCircle
 10
-18.56359521202021
 20
15.00000000000001
 30
0.0
 40
2.5
  0
CIRCLE
  5
2481
330
244E
100
AcDbEntity
  8
0
100
AcDbCircle
 10
-0.0000000000000095
 20
57.5
 30
0.0
 40
4.25
  0
ENDBLK
  5
2450
330
244E
100
AcDbEntity
  8
0
100
AcDbBlockEnd
  0
BLOCK
  5
2483
330
2482
100
AcDbEntity
  8
0
100
AcDbBlockBegin
  2
ABR70-Left
 70
     0
 10
0.0
 20
0.0
 30
0.0
  3
ABR70-Left
  1

  0
LINE
  5
2485
330
2482
100
AcDbEntity
  8
0
100
AcDbLine
 10
2.145706986440526
 20
35.35806993848005
 30
0.0
 11
1.999999999999987
 21
35.35806993848005
 31
0.0
  0
LINE
  5
2486
330
2482
100
AcDbEntity
  8
0
100
AcDbLine
 10
2.14570698644053
 20
35.35806993848005
 30
0.0
 11
2.517709478013396
 21
35.35806993848005
 31
0.0
  0
LINE
  5
2487
330
2482
100
AcDbEntity
  8
0
100
AcDbLine
 10
2.517709478013399
 20
35.35806993848005
 30
0.0
 11
3.372802866806106
 21
35.35806993848005
 31
0.0
  0
LINE
  5
2488
330
2482
100
AcDbEntity
  8
0
100
AcDbLine
 10
35.35806993848006
 20
2.145706986440525
 30
0.0
 11
35.35806993848006
 21
1.999999999999986
 31
0.0
  0
LINE
  5
2489
330
2482
100
AcDbEntity
  8
0
100
AcDbLine
 10
35.35806993848006
 20
2.517709478013399
 30
0.0
 11
35.35806993848006
 21
3.372802866806108
 31
0.0
  0
LINE
  5
248A
330
2482
100
AcDbEntity
  8
0
100
AcDbLine
 10
35.35806993848006
 20
2.145706986440529
 30
0.0
 11
35.35806993848006
 21
2.517709478013399
 31
0.0
  0
SPLINE
  5
248B
330
2482
100
AcDbEntity
  8
0
100
AcDbSpline
210
0.0
220
0.0
230
1.0
 70
     8
 71
     3
 72
    24
 73
    20
 74
     0
 42
0.000000001
 43
0.0000000001
 40
1.051379683579955
 40
1.051379683579955
 40
1.051379683579955
 40
1.051379683579955
 40
1.051386814393331
 40
1.051386814393331
 40
1.05139902142458
 40
1.05139902142458
 40
1.051423435487084
 40
1.051423435487084
 40
1.051521091737236
 40
1.051521091737236
 40
1.052302341815349
 40
1.052302341815349
 40
1.056543210395796
 40
1.056543210395796
 40
1.101792381478672
 40
1.101792381478672
 40
1.230916073291508
 40
1.230916073291508
 40
1.731252785919938
 40
1.731252785919938
 40
1.731252785919938
 40
1.731252785919938
 10
1.999999999702847
 20
41.99999916976522
 30
0.0
 10
1.999999999705154
 20
41.99997540743375
 30
0.0
 10
2.000000000103693
 20
41.99995164156932
 30
0.0
 10
2.000000000647389
 20
41.99988718208725
 30
0.0
 10
2.00000000128102
 20
41.99984649198309
 30
0.0
 10
2.000000004053172
 20
41.99972442167061
 30
0.0
 10
2.000000007062944
 20
41.99964304146231
 30
0.0
 10
2.000000027919938
 20
41.99923614042065
 30
0.0
 10
2.000000063191545
 20
41.99891061958767
 30
0.0
 10
2.000000547883154
 20
41.99598093186687
 30
0.0
 10
2.000002168033919
 20
41.99337676490135
 30
0.0
 10
2.000020218253431
 20
41.97663637910409
 30
0.0
 10
2.000070460824782
 20
41.96250015374509
 30
0.0
 10
2.001062312896363
 20
41.7975363366171
 30
0.0
 10
2.005932340906681
 20
41.64668882784618
 30
0.0
 10
2.038657187688864
 20
41.06636791173621
 30
0.0
 10
2.09259902967524
 20
40.63786522227688
 30
0.0
 10
2.453076959818112
 20
38.57086145856328
 30
0.0
 10
3.035227137308852
 20
36.99133749640979
 30
0.0
 10
3.372802866806106
 20
35.35806993848005
 30
0.0
  0
SPLINE
  5
248C
330
2482
100
AcDbEntity
  8
0
100
AcDbSpline
210
0.0
220
0.0
230
1.0
 70
     8
 71
     3
 72
    26
 73
    22
 74
     0
 42
0.000000001
 43
0.0000000001
 40
0.0
 40
0.0
 40
0.0
 40
0.0
 40
0.0418561781627393
 40
0.0418561781627393
 40
0.2839881612001042
 40
0.2839881612001042
 40
0.5228590181948004
 40
0.5228590181948004
 40
0.7411729252974587
 40
0.7411729252974587
 40
0.948059789209658
 40
0.948059789209658
 40
1.016897641154461
 40
1.016897641154461
 40
1.039813890997189
 40
1.039813890997189
 40
1.047451509932584
 40
1.047451509932584
 40
1.049997340660383
 40
1.049997340660383
 40
1.050771074623129
 40
1.050771074623129
 40
1.050771074623129
 40
1.050771074623129
 10
-0.0000000000000085
 20
35.35806993848005
 30
0.0
 10
-0.0027579646140601
 20
35.48928722312398
 30
0.0
 10
-0.0046986570112974
 20
35.62345521563684
 30
0.0
 10
-0.0121904475846366
 20
36.54476709182326
 30
0.0
 10
-0.0073419014325118
 20
37.34017412006667
 30
0.0
 10
-0.0049917152599963
 20
38.76602689754236
 30
0.0
 10
-0.0037424776605295
 20
39.42149802166014
 30
0.0
 10
-0.001724572546988
 20
40.48655407707501
 30
0.0
 10
-0.0009681850919935
 20
40.9241532698375
 30
0.0
 10
-0.0001509770821681
 20
41.57233354172038
 30
0.0
 10
-0.0000372849327425
 20
41.80007017961018
 30
0.0
 10
-0.0000016739746704
 20
41.95179777247299
 30
0.0
 10
-0.0000005413786327
 20
41.97747204685222
 30
0.0
 10
-0.0000000190650198
 20
41.99460803319052
 30
0.0
 10
-0.0000000071235957
 20
41.99747455286881
 30
0.0
 10
-0.0000000002382507
 20
41.99939284695638
 30
0.0
 10
-0.0000000000932823
 20
41.99971387523917
 30
0.0
 10
-0.0000000000033611
 20
41.99993003354771
 30
0.0
 10
-0.0000000000013185
 20
41.99996641776857
 30
0.0
 10
-0.0000000000000951
 20
41.99999082146425
 30
0.0
 10
0.0000000000000545
 20
41.99999707022526
 30
0.0
 10
0.0000000000000943
 20
41.99999999999998
 30
0.0
  0
SPLINE
  5
248D
330
2482
100
AcDbEntity
  8
0
100
AcDbSpline
210
0.0
220
0.0
230
1.0
 70
     8
 71
     3
 72
    20
 73
    16
 74
     0
 42
0.000000001
 43
0.0000000001
 40
0.0
 40
0.0
 40
0.0
 40
0.0
 40
0.0493576152570036
 40
0.0493576152570036
 40
0.2920172005754884
 40
0.2920172005754884
 40
0.530373756796629
 40
0.530373756796629
 40
0.7482746676455285
 40
0.7482746676455285
 40
0.9509210720549086
 40
0.9509210720549086
 40
0.9969446500968091
 40
0.9969446500968091
 40
1.042968228138709
 40
1.042968228138709
 40
1.042968228138709
 40
1.042968228138709
 10
-0.0000000000000085
 20
35.35806993848005
 30
0.0
 10
-0.0031394996011686
 20
35.51358148023991
 30
0.0
 10
-0.0052609003963667
 20
35.67212812218963
 30
0.0
 10
-0.011684904768837
 20
36.62036622313046
 30
0.0
 10
-0.0072219850942136
 20
37.41472353641328
 30
0.0
 10
-0.0048794317278927
 20
38.83222468890735
 30
0.0
 10
-0.0036260667815244
 20
39.48118232825569
 30
0.0
 10
-0.0016398503407587
 20
40.53304112216352
 30
0.0
 10
-0.0009077112119771
 20
40.9638166846332
 30
0.0
 10
-0.0001366981464157
 20
41.59221537473857
 30
0.0
 10
-0.0000337152994649
 20
41.81011299156644
 30
0.0
 10
-0.0000039879041741
 20
41.94325207292066
 30
0.0
 10
-0.0000007940323801
 20
41.97396682795512
 30
0.0
 10
0.0000002619301376
 20
42.00011439528979
 30
0.0
 10
-0.0000015199565262
 20
42.17288334835168
 30
0.0
 10
-0.0000006323095394
 20
42.06908067914345
 30
0.0
  0
SPLINE
  5
248E
330
2482
100
AcDbEntity
  8
0
100
AcDbSpline
210
0.0
220
0.0
230
1.0
 70
     8
 71
     3
 72
    20
 73
    16
 74
     0
 42
0.000000001
 43
0.0000000001
 40
0.6813159943659707
 40
0.6813159943659707
 40
0.6813159943659707
 40
0.6813159943659707
 40
0.7134782624902302
 40
0.7134782624902302
 40
0.8166874960110551
 40
0.8166874960110551
 40
1.024680931115865
 40
1.024680931115865
 40
1.246914298210129
 40
1.246914298210129
 40
1.488031545038152
 40
1.488031545038152
 40
1.608902566529881
 40
1.608902566529881
 40
1.730944121622483
 40
1.730944121622483
 40
1.730944121622483
 40
1.730944121622483
 10
42.01878358651214
 20
-0.0000000237347631
 30
0.0
 10
42.10009045231496
 20
-0.0000001244151436
 30
0.0
 10
41.99638890867784
 20
0.0000000337827707
 30
0.0
 10
41.97120905217782
 20
-0.0000007277147872
 30
0.0
 10
41.92306052150384
 20
-0.0000022448685484
 30
0.0
 10
41.69747520887748
 20
-0.0000888987919747
 30
0.0
 10
41.43457579086459
 20
-0.0002836676052931
 30
0.0
 10
40.71620219374707
 20
-0.0013027520486664
 30
0.0
 10
40.24041894836087
 20
-0.0021861817246434
 30
0.0
 10
39.10473801563917
 20
-0.0043533887337775
 30
0.0
 10
38.41756442540763
 20
-0.0055195430096163
 30
0.0
 10
37.31341887550418
 20
-0.0074204100392191
 30
0.0
 10
36.92803469649569
 20
-0.0083978552519607
 30
0.0
 10
36.14611382550885
 20
-0.0082525507793197
 30
0.0
 10
35.75244415315864
 20
-0.0054770826230654
 30
0.0
 10
35.35806993848006
 20
-0.0000000000000094
 30
0.0
  0
SPLINE
  5
248F
330
2482
100
AcDbEntity
  8
0
100
AcDbSpline
210
0.0
220
0.0
230
1.0
 70
     8
 71
     3
 72
    34
 73
    30
 74
     0
 42
0.000000001
 43
0.0000000001
 40
0.0
 40
0.0
 40
0.0
 40
0.0
 40
0.0000480447954308
 40
0.0000480447954308
 40
0.0000880447954932
 40
0.0000880447954932
 40
0.0002080447965178
 40
0.0002080447965178
 40
0.0005680448202368
 40
0.0005680448202368
 40
0.001648045327473
 40
0.001648045327473
 40
0.0048880562418898
 40
0.0048880562418898
 40
0.0146083499724718
 40
0.0146083499724718
 40
0.0437762002552271
 40
0.0437762002552271
 40
0.1314612633060878
 40
0.1314612633060878
 40
0.3398708541681232
 40
0.3398708541681232
 40
0.5614231708033014
 40
0.5614231708033014
 40
0.8022136661593448
 40
0.8022136661593448
 40
0.9263248778515858
 40
0.9263248778515858
 40
1.051805644553119
 40
1.051805644553119
 40
1.051805644553119
 40
1.051805644553119
 10
41.99999999999997
 20
-0.0000000000000053
 30
0.0
 10
41.99991067390502
 20
-0.0000000000000053
 30
0.0
 10
42.00000222533913
 20
-0.0000000000000044
 30
0.0
 10
42.00000220069762
 20
-0.0000000000000044
 30
0.0
 10
42.00000217621462
 20
-0.0000000000000023
 30
0.0
 10
42.00000209415309
 20
-0.0000000000000024
 30
0.0
 10
42.00000195716261
 20
0.000000000000011
 30
0.0
 10
42.0000013754544
 20
0.0000000000000101
 30
0.0
 10
42.00000036456345
 20
0.0000000000000899
 30
0.0
 10
41.99999560001042
 20
0.0000000000000384
 30
0.0
 10
41.9999874879335
 20
-0.000000000000111
 30
0.0
 10
41.99994866474169
 20
-0.0000000000030178
 30
0.0
 10
41.9998909319608
 20
-0.0000000000075727
 30
0.0
 10
41.99954564885388
 20
-0.000000000233436
 30
0.0
 10
41.99902936487476
 20
-0.0000000005961419
 30
0.0
 10
41.99593796554222
 20
-0.0000000182861241
 30
0.0
 10
41.99130801317945
 20
-0.0000000499138145
 30
0.0
 10
41.96362924831827
 20
-0.000001384762133
 30
0.0
 10
41.92209990677787
 20
-0.0000045097656672
 30
0.0
 10
41.71654894518669
 20
-0.0000776807170549
 30
0.0
 10
41.45872417215186
 20
-0.0002580457550332
 30
0.0
 10
40.75063206138742
 20
-0.0012454301107627
 30
0.0
 10
40.28108456550799
 20
-0.002108591006075
 30
0.0
 10
39.15673081069279
 20
-0.0042541540026187
 30
0.0
 10
38.47447304120247
 20
-0.0054426164291002
 30
0.0
 10
37.3663388345388
 20
-0.0073197975218162
 30
0.0
 10
36.97132210745083
 20
-0.0083413825958243
 30
0.0
 10
36.1685891606718
 20
-0.0083167321962865
 30
0.0
 10
35.76383050794515
 20
-0.0055399275110156
 30
0.0
 10
35.35806993848006
 20
-0.0000000000000094
 30
0.0
  0
SPLINE
  5
2490
330
2482
100
AcDbEntity
  8
0
100
AcDbSpline
210
0.0
220
0.0
230
1.0
 70
     8
 71
     3
 72
    22
 73
    18
 74
     0
 42
0.000000001
 43
0.0000000001
 40
0.0
 40
0.0
 40
0.0
 40
0.0
 40
0.5320930251469349
 40
0.5320930251469349
 40
0.6535067426351433
 40
0.6535067426351433
 40
0.6744734977127469
 40
0.6744734977127469
 40
0.6784045088186346
 40
0.6784045088186346
 40
0.6792354907070055
 40
0.6792354907070055
 40
0.6796509816160156
 40
0.6796509816160156
 40
0.6797548543405127
 40
0.6797548543405127
 40
0.6797678384310525
 40
0.6797678384310525
 40
0.6797678384310525
 40
0.6797678384310525
 10
35.35806993848006
 20
3.372802866806108
 30
0.0
 10
37.09500079691693
 20
3.013801245316519
 30
0.0
 10
38.77409877270191
 20
2.377190965787434
 30
0.0
 10
40.92863335265781
 20
2.055920404676735
 30
0.0
 10
41.33281091954734
 20
2.016125943018485
 30
0.0
 10
41.80719853149085
 20
2.001876422491808
 30
0.0
 10
41.87708591943233
 20
2.00059539447952
 30
0.0
 10
41.96007689179561
 20
2.000083030835194
 30
0.0
 10
41.9731802311864
 20
2.000031986587229
 30
0.0
 10
41.98905352079354
 20
2.000006554389571
 30
0.0
 10
41.991823459344
 20
2.000003459199662
 30
0.0
 10
41.99597836783888
 20
2.000000833405535
 30
0.0
 10
41.99736333751231
 20
2.000000294305683
 30
0.0
 10
41.99909454960546
 20
2.000000040925919
 30
0.0
 10
41.99944079202047
 20
2.000000011274715
 30
0.0
 10
41.99983031473712
 20
2.00000000157401
 30
0.0
 10
41.99987359503892
 20
2.000000000824722
 30
0.0
 10
41.99991687534072
 20
2.000000000404009
 30
0.0
  0
LINE
  5
2491
330
2482
100
AcDbEntity
  8
0
100
AcDbLine
 10
7.52069801200895
 20
15.28961719620671
 30
0.0
 11
4.61625088789305
 21
14.68930474161266
 31
0.0
  0
LINE
  5
2492
330
2482
100
AcDbEntity
  8
0
100
AcDbLine
 10
3.56439709051893
 20
14.4718998765928
 30
0.0
 11
4.616250887893048
 21
14.68930474161266
 31
0.0
  0
LINE
  5
2493
330
2482
100
AcDbEntity
  8
0
100
AcDbLine
 10
3.56439709051893
 20
14.4718998765928
 30
0.0
 11
2.0
 21
14.14855880091215
 31
0.0
  0
LINE
  5
2494
330
2482
100
AcDbEntity
  8
0
100
AcDbLine
 10
15.28961719620673
 20
7.520698012008941
 30
0.0
 11
14.68930474161268
 21
4.61625088789304
 31
0.0
  0
LINE
  5
2495
330
2482
100
AcDbEntity
  8
0
100
AcDbLine
 10
14.47189987659283
 20
3.564397090518923
 30
0.0
 11
14.68930474161268
 21
4.616250887893039
 31
0.0
  0
LINE
  5
2496
330
2482
100
AcDbEntity
  8
0
100
AcDbLine
 10
14.14855880091218
 20
1.999999999999993
 30
0.0
 11
14.47189987659283
 21
3.564397090518923
 31
0.0
  0
LINE
  5
2497
330
2482
100
AcDbEntity
  8
0
100
AcDbLine
 10
3.372802866806107
 20
35.35806993848004
 30
0.0
 11
7.520698012008947
 21
15.28961719620672
 31
0.0
  0
LINE
  5
2498
330
2482
100
AcDbEntity
  8
0
100
AcDbLine
 10
15.28961719620673
 20
7.520698012008941
 30
0.0
 11
35.35806993848006
 21
3.372802866806108
 31
0.0
  0
LINE
  5
2499
330
2482
100
AcDbEntity
  8
0
100
AcDbLine
 10
0.0
 20
6.00000000029619
 30
0.0
 11
0.0
 21
65.0
 31
0.0
  0
SPLINE
  5
249A
330
2482
100
AcDbEntity
  8
0
100
AcDbSpline
210
0.0
220
0.0
230
1.0
 70
     8
 71
     3
 72
     8
 73
     4
 74
     0
 42
0.000000001
 43
0.0000000001
 40
0.0
 40
0.0
 40
0.0
 40
0.0
 40
1.0
 40
1.0
 40
1.0
 40
1.0
 10
6.000000001228173
 20
-0.000000000000005
 30
0.0
 10
2.859271175214357
 20
-0.0000000006428951
 30
0.0
 10
-0.0000000001553125
 20
2.859271174282666
 30
0.0
 10
0.000000000000005
 20
6.000000000296711
 30
0.0
  0
LINE
  5
249B
330
2482
100
AcDbEntity
  8
0
100
AcDbLine
 10
65.00000000000001
 20
0.0
 30
0.0
 11
6.000000000998921
 21
0.0
 31
0.0
  0
LINE
  5
249C
330
2482
100
AcDbEntity
  8
0
100
AcDbLine
 10
6.000000000998914
 20
1.999999999999995
 30
0.0
 11
65.00000000000001
 21
1.999999999999979
 31
0.0
  0
SPLINE
  5
249D
330
2482
100
AcDbEntity
  8
0
100
AcDbSpline
210
0.0
220
0.0
230
1.0
 70
     8
 71
     3
 72
     8
 73
     4
 74
     0
 42
0.000000001
 43
0.0000000001
 40
-1.0
 40
-1.0
 40
-1.0
 40
-1.0
 40
0.0
 40
0.0
 40
0.0
 40
0.0
 10
2.000000000000005
 20
6.000000000197806
 30
0.0
 10
1.999999999896459
 20
3.906180782855109
 30
0.0
 10
3.90618078347624
 20
1.999999999571402
 30
0.0
 10
6.000000000818783
 20
1.999999999999995
 30
0.0
  0
LINE
  5
249E
330
2482
100
AcDbEntity
  8
0
100
AcDbLine
 10
2.000000000000005
 20
65.0
 30
0.0
 11
2.000000000000005
 21
6.000000000197456
 31
0.0
  0
LINE
  5
249F
330
2482
100
AcDbEntity
  8
0
100
AcDbLine
 10
0.0
 20
65.0
 30
0.0
 11
2.000000000000005
 21
65.0
 31
0.0
  0
LINE
  5
24A0
330
2482
100
AcDbEntity
  8
0
100
AcDbLine
 10
65.00000000000001
 20
1.999999999999979
 30
0.0
 11
65.00000000000001
 21
0.0
 31
0.0
  0
LINE
  5
24A1
330
2482
100
AcDbEntity
  8
0
100
AcDbLine
 10
0.0
 20
70.0
 30
0.0
 11
0.0
 21
65.0
 31
0.0
  0
LINE
  5
24A2
330
2482
100
AcDbEntity
  8
0
100
AcDbLine
 10
65.00000000000001
 20
0.0
 30
0.0
 11
70.00000000000001
 21
0.0
 31
0.0
  0
LINE
  5
24A3
330
2482
100
AcDbEntity
  8
0
100
AcDbLine
 10
70.00000000000001
 20
1.999999999999977
 30
0.0
 11
65.00000000000001
 21
1.999999999999979
 31
0.0
  0
LINE
  5
24A4
330
2482
100
AcDbEntity
  8
0
100
AcDbLine
 10
2.000000000000005
 20
65.0
 30
0.0
 11
2.000000000000004
 21
70.0
 31
0.0
  0
LINE
  5
24A5
330
2482
100
AcDbEntity
  8
0
100
AcDbLine
 10
70.00000000000001
 20
0.0
 30
0.0
 11
70.00000000000001
 21
1.999999999999977
 31
0.0
  0
LINE
  5
24A6
330
2482
100
AcDbEntity
  8
0
100
AcDbLine
 10
2.000000000000004
 20
70.0
 30
0.0
 11
0.0
 21
70.0
 31
0.0
  0
ARC
  5
24A7
330
2482
100
AcDbEntity
  8
0
100
AcDbCircle
 10
17.31370849898476
 20
17.31370849898475
 30
0.0
 40
10.0
100
AcDbArc
 50
191.6778738843575
 51
258.3221261156425
  0
ENDBLK
  5
2484
330
2482
100
AcDbEntity
  8
0
100
AcDbBlockEnd
  0
BLOCK
  5
24A9
330
24A8
100
AcDbEntity
  8
0
100
AcDbBlockBegin
  2
ABR70-Right
 70
     0
 10
0.0
 20
0.0
 30
0.0
  3
ABR70-Right
  1

  0
LINE
  5
24AB
330
24A8
100
AcDbEntity
  8
0
100
AcDbLine
 10
-1.999999999999941
 20
35.35806993848005
 30
0.0
 11
-2.145706986440485
 21
35.35806993848005
 31
0.0
  0
LINE
  5
24AC
330
24A8
100
AcDbEntity
  8
0
100
AcDbLine
 10
-3.372802866806108
 20
35.35806993848005
 30
0.0
 11
-2.517709478013399
 21
35.35806993848005
 31
0.0
  0
LINE
  5
24AD
330
24A8
100
AcDbEntity
  8
0
100
AcDbLine
 10
-2.517709478013397
 20
35.35806993848005
 30
0.0
 11
-2.145706986440529
 21
35.35806993848005
 31
0.0
  0
LINE
  5
24AE
330
24A8
100
AcDbEntity
  8
0
100
AcDbLine
 10
-35.35806993848006
 20
1.999999999999944
 30
0.0
 11
-35.35806993848006
 21
2.145706986440487
 31
0.0
  0
LINE
  5
24AF
330
24A8
100
AcDbEntity
  8
0
100
AcDbLine
 10
-35.35806993848006
 20
2.517709478013402
 30
0.0
 11
-35.35806993848006
 21
2.145706986440534
 31
0.0
  0
LINE
  5
24B0
330
24A8
100
AcDbEntity
  8
0
100
AcDbLine
 10
-35.35806993848006
 20
3.37280286680611
 30
0.0
 11
-35.35806993848006
 21
2.517709478013403
 31
0.0
  0
SPLINE
  5
24B1
330
24A8
100
AcDbEntity
  8
0
100
AcDbSpline
210
0.0
220
0.0
230
1.0
 70
     8
 71
     3
 72
    22
 73
    18
 74
     0
 42
0.000000001
 43
0.0000000001
 40
0.0
 40
0.0
 40
0.0
 40
0.0
 40
0.5320930251468623
 40
0.5320930251468623
 40
0.6535067426350866
 40
0.6535067426350866
 40
0.6744734977126948
 40
0.6744734977126948
 40
0.6784045088185842
 40
0.6784045088185842
 40
0.6792354907069532
 40
0.6792354907069532
 40
0.6796509816159634
 40
0.6796509816159634
 40
0.6797548543404605
 40
0.6797548543404605
 40
0.6797678384309994
 40
0.6797678384309994
 40
0.6797678384309994
 40
0.6797678384309994
 10
-3.372802866806105
 20
35.35806993848005
 30
0.0
 10
-3.013801245316565
 20
37.09500079691669
 30
0.0
 10
-2.37719096578761
 20
38.77409877270144
 30
0.0
 10
-2.05592040467681
 20
40.92863335265713
 30
0.0
 10
-2.016125943018525
 20
41.3328109195467
 30
0.0
 10
-2.001876422491818
 20
41.80719853149029
 30
0.0
 10
-2.000595394479525
 20
41.87708591943177
 30
0.0
 10
-2.000083030835194
 20
41.96007689179508
 30
0.0
 10
-2.000031986587229
 20
41.9731802311859
 30
0.0
 10
-2.00000655438957
 20
41.98905352079302
 30
0.0
 10
-2.000003459199659
 20
41.99182345934347
 30
0.0
 10
-2.000000833405532
 20
41.99597836783834
 30
0.0
 10
-2.000000294305682
 20
41.99736333751177
 30
0.0
 10
-2.000000040925917
 20
41.99909454960493
 30
0.0
 10
-2.000000011274714
 20
41.99944079201992
 30
0.0
 10
-2.000000001574008
 20
41.99983031473659
 30
0.0
 10
-2.000000000824719
 20
41.99987359503838
 30
0.0
 10
-2.000000000404007
 20
41.99991687534017
 30
0.0
  0
SPLINE
  5
24B2
330
24A8
100
AcDbEntity
  8
0
100
AcDbSpline
210
0.0
220
0.0
230
1.0
 70
     8
 71
     3
 72
    30
 73
    26
 74
     0
 42
0.000000001
 43
0.0000000001
 40
0.0
 40
0.0
 40
0.0
 40
0.0
 40
0.0000111911992914
 40
0.0000111911992914
 40
0.0003693095563295
 40
0.0003693095563295
 40
0.0017744644251438
 40
0.0017744644251438
 40
0.0092687548444879
 40
0.0092687548444879
 40
0.0492576518480185
 40
0.0492576518480185
 40
0.1025950995222496
 40
0.1025950995222496
 40
0.2161319470774262
 40
0.2161319470774262
 40
0.3408900423866529
 40
0.3408900423866529
 40
0.5728890295917846
 40
0.5728890295917846
 40
0.8135846488363622
 40
0.8135846488363622
 40
0.9323943179026919
 40
0.9323943179026919
 40
1.052257307840228
 40
1.052257307840228
 40
1.052257307840228
 40
1.052257307840228
 10
0.0000000000000074
 20
42.00000212470203
 30
0.0
 10
0.0000000000000074
 20
42.00000212441645
 30
0.0
 10
0.0000000000000074
 20
42.00000212382236
 30
0.0
 10
0.0000000000000074
 20
42.00000209032208
 30
0.0
 10
-0.0000000000000412
 20
42.00000162742513
 30
0.0
 10
-0.0000000000000232
 20
41.99999778924861
 30
0.0
 10
-0.0000000000000517
 20
41.99998774566963
 30
0.0
 10
0.0000000000074762
 20
41.99990142200149
 30
0.0
 10
-0.0000000000600331
 20
41.99967562996668
 30
0.0
 10
0.0000000055334211
 20
41.99727740450576
 30
0.0
 10
-0.0000000343557576
 20
41.99090256866344
 30
0.0
 10
0.0000014650047346
 20
41.96605503448719
 30
0.0
 10
0.0000035340082938
 20
41.94422605481169
 30
0.0
 10
0.0000246907969551
 20
41.85299927362075
 30
0.0
 10
0.0000612683372423
 20
41.75720736055146
 30
0.0
 10
0.0002672193340002
 20
41.49377687875188
 30
0.0
 10
0.0004526076206806
 20
41.31890410788809
 30
0.0
 10
0.0012739851139743
 20
40.73070202567352
 30
0.0
 10
0.0022003688902743
 20
40.23313306414618
 30
0.0
 10
0.0044232823942868
 20
39.06794946688679
 30
0.0
 10
0.0055694111895571
 20
38.3793705203741
 30
0.0
 10
0.0074868235353997
 20
37.27975960232365
 30
0.0
 10
0.008430952652504
 20
36.90055647577041
 30
0.0
 10
0.0082092053894523
 20
36.13187852477345
 30
0.0
 10
0.0054354668974334
 20
35.74523387408208
 30
0.0
 10
0.000000000000004
 20
35.35806993848005
 30
0.0
  0
SPLINE
  5
24B3
330
24A8
100
AcDbEntity
  8
0
100
AcDbSpline
210
0.0
220
0.0
230
1.0
 70
     8
 71
     3
 72
    20
 73
    16
 74
     0
 42
0.000000001
 43
0.0000000001
 40
0.681315994365813
 40
0.681315994365813
 40
0.681315994365813
 40
0.681315994365813
 40
0.7134782624902507
 40
0.7134782624902507
 40
0.8166874960111092
 40
0.8166874960111092
 40
1.024680931115919
 40
1.024680931115919
 40
1.246914298210189
 40
1.246914298210189
 40
1.488031545038212
 40
1.488031545038212
 40
1.608902566529915
 40
1.608902566529915
 40
1.730944121622493
 40
1.730944121622493
 40
1.730944121622493
 40
1.730944121622493
 10
0.0000000237347649
 20
42.01878358651097
 30
0.0
 10
0.0000001244151443
 20
42.10009045231616
 30
0.0
 10
-0.0000000337827687
 20
41.99638890867785
 30
0.0
 10
0.0000007277147892
 20
41.97120905217778
 30
0.0
 10
0.0000022448685502
 20
41.92306052150381
 30
0.0
 10
0.0000888987919764
 20
41.69747520887734
 30
0.0
 10
0.0002836676052947
 20
41.43457579086438
 30
0.0
 10
0.0013027520486678
 20
40.71620219374676
 30
0.0
 10
0.0021861817246447
 20
40.24041894836053
 30
0.0
 10
0.0043533887337785
 20
39.10473801563876
 30
0.0
 10
0.0055195430096169
 20
38.41756442540719
 30
0.0
 10
0.0074204100392197
 20
37.31341887550377
 30
0.0
 10
0.0083978552519607
 20
36.92803469649535
 30
0.0
 10
0.0082525507793185
 20
36.14611382550867
 30
0.0
 10
0.0054770826230641
 20
35.75244415315855
 30
0.0
 10
0.0000000000000085
 20
35.35806993848004
 30
0.0
  0
SPLINE
  5
24B4
330
24A8
100
AcDbEntity
  8
0
100
AcDbSpline
210
0.0
220
0.0
230
1.0
 70
     8
 71
     3
 72
    34
 73
    30
 74
     0
 42
0.000000001
 43
0.0000000001
 40
0.0
 40
0.0
 40
0.0
 40
0.0
 40
0.0750441229983282
 40
0.0750441229983282
 40
0.3186719239530931
 40
0.3186719239530931
 40
0.5621735773326123
 40
0.5621735773326123
 40
0.6655319011789116
 40
0.6655319011789116
 40
0.6999122479657169
 40
0.6999122479657169
 40
0.7113695979008604
 40
0.7113695979008604
 40
0.9436938006407793
 40
0.9436938006407793
 40
0.998019033181967
 40
0.998019033181967
 40
1.038748064357874
 40
1.038748064357874
 40
1.046380936315112
 40
1.046380936315112
 40
1.049243217544206
 40
1.049243217544206
 40
1.050675343179407
 40
1.050675343179407
 40
1.051391405734048
 40
1.051391405734048
 40
1.051413782685111
 40
1.051413782685111
 40
1.051413782685111
 40
1.051413782685111
 10
-35.35806993848006
 20
-0.0000000000000018
 30
0.0
 10
-35.59746211606741
 20
-0.0042196576361932
 30
0.0
 10
-35.83932773633634
 20
-0.0067529656985153
 30
0.0
 10
-36.87361751506902
 20
-0.0103151191476638
 30
0.0
 10
-37.66148770004533
 20
-0.0068347414189002
 30
0.0
 10
-39.06793629225712
 20
-0.004462266162872
 30
0.0
 10
-39.7116844525229
 20
-0.0031731994160417
 30
0.0
 10
-40.4748666717426
 20
-0.0017627832212429
 30
0.0
 10
-40.68488806469258
 20
-0.0013948636369778
 30
0.0
 10
-40.93683548809689
 20
-0.0009974352319567
 30
0.0
 10
-40.9974781165735
 20
-0.0009056677877832
 30
0.0
 10
-41.07516294211156
 20
-0.0007934377718347
 30
0.0
 10
-41.094319334524
 20
-0.0007662224203455
 30
0.0
 10
-41.4962533784913
 20
-0.0002049534492119
 30
0.0
 10
-41.77331109561735
 20
-0.0000460202548535
 30
0.0
 10
-41.93758759649049
 20
-0.0000045178954591
 30
0.0
 10
-41.96114854424382
 20
-0.0000019334991675
 30
0.0
 10
-41.98855594023344
 20
-0.0000000079112435
 30
0.0
 10
-41.9958784489458
 20
-0.0000000149987115
 30
0.0
 10
-41.99921444303703
 20
-0.0000000005747211
 30
0.0
 10
-41.9995827273046
 20
-0.0000000002179887
 30
0.0
 10
-41.99987096652619
 20
-0.0000000000176742
 30
0.0
 10
-41.99992726795736
 20
-0.0000000000069689
 30
0.0
 10
-41.99997823894031
 20
-0.0000000000003183
 30
0.0
 10
-41.99999086237034
 20
-0.0000000000000241
 30
0.0
 10
-42.00000017978916
 20
0.0000000000001491
 30
0.0
 10
-42.00000202394806
 20
-0.000000000000005
 30
0.0
 10
-42.00000214698834
 20
-0.000000000000005
 30
0.0
 10
-42.00000214915263
 20
-0.0000000000000053
 30
0.0
 10
-42.00000214996421
 20
-0.0000000000000053
 30
0.0
  0
SPLINE
  5
24B5
330
24A8
100
AcDbEntity
  8
0
100
AcDbSpline
210
0.0
220
0.0
230
1.0
 70
     8
 71
     3
 72
    20
 73
    16
 74
     0
 42
0.000000001
 43
0.0000000001
 40
0.0
 40
0.0
 40
0.0
 40
0.0
 40
0.0493576152570086
 40
0.0493576152570086
 40
0.2920172005754933
 40
0.2920172005754933
 40
0.5303737567966279
 40
0.5303737567966279
 40
0.7482746676455282
 40
0.7482746676455282
 40
0.9509210720549084
 40
0.9509210720549084
 40
0.9969446500967995
 40
0.9969446500967995
 40
1.04296822813869
 40
1.04296822813869
 40
1.04296822813869
 40
1.04296822813869
 10
-35.35806993848006
 20
-0.0000000000000094
 30
0.0
 10
-35.51358148023993
 20
-0.0031394996011697
 30
0.0
 10
-35.67212812218966
 20
-0.0052609003963679
 30
0.0
 10
-36.6203662231305
 20
-0.0116849047688372
 30
0.0
 10
-37.41472353641333
 20
-0.0072219850942138
 30
0.0
 10
-38.83222468890738
 20
-0.0048794317278925
 30
0.0
 10
-39.4811823282557
 20
-0.003626066781524
 30
0.0
 10
-40.53304112216354
 20
-0.0016398503407578
 30
0.0
 10
-40.96381668463322
 20
-0.000907711211976
 30
0.0
 10
-41.59221537473857
 20
-0.0001366981464142
 30
0.0
 10
-41.81011299156644
 20
-0.0000337152994632
 30
0.0
 10
-41.94325207292066
 20
-0.0000039879041722
 30
0.0
 10
-41.97396682795509
 20
-0.0000007940323782
 30
0.0
 10
-42.00011439528979
 20
0.0000002619301396
 30
0.0
 10
-42.17288334835045
 20
-0.0000015199565249
 30
0.0
 10
-42.06908067914309
 20
-0.0000006323095376
 30
0.0
  0
SPLINE
  5
24B6
330
24A8
100
AcDbEntity
  8
0
100
AcDbSpline
210
0.0
220
0.0
230
1.0
 70
     8
 71
     3
 72
    24
 73
    20
 74
     0
 42
0.000000001
 43
0.0000000001
 40
1.051379670828954
 40
1.051379670828954
 40
1.051379670828954
 40
1.051379670828954
 40
1.051386814393332
 40
1.051386814393332
 40
1.051399021424583
 40
1.051399021424583
 40
1.051423435487087
 40
1.051423435487087
 40
1.051521091737238
 40
1.051521091737238
 40
1.052302341815352
 40
1.052302341815352
 40
1.056543210395798
 40
1.056543210395798
 40
1.101792381478672
 40
1.101792381478672
 40
1.230916073291508
 40
1.230916073291508
 40
1.731252785919934
 40
1.731252785919934
 40
1.731252785919934
 40
1.731252785919934
 10
-41.9999992972374
 20
1.999999999701773
 30
0.0
 10
-41.9999754924312
 20
1.99999999970373
 30
0.0
 10
-41.99995168407262
 20
2.000000000103337
 30
0.0
 10
-41.99988718208721
 20
2.000000000647391
 30
0.0
 10
-41.99984649198303
 20
2.000000001281023
 30
0.0
 10
-41.99972442167055
 20
2.000000004053174
 30
0.0
 10
-41.99964304146225
 20
2.000000007062948
 30
0.0
 10
-41.99923614042059
 20
2.000000027919941
 30
0.0
 10
-41.99891061958761
 20
2.000000063191547
 30
0.0
 10
-41.99598093186682
 20
2.000000547883156
 30
0.0
 10
-41.9933767649013
 20
2.000002168033921
 30
0.0
 10
-41.97663637910403
 20
2.000020218253434
 30
0.0
 10
-41.96250015374503
 20
2.000070460824785
 30
0.0
 10
-41.79753633661705
 20
2.001062312896366
 30
0.0
 10
-41.64668882784615
 20
2.005932340906685
 30
0.0
 10
-41.06636791173619
 20
2.038657187688869
 30
0.0
 10
-40.63786522227686
 20
2.092599029675245
 30
0.0
 10
-38.57086145856328
 20
2.453076959818119
 30
0.0
 10
-36.99133749640978
 20
3.035227137308857
 30
0.0
 10
-35.35806993848006
 20
3.372802866806108
 30
0.0
  0
LINE
  5
24B7
330
24A8
100
AcDbEntity
  8
0
100
AcDbLine
 10
-4.616250887893051
 20
14.68930474161266
 30
0.0
 11
-7.52069801200895
 21
15.28961719620671
 31
0.0
  0
LINE
  5
24B8
330
24A8
100
AcDbEntity
  8
0
100
AcDbLine
 10
-1.999999999999997
 20
14.14855880091215
 30
0.0
 11
-3.564397090518927
 21
14.47189987659279
 31
0.0
  0
LINE
  5
24B9
330
24A8
100
AcDbEntity
  8
0
100
AcDbLine
 10
-4.616250887893047
 20
14.68930474161266
 30
0.0
 11
-3.564397090518927
 21
14.4718998765928
 31
0.0
  0
LINE
  5
24BA
330
24A8
100
AcDbEntity
  8
0
100
AcDbLine
 10
-14.68930474161268
 20
4.616250887893043
 30
0.0
 11
-15.28961719620673
 21
7.520698012008941
 31
0.0
  0
LINE
  5
24BB
330
24A8
100
AcDbEntity
  8
0
100
AcDbLine
 10
-14.47189987659282
 20
3.56439709051892
 30
0.0
 11
-14.14855880091217
 21
1.999999999999993
 31
0.0
  0
LINE
  5
24BC
330
24A8
100
AcDbEntity
  8
0
100
AcDbLine
 10
-14.68930474161268
 20
4.616250887893039
 30
0.0
 11
-14.47189987659282
 21
3.564397090518921
 31
0.0
  0
LINE
  5
24BD
330
24A8
100
AcDbEntity
  8
0
100
AcDbLine
 10
-7.520698012008946
 20
15.28961719620672
 30
0.0
 11
-3.372802866806107
 21
35.35806993848004
 31
0.0
  0
LINE
  5
24BE
330
24A8
100
AcDbEntity
  8
0
100
AcDbLine
 10
-35.35806993848006
 20
3.372802866806108
 30
0.0
 11
-15.28961719620673
 21
7.520698012008941
 31
0.0
  0
LINE
  5
24BF
330
24A8
100
AcDbEntity
  8
0
100
AcDbLine
 10
0.0
 20
65.0
 30
0.0
 11
0.0
 21
70.0
 31
0.0
  0
LINE
  5
24C0
330
24A8
100
AcDbEntity
  8
0
100
AcDbLine
 10
-69.99999999999999
 20
0.0
 30
0.0
 11
-64.99999999999999
 21
0.0
 31
0.0
  0
LINE
  5
24C1
330
24A8
100
AcDbEntity
  8
0
100
AcDbLine
 10
-64.99999999999999
 20
1.999999999999979
 30
0.0
 11
-69.99999999999999
 21
1.999999999999977
 31
0.0
  0
LINE
  5
24C2
330
24A8
100
AcDbEntity
  8
0
100
AcDbLine
 10
-1.999999999999995
 20
70.0
 30
0.0
 11
-1.999999999999994
 21
65.0
 31
0.0
  0
LINE
  5
24C3
330
24A8
100
AcDbEntity
  8
0
100
AcDbLine
 10
-69.99999999999999
 20
1.999999999999977
 30
0.0
 11
-69.99999999999999
 21
0.0
 31
0.0
  0
LINE
  5
24C4
330
24A8
100
AcDbEntity
  8
0
100
AcDbLine
 10
0.0
 20
70.0
 30
0.0
 11
-1.999999999999995
 21
70.0
 31
0.0
  0
LINE
  5
24C5
330
24A8
100
AcDbEntity
  8
0
100
AcDbLine
 10
0.0
 20
65.0
 30
0.0
 11
0.0
 21
6.000000000296186
 31
0.0
  0
SPLINE
  5
24C6
330
24A8
100
AcDbEntity
  8
0
100
AcDbSpline
210
0.0
220
0.0
230
1.0
 70
     8
 71
     3
 72
     8
 73
     4
 74
     0
 42
0.000000001
 43
0.0000000001
 40
0.0
 40
0.0
 40
0.0
 40
0.0
 40
1.0
 40
1.0
 40
1.0
 40
1.0
 10
0.0000000000000061
 20
6.000000000296171
 30
0.0
 10
0.0000000001550409
 20
2.859271174290157
 30
0.0
 10
-2.859271175213073
 20
-0.0000000006420484
 30
0.0
 10
-6.000000001226544
 20
-0.000000000000005
 30
0.0
  0
LINE
  5
24C7
330
24A8
100
AcDbEntity
  8
0
100
AcDbLine
 10
-6.000000000997904
 20
0.0
 30
0.0
 11
-64.99999999999999
 21
0.0
 31
0.0
  0
LINE
  5
24C8
330
24A8
100
AcDbEntity
  8
0
100
AcDbLine
 10
-64.99999999999999
 20
1.999999999999979
 30
0.0
 11
-6.0000000009979
 21
1.999999999999995
 31
0.0
  0
LINE
  5
24C9
330
24A8
100
AcDbEntity
  8
0
100
AcDbLine
 10
-1.999999999999994
 20
65.0
 30
0.0
 11
0.0
 21
65.0
 31
0.0
  0
LINE
  5
24CA
330
24A8
100
AcDbEntity
  8
0
100
AcDbLine
 10
-1.999999999999993
 20
6.000000000197456
 30
0.0
 11
-1.999999999999994
 21
65.0
 31
0.0
  0
SPLINE
  5
24CB
330
24A8
100
AcDbEntity
  8
0
100
AcDbSpline
210
0.0
220
0.0
230
1.0
 70
     8
 71
     3
 72
     8
 73
     4
 74
     0
 42
0.000000001
 43
0.0000000001
 40
-1.0
 40
-1.0
 40
-1.0
 40
-1.0
 40
0.0
 40
0.0
 40
0.0
 40
0.0
 10
-6.000000000817694
 20
1.999999999999995
 30
0.0
 10
-3.906180783475381
 20
1.999999999571966
 30
0.0
 10
-1.999999999896637
 20
3.906180782860103
 30
0.0
 10
-1.999999999999993
 20
6.000000000197446
 30
0.0
  0
LINE
  5
24CC
330
24A8
100
AcDbEntity
  8
0
100
AcDbLine
 10
-64.99999999999999
 20
0.0
 30
0.0
 11
-64.99999999999999
 21
1.999999999999979
 31
0.0
  0
ARC
  5
24CD
330
24A8
100
AcDbEntity
  8
0
100
AcDbCircle
 10
-17.31370849898476
 20
17.31370849898475
 30
0.0
 40
10.0
100
AcDbArc
 50
281.6778738843574
 51
348.3221261156424
  0
ENDBLK
  5
24AA
330
24A8
100
AcDbEntity
  8
0
100
AcDbBlockEnd
  0
BLOCK
  5
24CF
330
24CE
100
AcDbEntity
  8
0
100
AcDbBlockBegin
  2
ABR70-Top
 70
     0
 10
0.0
 20
0.0
 30
0.0
  3
ABR70-Top
  1

  0
ARC
  5
24D1
330
24CE
100
AcDbEntity
  8
0
100
AcDbCircle
 10
-0.000000000000013
 20
13.47053334296902
 30
0.0
 40
16.84333620977513
100
AcDbArc
 50
253.6651489168283
 51
270.0
  0
ARC
  5
24D2
330
24CE
100
AcDbEntity
  8
0
100
AcDbCircle
 10
-0.000000000000013
 20
13.47053334296902
 30
0.0
 40
16.84333620977513
100
AcDbArc
 50
270.0
 51
286.3348510831717
  0
LINE
  5
24D3
330
24CE
100
AcDbEntity
  8
0
100
AcDbLine
 10
-6.311181557334939
 20
-35.35806993848006
 30
0.0
 11
-7.060579595672762
 21
-35.35806993848006
 31
0.0
  0
ARC
  5
24D4
330
24CE
100
AcDbEntity
  8
0
100
AcDbCircle
 10
-0.0000000000000022
 20
-34.92622639062767
 30
0.0
 40
7.07377360937232
100
AcDbArc
 50
183.4999999999999
 51
270.0000000000007
  0
ARC
  5
24D5
330
24CE
100
AcDbEntity
  8
0
100
AcDbCircle
 10
-0.0000000000000022
 20
-34.92622639062767
 30
0.0
 40
7.07377360937232
100
AcDbArc
 50
270.0000000000006
 51
356.5000000000001
  0
LINE
  5
24D6
330
24CE
100
AcDbEntity
  8
0
100
AcDbLine
 10
7.060579595672756
 20
-35.35806993848006
 30
0.0
 11
6.311181557334913
 21
-35.35806993848006
 31
0.0
  0
LINE
  5
24D7
330
24CE
100
AcDbEntity
  8
0
100
AcDbLine
 10
5.298496595528394
 20
-35.35806993848006
 30
0.0
 11
6.311181557334927
 21
-35.35806993848006
 31
0.0
  0
LINE
  5
24D8
330
24CE
100
AcDbEntity
  8
0
100
AcDbLine
 10
0.0
 20
-35.35806993848006
 30
0.0
 11
5.298496595528396
 21
-35.35806993848006
 31
0.0
  0
LINE
  5
24D9
330
24CE
100
AcDbEntity
  8
0
100
AcDbLine
 10
-5.298496595528408
 20
-35.35806993848006
 30
0.0
 11
0.0
 21
-35.35806993848006
 31
0.0
  0
LINE
  5
24DA
330
24CE
100
AcDbEntity
  8
0
100
AcDbLine
 10
-6.311181557334939
 20
-35.35806993848006
 30
0.0
 11
-5.298496595528407
 21
-35.35806993848006
 31
0.0
  0
SPLINE
  5
24DB
330
24CE
100
AcDbEntity
  8
0
100
AcDbSpline
210
0.0
220
0.0
230
1.0
 70
     8
 71
     3
 72
    42
 73
    38
 74
     0
 42
0.000000001
 43
0.0000000001
 40
0.0
 40
0.0
 40
0.0
 40
0.0
 40
0.0051567420185558
 40
0.0051567420185558
 40
0.0101994292672721
 40
0.0101994292672721
 40
0.0197975187587311
 40
0.0197975187587311
 40
0.0381790988583855
 40
0.0381790988583855
 40
0.060632781941234
 40
0.060632781941234
 40
0.064369447263734
 40
0.064369447263734
 40
0.0681061125862341
 40
0.0681061125862341
 40
0.0681199287500287
 40
0.0681199287500287
 40
0.0681454532617357
 40
0.0681454532617357
 40
0.0681924211048552
 40
0.0681924211048552
 40
0.0683869944777458
 40
0.0683869944777458
 40
0.0687761416349349
 40
0.0687761416349349
 40
0.0695544390394207
 40
0.0695544390394207
 40
0.0714025934900651
 40
0.0714025934900651
 40
0.081262935911537
 40
0.081262935911537
 40
0.0944072433373206
 40
0.0944072433373206
 40
0.1296020291946017
 40
0.1296020291946017
 40
0.2544658789322123
 40
0.2544658789322123
 40
0.2544658789322123
 40
0.2544658789322123
 10
7.060579595672749
 20
-1.999999999999964
 30
0.0
 10
7.043390456547356
 20
-1.99999496209961
 30
0.0
 10
7.02614945939286
 20
-2.000224782116849
 30
0.0
 10
6.99256030987231
 20
-2.001135674768446
 30
0.0
 10
6.976114871040389
 20
-2.00181322949319
 30
0.0
 10
6.929472509662137
 20
-2.004396179160617
 30
0.0
 10
6.900041081938481
 20
-2.00687052717985
 30
0.0
 10
6.818202216802992
 20
-2.015890318016962
 30
0.0
 10
6.768347234424535
 20
-2.024079150541072
 30
0.0
 10
6.658607569614415
 20
-2.047207555297944
 30
0.0
 10
6.598576249501659
 20
-2.063418024500855
 30
0.0
 10
6.527599669120584
 20
-2.086901516012424
 30
0.0
 10
6.514829557705717
 20
-2.091263966273328
 30
0.0
 10
6.493537675906445
 20
-2.098787480118003
 30
0.0
 10
6.48798823683296
 20
-2.100794738177519
 30
0.0
 10
6.476682527286666
 20
-2.104998352659919
 30
0.0
 10
6.476640878272744
 20
-2.105013838589042
 30
0.0
 10
6.476522283510835
 20
-2.105057935231935
 30
0.0
 10
6.476445336270729
 20
-2.105086547143808
 30
0.0
 10
6.476226791864045
 20
-2.105167812847241
 30
0.0
 10
6.476085189668844
 20
-2.105220470673555
 30
0.0
 10
6.475356936457492
 20
-2.105491303034403
 30
0.0
 10
6.474770170332984
 20
-2.105709569770605
 30
0.0
 10
6.473009510230957
 20
-2.106364658538604
 30
0.0
 10
6.471835253139234
 20
-2.106801769634588
 30
0.0
 10
6.468311071087162
 20
-2.108114217588576
 30
0.0
 10
6.465959724597779
 20
-2.108990672946142
 30
0.0
 10
6.458018888913432
 20
-2.111953010427062
 30
0.0
 10
6.452420990254353
 20
-2.114045349920694
 30
0.0
 10
6.4169022327244
 20
-2.127341511958355
 30
0.0
 10
6.386732982762962
 20
-2.138721267105793
 30
0.0
 10
6.316101361654276
 20
-2.165354446400419
 30
0.0
 10
6.27552149677212
 20
-2.180648962194029
 30
0.0
 10
6.125962349790885
 20
-2.236625913498914
 30
0.0
 10
6.016390044655965
 20
-2.276815271741577
 30
0.0
 10
5.517241348699669
 20
-2.454436401280962
 30
0.0
 10
5.124277057053383
 20
-2.579465436543475
 30
0.0
 10
4.737196293281855
 20
-2.692911399858497
 30
0.0
  0
SPLINE
  5
24DC
330
24CE
100
AcDbEntity
  8
0
100
AcDbSpline
210
0.0
220
0.0
230
1.0
 70
     8
 71
     3
 72
    34
 73
    30
 74
     0
 42
0.000000001
 43
0.0000000001
 40
0.0
 40
0.0
 40
0.0
 40
0.0
 40
0.1332426101894593
 40
0.1332426101894593
 40
0.1693201240204621
 40
0.1693201240204621
 40
0.1828553797943397
 40
0.1828553797943397
 40
0.1853919702834628
 40
0.1853919702834628
 40
0.1862222251563736
 40
0.1862222251563736
 40
0.1862823310218818
 40
0.1862823310218818
 40
0.186315003154797
 40
0.186315003154797
 40
0.1863326777154062
 40
0.1863326777154062
 40
0.1943051262088222
 40
0.1943051262088222
 40
0.2182616855743861
 40
0.2182616855743861
 40
0.2356645642036736
 40
0.2356645642036736
 40
0.2447831417534291
 40
0.2447831417534291
 40
0.2495631561676027
 40
0.2495631561676027
 40
0.2544411619967062
 40
0.2544411619967062
 40
0.2544411619967062
 40
0.2544411619967062
 10
-4.737196293281875
 20
-2.692911399858499
 30
0.0
 10
-5.150251404328259
 20
-2.571852852494184
 30
0.0
 10
-5.570130474286115
 20
-2.437445160747217
 30
0.0
 10
-6.097533523875044
 20
-2.247201679694156
 30
0.0
 10
-6.209741652118109
 20
-2.205424901777445
 30
0.0
 10
-6.362510592481525
 20
-2.147863285052785
 30
0.0
 10
-6.404054458252185
 20
-2.132155704940692
 30
0.0
 10
-6.452825088955424
 20
-2.1138933055958
 30
0.0
 10
-6.460506544172254
 20
-2.111022792048994
 30
0.0
 10
-6.470675772973166
 20
-2.10723328209966
 30
0.0
 10
-6.473181399819711
 20
-2.106300439262043
 30
0.0
 10
-6.475866025206975
 20
-2.105301975070745
 30
0.0
 10
-6.476047245454897
 20
-2.105234580739018
 30
0.0
 10
-6.476326954743829
 20
-2.10513056688884
 30
0.0
 10
-6.476425452011572
 20
-2.105093940772567
 30
0.0
 10
-6.476577227770499
 20
-2.105037505394632
 30
0.0
 10
-6.476630508706548
 20
-2.105017694170311
 30
0.0
 10
-6.500716716894702
 20
-2.096062019036367
 30
0.0
 10
-6.520162748295454
 20
-2.089309377477237
 30
0.0
 10
-6.606653193984991
 20
-2.060925889852843
 30
0.0
 10
-6.670530530044571
 20
-2.044090970998641
 30
0.0
 10
-6.78200985401721
 20
-2.021787243296731
 30
0.0
 10
-6.829638967213112
 20
-2.014358647988127
 30
0.0
 10
-6.907890634586281
 20
-2.006187312801844
 30
0.0
 10
-6.936072567371765
 20
-2.003948683745871
 30
0.0
 10
-6.980543226666623
 20
-2.001623220803768
 30
0.0
 10
-6.996168814016609
 20
-2.001015874838523
 30
0.0
 10
-7.028015486262338
 20
-2.000200833664672
 30
0.0
 10
-7.044319577231513
 20
-1.999995565821819
 30
0.0
 10
-7.060579595672768
 20
-1.999999999999991
 30
0.0
  0
SPLINE
  5
24DD
330
24CE
100
AcDbEntity
  8
0
100
AcDbSpline
210
0.0
220
0.0
230
1.0
 70
     8
 71
     3
 72
    18
 73
    14
 74
     0
 42
0.000000001
 43
0.0000000001
 40
0.0
 40
0.0
 40
0.0
 40
0.0
 40
0.1279332020698212
 40
0.1279332020698212
 40
0.2669460069545984
 40
0.2669460069545984
 40
0.4852351919897224
 40
0.4852351919897224
 40
0.7252955740357646
 40
0.7252955740357646
 40
0.9678324281842774
 40
0.9678324281842774
 40
0.9893591437215455
 40
0.9893591437215455
 40
0.9893591437215455
 40
0.9893591437215455
 10
-7.060579595672772
 20
0.0000000000000084
 30
0.0
 10
-6.965780845368028
 20
0.0055822717855643
 30
0.0
 10
-6.8577469127618
 20
0.0083613594487727
 30
0.0
 10
-6.605412798203802
 20
0.0082929035173492
 30
0.0
 10
-6.453966563709804
 20
0.0070968423502987
 30
0.0
 10
-5.935993792277236
 20
0.0053280978120733
 30
0.0
 10
-5.512506620678548
 20
0.0042243720336388
 30
0.0
 10
-4.473930389046779
 20
0.002086614324727
 30
0.0
 10
-3.827999215970182
 20
0.0011574570649325
 30
0.0
 10
-2.415675412362021
 20
0.0001322912257322
 30
0.0
 10
-1.625711871403696
 20
0.0000218968804747
 30
0.0
 10
-0.7536162432083628
 20
0.0000030837523475
 30
0.0
 10
-0.6822400401604004
 20
0.0000015182019106
 30
0.0
 10
-0.61064792921497
 20
-0.0000000000000001
 30
0.0
  0
SPLINE
  5
24DE
330
24CE
100
AcDbEntity
  8
0
100
AcDbSpline
210
0.0
220
0.0
230
1.0
 70
     8
 71
     3
 72
    18
 73
    14
 74
     0
 42
0.000000001
 43
0.0000000001
 40
1.134409636883609
 40
1.134409636883609
 40
1.134409636883609
 40
1.134409636883609
 40
1.185897154627367
 40
1.185897154627367
 40
1.384402193845185
 40
1.384402193845185
 40
1.607134985977423
 40
1.607134985977423
 40
1.849756441087907
 40
1.849756441087907
 40
1.974424923569038
 40
1.974424923569038
 40
2.100543670851843
 40
2.100543670851843
 40
2.100543670851843
 40
2.100543670851843
 10
0.8456985782343167
 20
0.0000000000000002
 30
0.0
 10
1.016700172032183
 20
0.0000064993757692
 30
0.0
 10
1.186384219396526
 20
0.0000163238725956
 30
0.0
 10
1.999471611137781
 20
0.0000854345102279
 30
0.0
 10
2.628367096508317
 20
0.0002626574366862
 30
0.0
 10
3.852505777892225
 20
0.0012059649881428
 30
0.0
 10
4.449567906656189
 20
0.0020612641856116
 30
0.0
 10
5.516601840213118
 20
0.0042085571705397
 30
0.0
 10
5.987432411526257
 20
0.0054155073203183
 30
0.0
 10
6.492691557628508
 20
0.0072885436533429
 30
0.0
 10
6.624562846976608
 20
0.0083304399527198
 30
0.0
 10
6.860711841482363
 20
0.0083280020686967
 30
0.0
 10
6.967026718465135
 20
0.0055488080507335
 30
0.0
 10
7.060579595672749
 20
0.000000000000004
 30
0.0
  0
ELLIPSE
  5
24DF
330
24CE
100
AcDbEntity
  8
0
100
AcDbEllipse
 10
-0.0000000000000096
 20
-1.840751929562978
 30
0.0
 11
5.799999999999999
 21
0.0000000000000189
 31
0.0
210
0.0
220
0.0
230
1.0
 40
0.9793010486975816
 41
4.712388980384689
 42
5.772644890438098
  0
ELLIPSE
  5
24E0
330
24CE
100
AcDbEntity
  8
0
100
AcDbEllipse
 10
-0.0000000000000096
 20
-1.840751929562978
 30
0.0
 11
5.799999999999998
 21
0.0000000000005779
 31
0.0
210
0.0
220
0.0
230
1.0
 40
0.9793010486975813
 41
3.652133070331171
 42
4.712388980384591
  0
LINE
  5
24E1
330
24CE
100
AcDbEntity
  8
0
100
AcDbLine
 10
-5.661949061536482
 20
-3.56439709051893
 30
0.0
 11
-5.060387254141862
 21
-4.616250887893048
 31
0.0
  0
SPLINE
  5
24E2
330
24CE
100
AcDbEntity
  8
0
100
AcDbSpline
210
0.0
220
0.0
230
1.0
 70
     8
 71
     3
 72
    12
 73
     8
 74
     0
 42
0.000000001
 43
0.0000000001
 40
0.0
 40
0.0
 40
0.0
 40
0.0
 40
0.1232182299558693
 40
0.1232182299558693
 40
0.2264867741881304
 40
0.2264867741881304
 40
0.329363208254894
 40
0.329363208254894
 40
0.329363208254894
 40
0.329363208254894
 10
-5.661949061536482
 20
-3.56439709051893
 30
0.0
 10
-5.862650537645399
 20
-3.213462893585663
 30
0.0
 10
-6.131721705487965
 20
-2.903934979112132
 30
0.0
 10
-6.72351281683831
 20
-2.4450310381391
 30
0.0
 10
-7.026891185009045
 20
-2.280644930456158
 30
0.0
 10
-7.67492254525184
 20
-2.057579363867687
 30
0.0
 10
-8.015111798667049
 20
-2.000000000000001
 30
0.0
 10
-8.357808868957363
 20
-2.000000000000001
 30
0.0
  0
SPLINE
  5
24E3
330
24CE
100
AcDbEntity
  8
0
100
AcDbSpline
210
0.0
220
0.0
230
1.0
 70
     8
 71
     3
 72
    12
 73
     8
 74
     0
 42
0.000000001
 43
0.0000000001
 40
0.0
 40
0.0
 40
0.0
 40
0.0
 40
0.1173410086684419
 40
0.1173410086684419
 40
0.2232347004282379
 40
0.2232347004282379
 40
0.3291246614663504
 40
0.3291246614663504
 40
0.3291246614663504
 40
0.3291246614663504
 10
8.357808868957341
 20
-1.999999999999997
 30
0.0
 10
7.966672173395869
 20
-1.999999999999997
 30
0.0
 10
7.579252811326781
 20
-2.07499445000102
 30
0.0
 10
6.889279097116958
 20
-2.348694743643029
 30
0.0
 10
6.586944486127426
 20
-2.532690009259828
 30
0.0
 10
6.057897718905516
 20
-2.991105047521927
 30
0.0
 10
5.834551060401922
 20
-3.262595902828333
 30
0.0
 10
5.661949061536462
 20
-3.564397090518927
 30
0.0
  0
LINE
  5
24E4
330
24CE
100
AcDbEntity
  8
0
100
AcDbLine
 10
5.060387254141844
 20
-4.616250887893047
 30
0.0
 11
5.661949061536462
 21
-3.564397090518927
 31
0.0
  0
ELLIPSE
  5
24E5
330
24CE
100
AcDbEntity
  8
0
100
AcDbEllipse
 10
-0.0000000000000068
 20
-14.11564424059546
 30
0.0
 11
5.799999999999999
 21
0.0000000000000047
 31
0.0
210
0.0
220
0.0
230
1.0
 40
0.2024091302778038
 41
4.712388980384695
 42
5.772644890438049
  0
ELLIPSE
  5
24E6
330
24CE
100
AcDbEntity
  8
0
100
AcDbEllipse
 10
-0.0000000000000068
 20
-14.11564424059546
 30
0.0
 11
5.799999999999999
 21
0.0000000000001231
 31
0.0
210
0.0
220
0.0
230
1.0
 40
0.2024091302778038
 41
3.652133070327533
 42
4.712388980382868
  0
LINE
  5
24E7
330
24CE
100
AcDbEntity
  8
0
100
AcDbLine
 10
-5.661949061536478
 20
-14.47189987659283
 30
0.0
 11
-5.060387254141859
 21
-14.68930474161268
 31
0.0
  0
SPLINE
  5
24E8
330
24CE
100
AcDbEntity
  8
0
100
AcDbSpline
210
0.0
220
0.0
230
1.0
 70
     8
 71
     3
 72
    12
 73
     8
 74
     0
 42
0.000000001
 43
0.0000000001
 40
0.0
 40
0.0
 40
0.0
 40
0.0
 40
0.1173410086685641
 40
0.1173410086685641
 40
0.2232347004284267
 40
0.2232347004284267
 40
0.3291246614663436
 40
0.3291246614663436
 40
0.3291246614663436
 40
0.3291246614663436
 10
-8.357808868957356
 20
-14.14855880091218
 30
0.0
 10
-7.966672173395476
 20
-14.14855880091218
 30
0.0
 10
-7.579252811325991
 20
-14.16405920447908
 30
0.0
 10
-6.889279097115692
 20
-14.22062959053823
 30
0.0
 10
-6.586944486126055
 20
-14.25865908279573
 30
0.0
 10
-6.057897718904728
 20
-14.3534076683551
 30
0.0
 10
-5.834551060401626
 20
-14.40952139144937
 30
0.0
 10
-5.661949061536477
 20
-14.47189987659283
 30
0.0
  0
SPLINE
  5
24E9
330
24CE
100
AcDbEntity
  8
0
100
AcDbSpline
210
0.0
220
0.0
230
1.0
 70
     8
 71
     3
 72
    12
 73
     8
 74
     0
 42
0.000000001
 43
0.0000000001
 40
0.0
 40
0.0
 40
0.0
 40
0.0
 40
0.1232182299560861
 40
0.1232182299560861
 40
0.2264867741882525
 40
0.2264867741882525
 40
0.3293632082549001
 40
0.3293632082549001
 40
0.3293632082549001
 40
0.3293632082549001
 10
5.661949061536464
 20
-14.47189987659282
 30
0.0
 10
5.862650537645734
 20
-14.39936622038915
 30
0.0
 10
6.131721705488887
 20
-14.33539071858242
 30
0.0
 10
6.723512816839855
 20
-14.24054108302152
 30
0.0
 10
7.026891185010388
 20
-14.2065645554788
 30
0.0
 10
7.674922545252588
 20
-14.16045972654183
 30
0.0
 10
8.015111798667417
 20
-14.14855880091217
 30
0.0
 10
8.357808868957341
 20
-14.14855880091217
 30
0.0
  0
LINE
  5
24EA
330
24CE
100
AcDbEntity
  8
0
100
AcDbLine
 10
5.060387254141847
 20
-14.68930474161268
 30
0.0
 11
5.661949061536464
 21
-14.47189987659282
 31
0.0
  0
LINE
  5
24EB
330
24CE
100
AcDbEntity
  8
0
100
AcDbLine
 10
-22.50000000000001
 20
0.0
 30
0.0
 11
-27.50000000000001
 21
0.0
 31
0.0
  0
LINE
  5
24EC
330
24CE
100
AcDbEntity
  8
0
100
AcDbLine
 10
27.5
 20
0.0
 30
0.0
 11
22.5
 21
0.0
 31
0.0
  0
LINE
  5
24ED
330
24CE
100
AcDbEntity
  8
0
100
AcDbLine
 10
-22.5
 20
-70.00000000000001
 30
0.0
 11
-27.5
 21
-65.00000000000001
 31
0.0
  0
LINE
  5
24EE
330
24CE
100
AcDbEntity
  8
0
100
AcDbLine
 10
27.5
 20
-64.99999999999999
 30
0.0
 11
22.5
 21
-69.99999999999999
 31
0.0
  0
LINE
  5
24EF
330
24CE
100
AcDbEntity
  8
0
100
AcDbLine
 10
22.5
 20
-1.999999999999995
 30
0.0
 11
27.5
 21
-1.999999999999993
 31
0.0
  0
LINE
  5
24F0
330
24CE
100
AcDbEntity
  8
0
100
AcDbLine
 10
-27.50000000000001
 20
-2.000000000000006
 30
0.0
 11
-22.50000000000001
 21
-2.000000000000005
 31
0.0
  0
LINE
  5
24F1
330
24CE
100
AcDbEntity
  8
0
100
AcDbLine
 10
22.5
 20
0.0
 30
0.0
 11
22.5
 21
-1.999999999999995
 31
0.0
  0
LINE
  5
24F2
330
24CE
100
AcDbEntity
  8
0
100
AcDbLine
 10
-22.50000000000001
 20
-2.000000000000005
 30
0.0
 11
-22.50000000000001
 21
0.0
 31
0.0
  0
LINE
  5
24F3
330
24CE
100
AcDbEntity
  8
0
100
AcDbLine
 10
22.5
 20
0.0
 30
0.0
 11
-22.50000000000001
 21
0.0
 31
0.0
  0
LINE
  5
24F4
330
24CE
100
AcDbEntity
  8
0
100
AcDbLine
 10
-22.5
 20
-70.00000000000001
 30
0.0
 11
22.5
 21
-69.99999999999999
 31
0.0
  0
LINE
  5
24F5
330
24CE
100
AcDbEntity
  8
0
100
AcDbLine
 10
-22.50000000000001
 20
-2.000000000000005
 30
0.0
 11
22.5
 21
-1.999999999999995
 31
0.0
  0
CIRCLE
  5
24F6
330
24CE
100
AcDbEntity
  8
0
100
AcDbCircle
 10
-18.5635952120202
 20
-15.00000000000002
 30
0.0
 40
2.5
  0
CIRCLE
  5
24F7
330
24CE
100
AcDbEntity
  8
0
100
AcDbCircle
 10
-14.13815712721212
 20
-35.00000000000002
 30
0.0
 40
2.5
  0
CIRCLE
  5
24F8
330
24CE
100
AcDbEntity
  8
0
100
AcDbCircle
 10
-17.428179760601
 20
-62.5
 30
0.0
 40
2.5
  0
CIRCLE
  5
24F9
330
24CE
100
AcDbEntity
  8
0
100
AcDbCircle
 10
0.0000000000000028
 20
-57.5
 30
0.0
 40
4.25
  0
LINE
  5
24FA
330
24CE
100
AcDbEntity
  8
0
100
AcDbLine
 10
-25.80504235019128
 20
-6.000000000998914
 30
0.0
 11
-27.5
 21
-65.00000000000001
 31
0.0
  0
LINE
  5
24FB
330
24CE
100
AcDbEntity
  8
0
100
AcDbLine
 10
27.5
 20
-64.99999999999999
 30
0.0
 11
25.80504235019121
 21
-6.0000000009979
 31
0.0
  0
SPLINE
  5
24FC
330
24CE
100
AcDbEntity
  8
0
100
AcDbSpline
210
0.0
220
0.0
230
1.0
 70
     8
 71
     3
 72
     8
 73
     4
 74
     0
 42
0.000000001
 43
0.0000000001
 40
-1.0
 40
-1.0
 40
-1.0
 40
-1.0
 40
0.0
 40
0.0
 40
0.0
 40
0.0
 10
-25.80504235018952
 20
-2.000000000000005
 30
0.0
 10
-25.73165759463548
 20
-1.99999999989646
 30
0.0
 10
-25.73165759463574
 20
-3.90618078347624
 30
0.0
 10
-25.80504235019127
 20
-6.000000000818783
 30
0.0
  0
LINE
  5
24FD
330
24CE
100
AcDbEntity
  8
0
100
AcDbLine
 10
27.5
 20
-1.999999999999993
 30
0.0
 11
27.5
 21
0.0
 31
0.0
  0
SPLINE
  5
24FE
330
24CE
100
AcDbEntity
  8
0
100
AcDbSpline
210
0.0
220
0.0
230
1.0
 70
     8
 71
     3
 72
     8
 73
     4
 74
     0
 42
0.000000001
 43
0.0000000001
 40
-1.0
 40
-1.0
 40
-1.0
 40
-1.0
 40
0.0
 40
0.0
 40
0.0
 40
0.0
 10
25.80504235019119
 20
-6.000000000817694
 30
0.0
 10
25.73165759463627
 20
-3.906180783475381
 30
0.0
 10
25.73165759463462
 20
-1.999999999896637
 30
0.0
 10
25.80504235018946
 20
-1.999999999999993
 30
0.0
  0
LINE
  5
24FF
330
24CE
100
AcDbEntity
  8
0
100
AcDbLine
 10
-27.50000000000001
 20
0.0
 30
0.0
 11
-27.50000000000001
 21
-2.000000000000006
 31
0.0
  0
CIRCLE
  5
2500
330
24CE
100
AcDbEntity
  8
0
100
AcDbCircle
 10
17.42817976060101
 20
-62.5
 30
0.0
 40
2.5
  0
CIRCLE
  5
2501
330
24CE
100
AcDbEntity
  8
0
100
AcDbCircle
 10
18.56359521202019
 20
-15.00000000000001
 30
0.0
 40
2.5
  0
CIRCLE
  5
2502
330
24CE
100
AcDbEntity
  8
0
100
AcDbCircle
 10
14.13815712721211
 20
-35.00000000000001
 30
0.0
 40
2.5
  0
ENDBLK
  5
24D0
330
24CE
100
AcDbEntity
  8
0
100
AcDbBlockEnd
  0
BLOCK
  5
2504
330
2503
100
AcDbEntity
  8
0
100
AcDbBlockBegin
  2
ABR70-Bottom
 70
     0
 10
0.0
 20
0.0
 30
0.0
  3
ABR70-Bottom
  1

  0
ARC
  5
2506
330
2503
100
AcDbEntity
  8
0
100
AcDbCircle
 10
-7.060579595672766
 20
3.999999999999987
 30
0.0
 40
4.0
100
AcDbArc
 50
269.9999999999999
 51
292.0057116096151
  0
ARC
  5
2507
330
2503
100
AcDbEntity
  8
0
100
AcDbCircle
 10
7.060579595672697
 20
3.999999999999847
 30
0.0
 40
3.99999999999985
100
AcDbArc
 50
247.9942883903848
 51
270.0000000000007
  0
ARC
  5
2508
330
2503
100
AcDbEntity
  8
0
100
AcDbCircle
 10
-0.000000000000013
 20
-13.47053334296902
 30
0.0
 40
14.84333620977513
100
AcDbArc
 50
67.99428839038487
 51
73.14455145435021
  0
ARC
  5
2509
330
2503
100
AcDbEntity
  8
0
100
AcDbCircle
 10
-0.000000000000013
 20
-13.47053334296902
 30
0.0
 40
14.84333620977513
100
AcDbArc
 50
73.14455145435021
 51
90.0
  0
ARC
  5
250A
330
2503
100
AcDbEntity
  8
0
100
AcDbCircle
 10
-0.000000000000013
 20
-13.47053334296902
 30
0.0
 40
14.84333620977513
100
AcDbArc
 50
90.00000000000005
 51
106.8554485134081
  0
ARC
  5
250B
330
2503
100
AcDbEntity
  8
0
100
AcDbCircle
 10
-0.000000000000013
 20
-13.47053334296902
 30
0.0
 40
14.84333620977513
100
AcDbArc
 50
106.8554485134081
 51
112.0057116096151
  0
LINE
  5
250C
330
2503
100
AcDbEntity
  8
0
100
AcDbLine
 10
-5.561783518997117
 20
35.35806993848006
 30
0.0
 11
-7.060579595672761
 21
35.35806993848006
 31
0.0
  0
LINE
  5
250D
330
2503
100
AcDbEntity
  8
0
100
AcDbLine
 10
-5.561783518997119
 20
35.35806993848006
 30
0.0
 11
-4.303945804485494
 21
35.35806993848006
 31
0.0
  0
LINE
  5
250E
330
2503
100
AcDbEntity
  8
0
100
AcDbLine
 10
-4.303945804485497
 20
35.35806993848006
 30
0.0
 11
0.0
 21
35.35806993848006
 31
0.0
  0
LINE
  5
250F
330
2503
100
AcDbEntity
  8
0
100
AcDbLine
 10
0.0
 20
35.35806993848006
 30
0.0
 11
4.303945812479344
 21
35.35806993848006
 31
0.0
  0
LINE
  5
2510
330
2503
100
AcDbEntity
  8
0
100
AcDbLine
 10
4.303945812479346
 20
35.35806993848006
 30
0.0
 11
5.561783518997113
 21
35.35806993848006
 31
0.0
  0
LINE
  5
2511
330
2503
100
AcDbEntity
  8
0
100
AcDbLine
 10
7.060579595672756
 20
35.35806993848006
 30
0.0
 11
5.561783518997113
 21
35.35806993848006
 31
0.0
  0
ARC
  5
2512
330
2503
100
AcDbEntity
  8
0
100
AcDbCircle
 10
-0.0000000000000022
 20
34.92622639062767
 30
0.0
 40
7.07377360937232
100
AcDbArc
 50
3.499999999999946
 51
90.00000000000024
  0
ARC
  5
2513
330
2503
100
AcDbEntity
  8
0
100
AcDbCircle
 10
-0.0000000000000022
 20
34.92622639062767
 30
0.0
 40
7.07377360937232
100
AcDbArc
 50
90.00000000000021
 51
176.5
  0
SPLINE
  5
2514
330
2503
100
AcDbEntity
  8
0
100
AcDbSpline
210
0.0
220
0.0
230
1.0
 70
     8
 71
     3
 72
    32
 73
    28
 74
     0
 42
0.000000001
 43
0.0000000001
 40
0.0
 40
0.0
 40
0.0
 40
0.0
 40
0.0416063313121792
 40
0.0416063313121792
 40
0.2826642956664902
 40
0.2826642956664902
 40
0.5235687030517764
 40
0.5235687030517764
 40
0.7426848158804057
 40
0.7426848158804057
 40
0.9417337928521643
 40
0.9417337928521643
 40
1.102995130482134
 40
1.102995130482134
 40
1.156335396392023
 40
1.156335396392023
 40
1.272222185810946
 40
1.272222185810946
 40
1.517583093089421
 40
1.517583093089421
 40
1.752563723972279
 40
1.752563723972279
 40
1.834790181710907
 40
1.834790181710907
 40
2.05212634923127
 40
2.05212634923127
 40
2.10158136565989
 40
2.10158136565989
 40
2.10158136565989
 40
2.10158136565989
 10
7.060579595672749
 20
-0.000000000000004
 30
0.0
 10
7.033358415384602
 20
-0.0023014787353018
 30
0.0
 10
7.002192193819041
 20
-0.0040936864002366
 30
0.0
 10
6.764192319833558
 20
-0.0127787187100789
 30
0.0
 10
6.547325439142951
 20
-0.0073489718136612
 30
0.0
 10
5.814966554299171
 20
-0.0049968372420504
 30
0.0
 10
5.321601608051789
 20
-0.0037366666749392
 30
0.0
 10
4.22284892159447
 20
-0.0017120687309082
 30
0.0
 10
3.618575098058295
 20
-0.0009574928764036
 30
0.0
 10
2.378660631327393
 20
-0.0001616620237011
 30
0.0
 10
1.738231109285363
 20
-0.0000435240104
 30
0.0
 10
0.5561463074282415
 20
0.0000113315492231
 30
0.0
 10
0.0098185665684508
 20
0.0000023948866568
 30
0.0
 10
-0.7028030638423491
 20
-0.0000018625018547
 30
0.0
 10
-0.8794101160109214
 20
-0.0000043434113733
 30
0.0
 10
-1.435084192420359
 20
-0.0000281658678839
 30
0.0
 10
-1.810843760971876
 20
-0.0000693554394135
 30
0.0
 10
-2.94207449946148
 20
-0.0004041891022178
 30
0.0
 10
-3.66871757746995
 20
-0.0009859336463414
 30
0.0
 10
-4.901474859621467
 20
-0.0028324939118952
 30
0.0
 10
-5.432479165263647
 20
-0.0040517382154363
 30
0.0
 10
-5.998956927588185
 20
-0.0056075489460797
 30
0.0
 10
-6.133240910778421
 20
-0.0060016462740219
 30
0.0
 10
-6.567510205661999
 20
-0.007484564847753
 30
0.0
 10
-6.761226581772215
 20
-0.0116494342548533
 30
0.0
 10
-6.989464732965552
 20
-0.0047603542842158
 30
0.0
 10
-7.027303182936397
 20
-0.0027462608286655
 30
0.0
 10
-7.060579595672771
 20
-0.0000000000000084
 30
0.0
  0
SPLINE
  5
2515
330
2503
100
AcDbEntity
  8
0
100
AcDbSpline
210
0.0
220
0.0
230
1.0
 70
     8
 71
     3
 72
    15
 73
    11
 74
     0
 42
0.000000001
 43
0.0000000001
 40
-0.0001475452536681
 40
-0.0001475452536681
 40
-0.0001475452536681
 40
-0.0001475452536681
 40
0.0744500891009805
 40
0.0744500891009805
 40
0.0744500891009805
 40
0.2050024496936084
 40
0.2050024496936084
 40
0.3773835507742169
 40
0.3773835507742169
 40
0.5461217982480847
 40
0.5461217982480847
 40
0.5461217982480847
 40
0.5461217982480847
 10
-3.916987939418603
 20
2.607328484198215
 30
0.0
 10
-4.038013691007419
 20
2.395710334867725
 30
0.0
 10
-4.17423704638303
 20
2.192744343659188
 30
0.0
 10
-4.32458704493867
 20
1.999999999999928
 30
0.0
 10
-4.587712643978713
 20
1.662680602765919
 30
0.0
 10
-4.893188796403305
 20
1.357842653722913
 30
0.0
 10
-5.684740742554775
 20
0.7439990039928203
 30
0.0
 10
-6.191256525046783
 20
0.4696724446776206
 30
0.0
 10
-7.263583421201824
 20
0.1003565569396947
 30
0.0
 10
-7.821150335350223
 20
0.0040581574154591
 30
0.0
 10
-8.383090361886392
 20
0.0001254784899444
 30
0.0
  0
LINE
  5
2516
330
2503
100
AcDbEntity
  8
0
100
AcDbLine
 10
-7.060579595672768
 20
0.0
 30
0.0
 11
-8.383090361431452
 21
0.000125478493126
 31
0.0
  0
LINE
  5
2517
330
2503
100
AcDbEntity
  8
0
100
AcDbLine
 10
-3.315426132023984
 20
3.659182281572335
 30
0.0
 11
-3.916987935652616
 21
2.607328486850942
 31
0.0
  0
ELLIPSE
  5
2518
330
2503
100
AcDbEntity
  8
0
100
AcDbEllipse
 10
-0.0000000000000096
 20
1.840751929562973
 30
0.0
 11
-3.800000000000001
 21
-0.00000000000038
 31
0.0
210
0.0
220
0.0
230
1.0
 40
0.9793010486975813
 41
3.652133070331171
 42
5.772644890437994
  0
LINE
  5
2519
330
2503
100
AcDbEntity
  8
0
100
AcDbLine
 10
3.916987939418494
 20
2.607328484198276
 30
0.0
 11
3.315426132023965
 21
3.659182281572333
 31
0.0
  0
SPLINE
  5
251A
330
2503
100
AcDbEntity
  8
0
100
AcDbSpline
210
0.0
220
0.0
230
1.0
 70
     8
 71
     3
 72
    15
 73
    11
 74
     0
 42
0.000000001
 43
0.0000000001
 40
0.0
 40
0.0
 40
0.0
 40
0.0
 40
0.0744500891009712
 40
0.0744500891009712
 40
0.0744500891009712
 40
0.2802832136207568
 40
0.2802832136207568
 40
0.4839334398384196
 40
0.4839334398384196
 40
0.5479121009238318
 40
0.5479121009238318
 40
0.5479121009238318
 40
0.5479121009238318
 10
3.916987939418584
 20
2.607328484198213
 30
0.0
 10
4.038254433705646
 20
2.395289387064478
 30
0.0
 10
4.174534420808691
 20
2.192363118258131
 30
0.0
 10
4.324587044938593
 20
1.999999999999999
 30
0.0
 10
4.739439476144722
 20
1.468171198294456
 30
0.0
 10
5.257051761990947
 20
1.020338008220875
 30
0.0
 10
6.432048930957895
 20
0.3505849905658506
 30
0.0
 10
7.07793661979244
 20
0.1320611315113609
 30
0.0
 10
7.958603024247375
 20
0.0162995493483992
 30
0.0
 10
8.170701206187315
 20
0.001611861933743
 30
0.0
 10
8.383090362091289
 20
0.0001254784885065
 30
0.0
  0
LINE
  5
251B
330
2503
100
AcDbEntity
  8
0
100
AcDbLine
 10
8.383090361431417
 20
0.0001254784931222
 30
0.0
 11
7.060579595672749
 21
0.0
 31
0.0
  0
SPLINE
  5
251C
330
2503
100
AcDbEntity
  8
0
100
AcDbSpline
210
0.0
220
0.0
230
1.0
 70
     8
 71
     3
 72
    12
 73
     8
 74
     0
 42
0.000000001
 43
0.0000000001
 40
-0.5461217677647915
 40
-0.5461217677647915
 40
-0.5461217677647915
 40
-0.5461217677647915
 40
-0.3773499782934627
 40
-0.3773499782934627
 40
-0.2049885990311662
 40
-0.2049885990311662
 40
0.0
 40
0.0
 40
0.0
 40
0.0
 10
-8.383090361431447
 20
13.7352100527399
 30
0.0
 10
-7.821038690742439
 20
13.7360230491933
 30
0.0
 10
-7.263362611656737
 20
13.75593445260628
 30
0.0
 10
-6.191016572126796
 20
13.8322845320219
 30
0.0
 10
-5.684572209941874
 20
13.88898240715499
 30
0.0
 10
-4.698593650326129
 20
14.04702828137302
 30
0.0
 10
-4.250879397085124
 20
14.15341730046237
 30
0.0
 10
-3.916987939418601
 20
14.27408591072481
 30
0.0
  0
LINE
  5
251D
330
2503
100
AcDbEntity
  8
0
100
AcDbLine
 10
-3.916987939418508
 20
14.2740859107253
 30
0.0
 11
-3.315426132023981
 21
14.49149077574467
 31
0.0
  0
ELLIPSE
  5
251E
330
2503
100
AcDbEntity
  8
0
100
AcDbEllipse
 10
-0.0000000000000068
 20
14.11564424059546
 30
0.0
 11
3.800000000000001
 21
-0.0000000000000798
 31
0.0
210
0.0
220
0.0
230
1.0
 40
0.2024091302778039
 41
0.5105404167452213
 42
2.631052236852045
  0
LINE
  5
251F
330
2503
100
AcDbEntity
  8
0
100
AcDbLine
 10
3.315426132023968
 20
14.49149077574467
 30
0.0
 11
3.9169879356526
 21
14.27408593111094
 31
0.0
  0
SPLINE
  5
2520
330
2503
100
AcDbEntity
  8
0
100
AcDbSpline
210
0.0
220
0.0
230
1.0
 70
     8
 71
     3
 72
    12
 73
     8
 74
     0
 42
0.000000001
 43
0.0000000001
 40
-0.5493256000333844
 40
-0.5493256000333844
 40
-0.5493256000333844
 40
-0.5493256000333844
 40
-0.3729858683705112
 40
-0.3729858683705112
 40
-0.1961062282339164
 40
-0.1961062282339164
 40
-0.0035862437669567
 40
-0.0035862437669567
 40
-0.0035862437669567
 40
-0.0035862437669567
 10
3.916987939418587
 20
14.27408591072482
 30
0.0
 10
4.204415491110101
 20
14.17020938912662
 30
0.0
 10
4.576492515476288
 20
14.07680581822122
 30
0.0
 10
5.459136618203984
 20
13.91884834040903
 30
0.0
 10
5.964416135617685
 20
13.85540685540519
 30
0.0
 10
7.106462830352313
 20
13.76194089005755
 30
0.0
 10
7.741583392361741
 20
13.73613797968662
 30
0.0
 10
8.383090361431422
 20
13.73521005273989
 30
0.0
  0
SPLINE
  5
2521
330
2503
100
AcDbEntity
  8
0
100
AcDbSpline
210
0.0
220
0.0
230
1.0
 70
     8
 71
     3
 72
    12
 73
     8
 74
     0
 42
0.000000001
 43
0.0000000001
 40
0.0
 40
0.0
 40
0.0
 40
0.0
 40
0.4060048347455886
 40
0.4060048347455886
 40
0.5582659198391529
 40
0.5582659198391529
 40
0.6283499314904635
 40
0.6283499314904635
 40
0.6283499314904635
 40
0.6283499314904635
 10
-4.311997071059123
 20
2.016206547962625
 30
0.0
 10
-4.461970658379439
 20
1.822354716411234
 30
0.0
 10
-4.610110556681999
 20
1.645002741516411
 30
0.0
 10
-4.759321341090176
 20
1.475083320820262
 30
0.0
 10
-4.794366203250943
 20
1.436139901342854
 30
0.0
 10
-4.824391587644162
 20
1.402860660313207
 30
0.0
 10
-4.830851944187587
 20
1.395705621966335
 30
0.0
 10
-4.830851945136488
 20
1.395705620911644
 30
0.0
  0
SPLINE
  5
2522
330
2503
100
AcDbEntity
  8
0
100
AcDbSpline
210
0.0
220
0.0
230
1.0
 70
     8
 71
     3
 72
    12
 73
     8
 74
     0
 42
0.000000001
 43
0.0000000001
 40
0.505093761213778
 40
0.505093761213778
 40
0.505093761213778
 40
0.505093761213778
 40
0.5999684745917059
 40
0.5999684745917059
 40
0.7782112718947002
 40
0.7782112718947002
 40
1.133423733714018
 40
1.133423733714018
 40
1.133423733714018
 40
1.133423733714018
 10
4.830936685249481
 20
1.395583702245131
 30
0.0
 10
4.830936685158329
 20
1.395583702346452
 30
0.0
 10
4.819409582543531
 20
1.408330676356012
 30
0.0
 10
4.774052279417445
 20
1.458713481189022
 30
0.0
 10
4.727936209719945
 20
1.510305887485547
 30
0.0
 10
4.571860421108111
 20
1.690578109048574
 30
0.0
 10
4.443149160954347
 20
1.846678144189464
 30
0.0
 10
4.31195454692361
 20
2.016261514285605
 30
0.0
  0
LINE
  5
2523
330
2503
100
AcDbEntity
  8
0
100
AcDbLine
 10
8.38309194767274
 20
0.0
 30
0.0
 11
7.060579595672748
 21
0.0
 31
0.0
  0
LINE
  5
2524
330
2503
100
AcDbEntity
  8
0
100
AcDbLine
 10
8.38309194767274
 20
0.0
 30
0.0
 11
8.383090362091197
 21
0.0001254784839255
 31
0.0
  0
LINE
  5
2525
330
2503
100
AcDbEntity
  8
0
100
AcDbLine
 10
-8.383090361886335
 20
0.0001254784867855
 30
0.0
 11
-8.383091947672767
 21
0.0
 31
0.0
  0
LINE
  5
2526
330
2503
100
AcDbEntity
  8
0
100
AcDbLine
 10
-7.06057959567277
 20
0.0
 30
0.0
 11
-8.383091947672767
 21
0.0
 31
0.0
  0
LINE
  5
2527
330
2503
100
AcDbEntity
  8
0
100
AcDbLine
 10
8.383090361431433
 20
13.73521005273989
 30
0.0
 11
8.357808868957253
 21
14.14855880091286
 31
0.0
  0
LINE
  5
2528
330
2503
100
AcDbEntity
  8
0
100
AcDbLine
 10
7.060579595672756
 20
35.35806993848006
 30
0.0
 11
8.357808868957256
 21
14.14855880091277
 31
0.0
  0
LINE
  5
2529
330
2503
100
AcDbEntity
  8
0
100
AcDbLine
 10
-8.357808868957278
 20
14.14855880091276
 30
0.0
 11
-7.060579595672762
 21
35.35806993848006
 31
0.0
  0
LINE
  5
252A
330
2503
100
AcDbEntity
  8
0
100
AcDbLine
 10
-8.357808868957278
 20
14.14855880091277
 30
0.0
 11
-8.383090361431452
 21
13.73521005273989
 31
0.0
  0
SPLINE
  5
252B
330
2503
100
AcDbEntity
  8
0
100
AcDbSpline
210
0.0
220
0.0
230
1.0
 70
     8
 71
     3
 72
     8
 73
     4
 74
     0
 42
0.000000001
 43
0.0000000001
 40
0.5461217982932628
 40
0.5461217982932628
 40
0.5461217982932628
 40
0.5461217982932628
 40
0.5497101715668976
 40
0.5497101715668976
 40
0.5497101715668976
 40
0.5497101715668976
 10
-8.383090362337755
 20
0.0001254784867855
 30
0.0
 10
-8.395040531329101
 20
0.0000418464710225
 30
0.0
 10
-8.406992678116381
 20
0.000000000000003
 30
0.0
 10
-8.418946583872685
 20
0.000000000000003
 30
0.0
  0
LINE
  5
252C
330
2503
100
AcDbEntity
  8
0
100
AcDbLine
 10
-10.60260341744137
 20
0.0
 30
0.0
 11
-8.418946583872568
 21
0.0
 31
0.0
  0
SPLINE
  5
252D
330
2503
100
AcDbEntity
  8
0
100
AcDbSpline
210
0.0
220
0.0
230
1.0
 70
     8
 71
     3
 72
     8
 73
     4
 74
     0
 42
0.000000001
 43
0.0000000001
 40
0.0
 40
0.0
 40
0.0
 40
0.0
 40
0.0035862437816781
 40
0.0035862437816781
 40
0.0035862437816781
 40
0.0035862437816781
 10
8.418946583872665
 20
-0.0000000000000019
 30
0.0
 10
8.406992437933737
 20
-0.0000000000000019
 30
0.0
 10
8.395040291984587
 20
0.0000418481469987
 30
0.0
 10
8.383090362745949
 20
0.0001254784839255
 30
0.0
  0
LINE
  5
252E
330
2503
100
AcDbEntity
  8
0
100
AcDbLine
 10
8.418946583857966
 20
0.0
 30
0.0
 11
10.60260341744135
 21
0.0
 31
0.0
  0
LINE
  5
252F
330
2503
100
AcDbEntity
  8
0
100
AcDbLine
 10
-8.418946583872568
 20
0.0
 30
0.0
 11
-8.383091947672767
 21
0.0
 31
0.0
  0
LINE
  5
2530
330
2503
100
AcDbEntity
  8
0
100
AcDbLine
 10
8.38309194767274
 20
0.0
 30
0.0
 11
8.418946583857966
 21
0.0
 31
0.0
  0
LINE
  5
2531
330
2503
100
AcDbEntity
  8
0
100
AcDbLine
 10
-25.80504235018953
 20
0.0
 30
0.0
 11
-10.60260341744136
 21
0.0
 31
0.0
  0
LINE
  5
2532
330
2503
100
AcDbEntity
  8
0
100
AcDbLine
 10
10.60260341744135
 20
0.0
 30
0.0
 11
25.8050423501895
 21
0.0
 31
0.0
  0
LINE
  5
2533
330
2503
100
AcDbEntity
  8
0
100
AcDbLine
 10
-25.80504235018953
 20
0.0
 30
0.0
 11
-27.50000000000001
 21
0.0
 31
0.0
  0
LINE
  5
2534
330
2503
100
AcDbEntity
  8
0
100
AcDbLine
 10
27.5
 20
0.0
 30
0.0
 11
25.8050423501895
 21
0.0
 31
0.0
  0
SPLINE
  5
2535
330
2503
100
AcDbEntity
  8
0
100
AcDbSpline
210
0.0
220
0.0
230
1.0
 70
     8
 71
     3
 72
     8
 73
     4
 74
     0
 42
0.000000001
 43
0.0000000001
 40
0.0
 40
0.0
 40
0.0
 40
0.0
 40
1.0
 40
1.0
 40
1.0
 40
1.0
 10
25.80504235018946
 20
-0.0000000000000063
 30
0.0
 10
25.73165759463462
 20
-0.0000000001550411
 30
0.0
 10
25.73165759463627
 20
2.859271175213073
 30
0.0
 10
25.80504235019119
 20
6.000000001226544
 30
0.0
  0
SPLINE
  5
2536
330
2503
100
AcDbEntity
  8
0
100
AcDbSpline
210
0.0
220
0.0
230
1.0
 70
     8
 71
     3
 72
     8
 73
     4
 74
     0
 42
0.000000001
 43
0.0000000001
 40
0.0
 40
0.0
 40
0.0
 40
0.0
 40
1.0
 40
1.0
 40
1.0
 40
1.0
 10
-25.80504235019127
 20
6.000000001228173
 30
0.0
 10
-25.73165759463574
 20
2.859271175214357
 30
0.0
 10
-25.73165759463548
 20
-0.0000000001553124
 30
0.0
 10
-25.80504235018952
 20
0.0000000000000052
 30
0.0
  0
LINE
  5
2537
330
2503
100
AcDbEntity
  8
0
100
AcDbLine
 10
25.80504235019121
 20
6.000000000997904
 30
0.0
 11
27.5
 21
64.99999999999999
 31
0.0
  0
LINE
  5
2538
330
2503
100
AcDbEntity
  8
0
100
AcDbLine
 10
-27.5
 20
65.00000000000001
 30
0.0
 11
-25.80504235019128
 21
6.000000000998921
 31
0.0
  0
SPLINE
  5
2539
330
2503
100
AcDbEntity
  8
0
100
AcDbSpline
210
0.0
220
0.0
230
1.0
 70
     8
 71
     3
 72
     8
 73
     4
 74
     0
 42
0.000000001
 43
0.0000000001
 40
-1.0
 40
-1.0
 40
-1.0
 40
-1.0
 40
-0.6256497319964937
 40
-0.6256497319964937
 40
-0.6256497319964937
 40
-0.6256497319964937
 10
-25.80504235018952
 20
2.000000000000005
 30
0.0
 10
-25.7775707472805
 20
1.999999999961243
 30
0.0
 10
-25.76038314628299
 20
2.267128597340648
 30
0.0
 10
-25.75347954719704
 20
2.711229781934074
 30
0.0
  0
LINE
  5
253A
330
2503
100
AcDbEntity
  8
0
100
AcDbLine
 10
27.5
 20
1.999999999999993
 30
0.0
 11
27.5
 21
0.0
 31
0.0
  0
LINE
  5
253B
330
2503
100
AcDbEntity
  8
0
100
AcDbLine
 10
25.8050423501895
 20
1.999999999999993
 30
0.0
 11
27.5
 21
1.999999999999993
 31
0.0
  0
SPLINE
  5
253C
330
2503
100
AcDbEntity
  8
0
100
AcDbSpline
210
0.0
220
0.0
230
1.0
 70
     8
 71
     3
 72
     8
 73
     4
 74
     0
 42
0.000000001
 43
0.0000000001
 40
-0.3743502680036286
 40
-0.3743502680036286
 40
-0.3743502680036286
 40
-0.3743502680036286
 40
0.0
 40
0.0
 40
0.0
 40
0.0
 10
25.75347954719678
 20
2.711229781934302
 30
0.0
 10
25.76038314628262
 20
2.267128597340781
 30
0.0
 10
25.77757074728012
 20
1.999999999961301
 30
0.0
 10
25.80504235018946
 20
1.999999999999993
 30
0.0
  0
LINE
  5
253D
330
2503
100
AcDbEntity
  8
0
100
AcDbLine
 10
-27.50000000000001
 20
2.000000000000006
 30
0.0
 11
-25.80504235018953
 21
2.000000000000005
 31
0.0
  0
LINE
  5
253E
330
2503
100
AcDbEntity
  8
0
100
AcDbLine
 10
-27.50000000000001
 20
0.0
 30
0.0
 11
-27.50000000000001
 21
2.000000000000006
 31
0.0
  0
LINE
  5
253F
330
2503
100
AcDbEntity
  8
0
100
AcDbLine
 10
22.5
 20
69.99999999999999
 30
0.0
 11
27.5
 21
64.99999999999999
 31
0.0
  0
LINE
  5
2540
330
2503
100
AcDbEntity
  8
0
100
AcDbLine
 10
-27.5
 20
65.00000000000001
 30
0.0
 11
-22.5
 21
70.00000000000001
 31
0.0
  0
LINE
  5
2541
330
2503
100
AcDbEntity
  8
0
100
AcDbLine
 10
-22.5
 20
70.00000000000001
 30
0.0
 11
22.5
 21
69.99999999999999
 31
0.0
  0
CIRCLE
  5
2542
330
2503
100
AcDbEntity
  8
0
100
AcDbCircle
 10
18.56359521202019
 20
15.00000000000001
 30
0.0
 40
2.5
  0
CIRCLE
  5
2543
330
2503
100
AcDbEntity
  8
0
100
AcDbCircle
 10
17.42817976060101
 20
62.5
 30
0.0
 40
2.5
  0
CIRCLE
  5
2544
330
2503
100
AcDbEntity
  8
0
100
AcDbCircle
 10
14.13815712721211
 20
35.00000000000001
 30
0.0
 40
2.5
  0
CIRCLE
  5
2545
330
2503
100
AcDbEntity
  8
0
100
AcDbCircle
 10
0.0000000000000028
 20
57.5
 30
0.0
 40
4.25
  0
CIRCLE
  5
2546
330
2503
100
AcDbEntity
  8
0
100
AcDbCircle
 10
-17.428179760601
 20
62.5
 30
0.0
 40
2.5
  0
CIRCLE
  5
2547
330
2503
100
AcDbEntity
  8
0
100
AcDbCircle
 10
-14.13815712721212
 20
35.00000000000002
 30
0.0
 40
2.5
  0
CIRCLE
  5
2548
330
2503
100
AcDbEntity
  8
0
100
AcDbCircle
 10
-18.5635952120202
 20
15.00000000000002
 30
0.0
 40
2.5
  0
ENDBLK
  5
2505
330
2503
100
AcDbEntity
  8
0
100
AcDbBlockEnd
  0
BLOCK
  5
254A
330
2549
100
AcDbEntity
  8
0
100
AcDbBlockBegin
  2
ABR70-ISO
 70
     0
 10
0.0
 20
0.0
 30
0.0
  3
ABR70-ISO
  1

  0
ELLIPSE
  5
254C
330
2549
100
AcDbEntity
  8
0
100
AcDbEllipse
 10
26.8804602391097
 20
10.08431593446925
 30
0.0
 11
-2.00000000000005
 21
-0.0000000000001192
 31
0.0
210
0.0
220
0.0
230
1.0
 40
0.5773502691896257
 41
3.926990816987
 42
4.311062938819222
  0
ELLIPSE
  5
254D
330
2549
100
AcDbEntity
  8
0
100
AcDbEllipse
 10
23.30209009027522
 20
13.43068328469724
 30
0.0
 11
3.536886804685796
 21
-6.126067646336581
 31
0.0
210
0.0
220
0.0
230
1.0
 40
0.5773502691896259
 41
0.8464846872174724
 42
2.356194490192574
  0
ELLIPSE
  5
254E
330
2549
100
AcDbEntity
  8
0
100
AcDbEllipse
 10
23.30209009027522
 20
13.43068328469724
 30
0.0
 11
-3.536886804686162
 21
6.126067646336366
 31
0.0
210
0.0
220
0.0
230
1.0
 40
0.5773502691896261
 41
5.497787143782126
 42
7.007496946757233
  0
ELLIPSE
  5
254F
330
2549
100
AcDbEntity
  8
0
100
AcDbEllipse
 10
16.89529281669454
 20
15.84925503370412
 30
0.0
 11
-2.0
 21
-0.0000000000001195
 31
0.0
210
0.0
220
0.0
230
1.0
 40
0.5773502691896255
 41
3.542918695154684
 42
3.926990816986905
  0
ELLIPSE
  5
2550
330
2549
100
AcDbEntity
  8
0
100
AcDbEllipse
 10
34.24140912566119
 20
20.0991008548457
 30
0.0
 11
-16.84333620977513
 21
0.0000000000000028
 31
0.0
210
0.0
220
0.0
230
1.0
 40
0.5773502691896253
 41
0.4013260415653228
 42
0.4653890157695022
  0
ELLIPSE
  5
2551
330
2549
100
AcDbEntity
  8
0
100
AcDbEllipse
 10
34.24140912566119
 20
20.0991008548457
 30
0.0
 11
-16.84333620977513
 21
0.0000000000000039
 31
0.0
210
0.0
220
0.0
230
1.0
 40
0.5773502691896254
 41
0.4653890157695022
 42
0.7853981633974483
  0
ELLIPSE
  5
2552
330
2549
100
AcDbEntity
  8
0
100
AcDbEllipse
 10
34.24140912566119
 20
20.0991008548457
 30
0.0
 11
-16.84333620977513
 21
0.0000000000000061
 31
0.0
210
0.0
220
0.0
230
1.0
 40
0.5773502691896254
 41
0.7853981633974492
 42
1.105407311025395
  0
ELLIPSE
  5
2553
330
2549
100
AcDbEntity
  8
0
100
AcDbEllipse
 10
34.24140912566119
 20
20.0991008548457
 30
0.0
 11
-16.84333620977513
 21
0.0000000000000017
 31
0.0
210
0.0
220
0.0
230
1.0
 40
0.5773502691896254
 41
1.105407311025395
 42
1.169470285229573
  0
ELLIPSE
  5
2554
330
2549
100
AcDbEntity
  8
0
100
AcDbEllipse
 10
-5.278211081726733
 20
-22.55638030018809
 30
0.0
 11
-0.9999999999998976
 21
1.732050807568936
 31
0.0
210
0.0
220
0.0
230
1.0
 40
0.5773502691896261
 41
2.356194490192681
 42
2.7402666120249
  0
ELLIPSE
  5
2555
330
2549
100
AcDbEntity
  8
0
100
AcDbEllipse
 10
0.0197321305789355
 20
-26.89554362150238
 30
0.0
 11
-7.07377360937232
 21
-0.0000000000000014
 31
0.0
210
0.0
220
0.0
230
1.0
 40
0.5773502691896258
 41
5.558873667601938
 42
7.068583470577046
  0
ELLIPSE
  5
2556
330
2549
100
AcDbEntity
  8
0
100
AcDbEllipse
 10
0.0197321305789355
 20
-26.89554362150238
 30
0.0
 11
-7.07377360937232
 21
0.0000000000004199
 31
0.0
210
0.0
220
0.0
230
1.0
 40
0.5773502691896259
 41
0.7853981633976837
 42
2.29510796637275
  0
ELLIPSE
  5
2557
330
2549
100
AcDbEntity
  8
0
100
AcDbEllipse
 10
4.706956340688432
 20
-28.32131939942295
 30
0.0
 11
-0.9999999999999229
 21
1.73205080756898
 31
0.0
210
0.0
220
0.0
230
1.0
 40
0.577350269189626
 41
1.972122368360366
 42
2.356194490192585
  0
ELLIPSE
  5
2558
330
2549
100
AcDbEntity
  8
0
100
AcDbEllipse
 10
-0.2856273705191503
 20
-39.70348059132355
 30
0.0
 11
-8.421668104887567
 21
14.58675704214756
 31
0.0
210
0.0
220
0.0
230
1.0
 40
0.5773502691896261
 41
5.113715021950012
 42
5.17777799615419
  0
ELLIPSE
  5
2559
330
2549
100
AcDbEntity
  8
0
100
AcDbEllipse
 10
-0.2856273705191503
 20
-39.70348059132355
 30
0.0
 11
-8.421668104887571
 21
14.58675704214756
 31
0.0
210
0.0
220
0.0
230
1.0
 40
0.5773502691896261
 41
5.177777996154191
 42
5.497787143782137
  0
ELLIPSE
  5
255A
330
2549
100
AcDbEntity
  8
0
100
AcDbEllipse
 10
-0.2856273705191503
 20
-39.70348059132355
 30
0.0
 11
-8.421668104887571
 21
14.58675704214756
 31
0.0
210
0.0
220
0.0
230
1.0
 40
0.5773502691896261
 41
5.497787143782137
 42
5.817796291410084
  0
ELLIPSE
  5
255B
330
2549
100
AcDbEntity
  8
0
100
AcDbEllipse
 10
-0.2856273705191503
 20
-39.70348059132355
 30
0.0
 11
-8.421668104887569
 21
14.58675704214756
 31
0.0
210
0.0
220
0.0
230
1.0
 40
0.5773502691896261
 41
5.817796291410084
 42
5.881859265614263
  0
ELLIPSE
  5
255C
330
2549
100
AcDbEntity
  8
0
100
AcDbEllipse
 10
23.4146954807721
 20
-3.496073135404047
 30
0.0
 11
5.725149534486074
 21
-0.9287964296733001
 31
0.0
210
0.0
220
0.0
230
0.9999999999999998
 40
0.4485387582309029
 41
4.010086983220228
 42
5.07034289327378
  0
LINE
  5
255D
330
2549
100
AcDbEntity
  8
0
100
AcDbLine
 10
25.03035548899445
 20
-6.226668448220832
 30
0.0
 11
26.68261708047936
 21
11.40882587850543
 31
0.0
  0
LINE
  5
255E
330
2549
100
AcDbEntity
  8
0
100
AcDbLine
 10
18.34003844742209
 20
4.223084842996387
 30
0.0
 11
19.18941133489541
 21
15.73503023281157
 31
0.0
  0
ELLIPSE
  5
255F
330
2549
100
AcDbEntity
  8
0
100
AcDbEllipse
 10
23.4146954807721
 20
-3.496073135404047
 30
0.0
 11
-5.725149534486033
 21
0.9287964296735655
 31
0.0
210
0.0
220
0.0
230
1.0
 40
0.4485387582309032
 41
0.0259723897978868
 42
0.8684943296307837
  0
LINE
  5
2560
330
2549
100
AcDbEntity
  8
0
100
AcDbLine
 10
18.46027263029689
 20
7.217804174457656
 30
0.0
 11
18.73638041560584
 21
16.30032651848047
 31
0.0
  0
SPLINE
  5
2561
330
2549
100
AcDbEntity
  8
0
100
AcDbSpline
210
0.0
220
0.0
230
1.0
 70
     8
 71
     3
 72
     8
 73
     4
 74
     0
 42
0.000000001
 43
0.0000000001
 40
0.2441687560962515
 40
0.2441687560962515
 40
0.2441687560962515
 40
0.2441687560962515
 40
0.329363208254894
 40
0.329363208254894
 40
0.329363208254894
 40
0.329363208254894
 10
17.9026406806481
 20
-0.4921580116740332
 30
0.0
 10
17.76443662459086
 20
-0.3626229456102004
 30
0.0
 10
17.59290062395612
 20
-0.2380091867243905
 30
0.0
 10
17.39222676317439
 20
-0.1221500791827434
 30
0.0
  0
LINE
  5
2562
330
2549
100
AcDbEntity
  8
0
100
AcDbLine
 10
17.39222676317445
 20
-0.1221500791822927
 30
0.0
 11
18.30950637906764
 21
16.66575161463185
 31
0.0
  0
SPLINE
  5
2563
330
2549
100
AcDbEntity
  8
0
100
AcDbSpline
210
0.0
220
0.0
230
1.0
 70
     8
 71
     3
 72
    12
 73
     8
 74
     0
 42
0.000000001
 43
0.0000000001
 40
0.0
 40
0.0
 40
0.0
 40
0.0
 40
0.1173410086684419
 40
0.1173410086684419
 40
0.2232347004282379
 40
0.2232347004282379
 40
0.3291246614663504
 40
0.3291246614663504
 40
0.3291246614663504
 40
0.3291246614663504
 10
29.21195341737603
 20
-6.94627244473385
 30
0.0
 10
28.93537800757361
 20
-6.786591557433193
 30
0.0
 10
28.60840206534451
 20
-6.646388594667742
 30
0.0
 10
27.92698163953927
 20
-6.430256155556407
 30
0.0
 10
27.58309448589731
 20
-6.350893369710744
 30
0.0
 10
26.88485354707685
 20
-6.244696190953437
 30
0.0
 10
26.53495058547632
 20
-6.218534313944283
 30
0.0
 10
26.19949687524603
 20
-6.220347842068287
 30
0.0
  0
LINE
  5
2564
330
2549
100
AcDbEntity
  8
0
100
AcDbLine
 10
28.2946738014828
 20
10.90081251539698
 30
0.0
 11
29.21195341737597
 21
-6.946272444733335
 31
0.0
  0
LINE
  5
2565
330
2549
100
AcDbEntity
  8
0
100
AcDbLine
 10
26.19949687524608
 20
-6.220347842067864
 30
0.0
 11
27.66173896858789
 21
11.1472683553024
 31
0.0
  0
LINE
  5
2566
330
2549
100
AcDbEntity
  8
0
100
AcDbLine
 10
25.03035548899439
 20
-6.226668448221214
 30
0.0
 11
26.19949687524603
 21
-6.220347842068281
 31
0.0
  0
ELLIPSE
  5
2567
330
2549
100
AcDbEntity
  8
0
100
AcDbEllipse
 10
14.73503588930642
 20
-18.52968454022512
 30
0.0
 11
3.666936070284403
 21
-4.493726722492946
 31
0.0
210
0.0
220
0.0
230
1.0
 40
0.4485387582309036
 41
1.212842413905805
 42
2.273098323959359
  0
ELLIPSE
  5
2568
330
2549
100
AcDbEntity
  8
0
100
AcDbEllipse
 10
14.73503588930642
 20
-18.52968454022512
 30
0.0
 11
-3.666936070284612
 21
4.493726722492775
 31
0.0
210
0.0
220
0.0
230
1.0
 40
0.4485387582309036
 41
5.414690977548803
 42
6.257212917381698
  0
LINE
  5
2569
330
2549
100
AcDbEntity
  8
0
100
AcDbLine
 10
5.512703967259049
 20
-17.99449284492465
 30
0.0
 11
-4.032230243311123
 21
-24.48603281579608
 31
0.0
  0
LINE
  5
256A
330
2549
100
AcDbEntity
  8
0
100
AcDbLine
 10
17.90763080177166
 20
-18.56358949481584
 30
0.0
 11
3.460975502272818
 21
-28.81223717010222
 31
0.0
  0
LINE
  5
256B
330
2549
100
AcDbEntity
  8
0
100
AcDbLine
 10
2.979334540698892
 20
-19.59596714555433
 30
0.0
 11
-4.748306647010163
 21
-24.37634467382594
 31
0.0
  0
SPLINE
  5
256C
330
2549
100
AcDbEntity
  8
0
100
AcDbSpline
210
0.0
220
0.0
230
1.0
 70
     8
 71
     3
 72
     8
 73
     4
 74
     0
 42
0.000000001
 43
0.0000000001
 40
0.0
 40
0.0
 40
0.0
 40
0.0
 40
0.085178803252184
 40
0.085178803252184
 40
0.085178803252184
 40
0.085178803252184
 10
8.801898453405879
 20
-15.00103516539907
 30
0.0
 10
9.002666818049128
 20
-15.11694883477061
 30
0.0
 10
9.196274561772641
 20
-15.20313118547138
 30
0.0
 10
9.377377245039468
 20
-15.25801323052528
 30
0.0
  0
LINE
  5
256D
330
2549
100
AcDbEntity
  8
0
100
AcDbLine
 10
-5.278211081726733
 20
-24.18937346204354
 30
0.0
 11
8.801898453405527
 21
-15.00103516539934
 31
0.0
  0
SPLINE
  5
256E
330
2549
100
AcDbEntity
  8
0
100
AcDbSpline
210
0.0
220
0.0
230
1.0
 70
     8
 71
     3
 72
    12
 73
     8
 74
     0
 42
0.000000001
 43
0.0000000001
 40
0.0
 40
0.0
 40
0.0
 40
0.0
 40
0.1232182299560861
 40
0.1232182299560861
 40
0.2264867741882525
 40
0.2264867741882525
 40
0.3293632082549001
 40
0.3293632082549001
 40
0.3293632082549001
 40
0.3293632082549001
 10
18.48672768940201
 20
-19.57925593900174
 30
0.0
 10
18.67993410431889
 20
-19.91811680429782
 30
0.0
 10
18.91543366287992
 20
-20.25457524320844
 30
0.0
 10
19.4009619912603
 20
-20.83214424993894
 30
0.0
 10
19.63950792568562
 20
-21.07634778569793
 30
0.0
 10
20.13033633212121
 20
-21.50421553552995
 30
0.0
 10
20.37930168531275
 20
-21.68525203785733
 30
0.0
 10
20.62162510760752
 20
-21.82515753095017
 30
0.0
  0
LINE
  5
256F
330
2549
100
AcDbEntity
  8
0
100
AcDbLine
 10
18.48672768940169
 20
-19.57925593900199
 30
0.0
 11
4.177051905971858
 21
-29.52940283700404
 31
0.0
  0
LINE
  5
2570
330
2549
100
AcDbEntity
  8
0
100
AcDbLine
 10
20.62162510760703
 20
-21.82515753095037
 30
0.0
 11
4.706956340688432
 21
-29.95431256127841
 31
0.0
  0
LINE
  5
2571
330
2549
100
AcDbEntity
  8
0
100
AcDbLine
 10
17.90763080177196
 20
-18.5635894948156
 30
0.0
 11
18.48672768940201
 21
-19.57925593900174
 31
0.0
  0
SPLINE
  5
2572
330
2549
100
AcDbEntity
  8
0
100
AcDbSpline
210
0.0
220
0.0
230
1.0
 70
     8
 71
     3
 72
    32
 73
    28
 74
     0
 42
0.000000001
 43
0.0000000001
 40
0.0
 40
0.0
 40
0.0
 40
0.0
 40
0.451295002032237
 40
0.451295002032237
 40
0.6205180989300075
 40
0.6205180989300075
 40
0.6839726091794843
 40
0.6839726091794843
 40
0.731571414729451
 40
0.731571414729451
 40
0.7372143413777918
 40
0.7372143413777918
 40
0.7400455753065601
 40
0.7400455753065601
 40
0.7403991331138523
 40
0.7403991331138523
 40
0.7405759025306339
 40
0.7405759025306339
 40
0.7407536580789956
 40
0.7407536580789956
 40
0.7408422141854656
 40
0.7408422141854656
 40
0.7409309285737993
 40
0.7409309285737993
 40
0.7410569089582806
 40
0.7410569089582806
 40
0.7410897320205244
 40
0.7410897320205244
 40
0.7410897320205244
 40
0.7410897320205244
 10
17.6806579183338
 20
-2.634278293100027
 30
0.0
 10
17.82245990199956
 20
-1.262122322180712
 30
0.0
 10
17.96880420648549
 20
0.1178790190366641
 30
0.0
 10
18.15404632705885
 20
2.040065457737407
 30
0.0
 10
18.20284432003943
 20
2.566882356478672
 30
0.0
 10
18.26578034429037
 20
3.296271200905305
 30
0.0
 10
18.2825154680967
 20
3.495695651094727
 30
0.0
 10
18.31093013789118
 20
3.846245519311297
 30
0.0
 10
18.32278530960249
 20
3.99626691213617
 30
0.0
 10
18.33587068608754
 20
4.167916087589711
 30
0.0
 10
18.33725781374621
 20
4.186193653489642
 30
0.0
 10
18.3393550983635
 20
4.21398988434203
 30
0.0
 10
18.34007201108644
 20
4.223517998358719
 30
0.0
 10
18.34085902231143
 20
4.234025579594218
 30
0.0
 10
18.34094632228736
 20
4.235191889266425
 30
0.0
 10
18.3410723501919
 20
4.236876849315407
 30
0.0
 10
18.34111374340918
 20
4.237430484683192
 30
0.0
 10
18.3411924724948
 20
4.238483930445998
 30
0.0
 10
18.3412304086556
 20
4.238991786616644
 30
0.0
 10
18.34127874963457
 20
4.239639227782463
 30
0.0
 10
18.3412935288257
 20
4.239837223757745
 30
0.0
 10
18.34131896979701
 20
4.24017813341037
 30
0.0
 10
18.34132974168324
 20
4.240322522204551
 30
0.0
 10
18.34134970515708
 20
4.240590171809095
 30
0.0
 10
18.34135646572724
 20
4.24068086601096
 30
0.0
 10
18.34135920929757
 20
4.240717674713216
 30
0.0
 10
18.34135948169339
 20
4.240721329903944
 30
0.0
 10
18.34135948159968
 20
4.240721328646513
 30
0.0
  0
SPLINE
  5
2573
330
2549
100
AcDbEntity
  8
0
100
AcDbSpline
210
0.0
220
0.0
230
1.0
 70
     8
 71
     3
 72
    24
 73
    20
 74
     0
 42
0.000000001
 43
0.0000000001
 40
0.0265862437158455
 40
0.0265862437158455
 40
0.0265862437158455
 40
0.0265862437158455
 40
0.0267580280862506
 40
0.0267580280862506
 40
0.0319381394411778
 40
0.0319381394411778
 40
0.037932126075604
 40
0.037932126075604
 40
0.0463420728719061
 40
0.0463420728719061
 40
0.0598268061400983
 40
0.0598268061400983
 40
0.0842635094256362
 40
0.0842635094256362
 40
0.1340356331907244
 40
0.1340356331907244
 40
0.2475395519507721
 40
0.2475395519507721
 40
0.3557205176305418
 40
0.3557205176305418
 40
0.3557205176305418
 40
0.3557205176305418
 10
18.33273086299825
 20
4.126769891646972
 30
0.0
 10
18.33275331891474
 20
4.127116184975783
 30
0.0
 10
18.33277591188359
 20
4.127464787230998
 30
0.0
 10
18.33348400364389
 20
4.138396661977557
 30
0.0
 10
18.33430090096421
 20
4.151193025759683
 30
0.0
 10
18.3361794128545
 20
4.181145761667601
 30
0.0
 10
18.33727403817795
 20
4.198902137069282
 30
0.0
 10
18.33994119556375
 20
4.24292873777524
 30
0.0
 10
18.34155017242639
 20
4.270093561619045
 30
0.0
 10
18.34568813115932
 20
4.341400715196074
 30
0.0
 10
18.34822032725102
 20
4.386455704304427
 30
0.0
 10
18.35512482265013
 20
4.512613254796013
 30
0.0
 10
18.35937798444507
 20
4.594236641650624
 30
0.0
 10
18.37168111685722
 20
4.839313461600909
 30
0.0
 10
18.37919710868809
 20
5.001641341070495
 30
0.0
 10
18.40218883889228
 20
5.526160846893899
 30
0.0
 10
18.41573051915003
 20
5.881531635182069
 30
0.0
 10
18.43979129027587
 20
6.564231750280786
 30
0.0
 10
18.45038738131863
 20
6.892630457894613
 30
0.0
 10
18.46027263029686
 20
7.217804174457633
 30
0.0
  0
SPLINE
  5
2574
330
2549
100
AcDbEntity
  8
0
100
AcDbSpline
210
0.0
220
0.0
230
1.0
 70
     8
 71
     3
 72
    26
 73
    22
 74
     0
 42
0.000000001
 43
0.0000000001
 40
0.0
 40
0.0
 40
0.0
 40
0.0
 40
0.0498501159881536
 40
0.0498501159881536
 40
0.0685454833861394
 40
0.0685454833861394
 40
0.0825878100820255
 40
0.0825878100820255
 40
0.0850868020418258
 40
0.0850868020418258
 40
0.0863429337886393
 40
0.0863429337886393
 40
0.0866554751536378
 40
0.0866554751536378
 40
0.0869692353467545
 40
0.0869692353467545
 40
0.0872848991319727
 40
0.0872848991319727
 40
0.087600837235411
 40
0.087600837235411
 40
0.0878970109238009
 40
0.0878970109238009
 40
0.0878970109238009
 40
0.0878970109238009
 10
18.4602726302969
 20
7.217804174459054
 30
0.0
 10
18.46469176380339
 20
7.363170878874882
 30
0.0
 10
18.46908086351385
 20
7.509121973170842
 30
0.0
 10
18.47507105777812
 20
7.713085202093273
 30
0.0
 10
18.47670030042698
 20
7.769061493247352
 30
0.0
 10
18.47955693152216
 20
7.868724596796223
 30
0.0
 10
18.48078168094123
 20
7.911860246851814
 30
0.0
 10
18.48226287088386
 20
7.965399910168001
 30
0.0
 10
18.48248953225914
 20
7.973633627520076
 30
0.0
 10
18.48283070371692
 20
7.986126706656941
 30
0.0
 10
18.48294765829913
 20
7.990427209990984
 30
0.0
 10
18.4830842233801
 20
7.995479483831859
 30
0.0
 10
18.48311102238666
 20
7.996472557395158
 30
0.0
 10
18.48316208466233
 20
7.998368108993114
 30
0.0
 10
18.48318663850365
 20
7.999281436639343
 30
0.0
 10
18.48323020773006
 20
8.000905245986976
 30
0.0
 10
18.48324952028825
 20
8.001626848579299
 30
0.0
 10
18.48327907326606
 20
8.00273315127262
 30
0.0
 10
18.48328964998172
 20
8.00313033327315
 30
0.0
 10
18.48330197093094
 20
8.003593615219035
 30
0.0
 10
18.48330448348444
 20
8.003688495476557
 30
0.0
 10
18.48330448350336
 20
8.003688496190674
 30
0.0
  0
SPLINE
  5
2575
330
2549
100
AcDbEntity
  8
0
100
AcDbSpline
210
0.0
220
0.0
230
1.0
 70
     8
 71
     3
 72
    32
 73
    28
 74
     0
 42
0.000000001
 43
0.0000000001
 40
0.014304199369944
 40
0.014304199369944
 40
0.014304199369944
 40
0.014304199369944
 40
0.0143194643341471
 40
0.0143194643341471
 40
0.0144039748094788
 40
0.0144039748094788
 40
0.0144886111611723
 40
0.0144886111611723
 40
0.0145732479338008
 40
0.0145732479338008
 40
0.0147443043800519
 40
0.0147443043800519
 40
0.0150869354583647
 40
0.0150869354583647
 40
0.0164605597935592
 40
0.0164605597935592
 40
0.0218750645498799
 40
0.0218750645498799
 40
0.032424114390051
 40
0.032424114390051
 40
0.0640621177064373
 40
0.0640621177064373
 40
0.1589683757886461
 40
0.1589683757886461
 40
0.4437328452783217
 40
0.4437328452783217
 40
0.7554079498359574
 40
0.7554079498359574
 40
0.7554079498359574
 40
0.7554079498359574
 10
5.498107339993431
 20
-18.0044439150331
 30
0.0
 10
5.498107339912953
 20
-18.00444391508792
 30
0.0
 10
5.49810799406234
 20
-18.00444346949303
 30
0.0
 10
5.498116709334892
 20
-18.00443753273073
 30
0.0
 10
5.498145303729295
 20
-18.00441805438235
 30
0.0
 10
5.498251283092145
 20
-18.00434585701979
 30
0.0
 10
5.49832954086807
 20
-18.00429254333046
 30
0.0
 10
5.498533203589051
 20
-18.0041537894524
 30
0.0
 10
5.498659676228109
 20
-18.00406762176415
 30
0.0
 10
5.499096638794007
 20
-18.0037698989996
 30
0.0
 10
5.499469060277708
 20
-18.00351613356975
 30
0.0
 10
5.500664332038878
 20
-18.00270161629323
 30
0.0
 10
5.501584341034786
 20
-18.00207459366323
 30
0.0
 10
5.506178542976211
 20
-17.99894308649802
 30
0.0
 10
5.510069732320248
 20
-17.99628966825261
 30
0.0
 10
5.528715607788581
 20
-17.98357139512591
 30
0.0
 10
5.543345839640132
 20
-17.97358153701675
 30
0.0
 10
5.586132782650383
 20
-17.94434482272147
 30
0.0
 10
5.614097774620492
 20
-17.92520809487028
 30
0.0
 10
5.725573387738722
 20
-17.84883224046502
 30
0.0
 10
5.808368267295693
 20
-17.79189915757109
 30
0.0
 10
6.138646078177898
 20
-17.56409168985823
 30
0.0
 10
6.383992697574296
 20
-17.39329084006737
 30
0.0
 10
7.360365755874694
 20
-16.70882866796204
 30
0.0
 10
8.080591511136601
 20
-16.19334147369192
 30
0.0
 10
9.575968847228924
 20
-15.11560341071908
 30
0.0
 10
10.34996330064814
 20
-14.55339306291709
 30
0.0
 10
11.12168088180159
 20
-13.99475976605135
 30
0.0
  0
SPLINE
  5
2576
330
2549
100
AcDbEntity
  8
0
100
AcDbSpline
210
0.0
220
0.0
230
1.0
 70
     8
 71
     3
 72
    20
 73
    16
 74
     0
 42
0.000000001
 43
0.0000000001
 40
0.0
 40
0.0
 40
0.0
 40
0.0
 40
0.2086742496959374
 40
0.2086742496959374
 40
0.2615217506491905
 40
0.2615217506491905
 40
0.2958512483801491
 40
0.2958512483801491
 40
0.3098101976543918
 40
0.3098101976543918
 40
0.3203048482477357
 40
0.3203048482477357
 40
0.3254248923392935
 40
0.3254248923392935
 40
0.3289782400684377
 40
0.3289782400684377
 40
0.3289782400684377
 40
0.3289782400684377
 10
2.979334540698901
 20
-19.59596714555428
 30
0.0
 10
3.513005923562237
 20
-19.2658339750107
 30
0.0
 10
4.055691456876129
 20
-18.92791611074992
 30
0.0
 10
4.761005499249774
 20
-18.47968132085563
 30
0.0
 10
4.905354149766527
 20
-18.38745893563066
 30
0.0
 10
5.146313837829596
 20
-18.23223735921851
 30
0.0
 10
5.242729379487929
 20
-18.16980323888484
 30
0.0
 10
5.377451832158632
 20
-18.08186542896683
 30
0.0
 10
5.41655583366654
 20
-18.05625589075442
 30
0.0
 10
5.483058371715294
 20
-18.01252162056588
 30
0.0
 10
5.511423084514028
 20
-17.99380516481974
 30
0.0
 10
5.549579959925989
 20
-17.96853138769664
 30
0.0
 10
5.561540955954999
 20
-17.96059202575753
 30
0.0
 10
5.579619186165563
 20
-17.94856801196428
 30
0.0
 10
5.586471839924129
 20
-17.94400243014717
 30
0.0
 10
5.592473801453154
 20
-17.93999819765508
 30
0.0
  0
SPLINE
  5
2577
330
2549
100
AcDbEntity
  8
0
100
AcDbSpline
210
0.0
220
0.0
230
1.0
 70
     8
 71
     3
 72
    22
 73
    18
 74
     0
 42
0.000000001
 43
0.0000000001
 40
1.127677818516044
 40
1.127677818516044
 40
1.127677818516044
 40
1.127677818516044
 40
1.12798383509912
 40
1.12798383509912
 40
1.128185162519544
 40
1.128185162519544
 40
1.128386727877176
 40
1.128386727877176
 40
1.128691098114017
 40
1.128691098114017
 40
1.12903221010684
 40
1.12903221010684
 40
1.129985302733537
 40
1.129985302733537
 40
1.134843332879816
 40
1.134843332879816
 40
1.215502057912002
 40
1.215502057912002
 40
1.215502057912002
 40
1.215502057912002
 10
2.310254680245966
 20
-20.00885547639355
 30
0.0
 10
2.310254670885196
 20
-20.00885548213379
 30
0.0
 10
2.310341620541009
 20
-20.00880216405926
 30
0.0
 10
2.310682206723377
 20
-20.008593259314
 30
0.0
 10
2.310870329795853
 20
-20.00847786391625
 30
0.0
 10
2.311357407306835
 20
-20.00817905600738
 30
0.0
 10
2.311659431151391
 20
-20.00799376005024
 30
0.0
 10
2.31253955942952
 20
-20.00745373420001
 30
0.0
 10
2.313190764366388
 20
-20.00705412517294
 30
0.0
 10
2.314696102433857
 20
-20.00613025418952
 30
0.0
 10
2.315577837159659
 20
-20.00558903927556
 30
0.0
 10
2.319016352295766
 20
-20.0034781943235
 30
0.0
 10
2.321787829563857
 20
-20.00177631251206
 30
0.0
 10
2.338286635468587
 20
-19.99164256766609
 30
0.0
 10
2.351939842601593
 20
-19.98324807123906
 30
0.0
 10
2.584080524169878
 20
-19.84045707796536
 30
0.0
 10
2.779214492836081
 20
-19.7197629270253
 30
0.0
 10
2.979334540697684
 20
-19.59596714555504
 30
0.0
  0
LINE
  5
2578
330
2549
100
AcDbEntity
  8
0
100
AcDbLine
 10
40.62620622934563
 20
33.69920956247366
 30
0.0
 11
8.806401075950978
 21
52.07038263334748
 31
0.0
  0
LINE
  5
2579
330
2549
100
AcDbEntity
  8
0
100
AcDbLine
 10
-40.69107360710733
 20
-33.66175836406374
 30
0.0
 11
-8.871268453712687
 21
-52.03293143493756
 31
0.0
  0
LINE
  5
257A
330
2549
100
AcDbEntity
  8
0
100
AcDbLine
 10
-40.69107360710733
 20
-32.02876520220829
 30
0.0
 11
-8.871268453712687
 21
-50.39993827308212
 31
0.0
  0
LINE
  5
257B
330
2549
100
AcDbEntity
  8
0
100
AcDbLine
 10
7.392187513577885
 20
51.25388605241976
 30
0.0
 11
39.21199266697254
 21
32.88271298154594
 31
0.0
  0
LINE
  5
257C
330
2549
100
AcDbEntity
  8
0
100
AcDbLine
 10
44.16174013527837
 20
27.57548520551573
 30
0.0
 11
40.62620622934563
 21
33.69920956247366
 31
0.0
  0
LINE
  5
257D
330
2549
100
AcDbEntity
  8
0
100
AcDbLine
 10
-8.871268453712687
 20
-52.03293143493756
 30
0.0
 11
-1.800200641847209
 21
-52.03293143493756
 31
0.0
  0
LINE
  5
257E
330
2549
100
AcDbEntity
  8
0
100
AcDbLine
 10
-40.69107360710733
 20
-32.02876520220829
 30
0.0
 11
-40.69107360710733
 21
-27.94628229756966
 31
0.0
  0
LINE
  5
257F
330
2549
100
AcDbEntity
  8
0
100
AcDbLine
 10
-1.800200641847209
 20
-50.39993827308212
 30
0.0
 11
-8.871268453712687
 21
-50.39993827308212
 31
0.0
  0
LINE
  5
2580
330
2549
100
AcDbEntity
  8
0
100
AcDbLine
 10
39.21199266697254
 20
32.88271298154594
 30
0.0
 11
42.74752657290527
 21
26.758988624588
 31
0.0
  0
LINE
  5
2581
330
2549
100
AcDbEntity
  8
0
100
AcDbLine
 10
3.856653607645146
 20
49.21264460010045
 30
0.0
 11
7.392187513577885
 21
51.25388605241976
 31
0.0
  0
LINE
  5
2582
330
2549
100
AcDbEntity
  8
0
100
AcDbLine
 10
-40.69107360710733
 20
-33.66175836406374
 30
0.0
 11
-40.69107360710733
 21
-32.02876520220829
 31
0.0
  0
LINE
  5
2583
330
2549
100
AcDbEntity
  8
0
100
AcDbLine
 10
-8.871268453712687
 20
-50.39993827308212
 30
0.0
 11
-8.871268453712687
 21
-52.03293143493756
 31
0.0
  0
LINE
  5
2584
330
2549
100
AcDbEntity
  8
0
100
AcDbLine
 10
40.62620622934563
 20
33.69920956247366
 30
0.0
 11
39.21199266697254
 21
32.88271298154594
 31
0.0
  0
LINE
  5
2585
330
2549
100
AcDbEntity
  8
0
100
AcDbLine
 10
7.392187513577885
 20
51.25388605241976
 30
0.0
 11
8.806401075950979
 21
52.07038263334748
 31
0.0
  0
LINE
  5
2586
330
2549
100
AcDbEntity
  8
0
100
AcDbLine
 10
44.16174013527837
 20
27.57548520551573
 30
0.0
 11
42.96322408727335
 21
-19.90584950603448
 31
0.0
  0
SPLINE
  5
2587
330
2549
100
AcDbEntity
  8
0
100
AcDbSpline
210
0.0
220
0.0
230
1.0
 70
     8
 71
     3
 72
     8
 73
     4
 74
     0
 42
0.000000001
 43
0.0000000001
 40
0.0
 40
0.0
 40
0.0
 40
0.0
 40
1.0
 40
1.0
 40
1.0
 40
1.0
 10
42.96322408727333
 20
-19.90584950603448
 30
0.0
 10
42.91133322909441
 20
-22.44028465302488
 30
0.0
 10
40.88952319174156
 20
-25.94216236061953
 30
0.0
 10
38.72058339928797
 20
-27.25431873512729
 30
0.0
  0
LINE
  5
2588
330
2549
100
AcDbEntity
  8
0
100
AcDbLine
 10
38.72058339944965
 20
-27.25431873503396
 30
0.0
 11
-1.800200641847204
 21
-52.03293143493756
 31
0.0
  0
LINE
  5
2589
330
2549
100
AcDbEntity
  8
0
100
AcDbLine
 10
2.226742530196386
 20
-4.551596723552593
 30
0.0
 11
-40.69107360710733
 21
-27.94628229756966
 31
0.0
  0
LINE
  5
258A
330
2549
100
AcDbEntity
  8
0
100
AcDbLine
 10
-1.800200641847209
 20
-50.39993827308212
 30
0.0
 11
38.72058339944965
 21
-25.6213255731785
 31
0.0
  0
SPLINE
  5
258B
330
2549
100
AcDbEntity
  8
0
100
AcDbSpline
210
0.0
220
0.0
230
1.0
 70
     8
 71
     3
 72
     8
 73
     4
 74
     0
 42
0.000000001
 43
0.0000000001
 40
-1.0
 40
-1.0
 40
-1.0
 40
-1.0
 40
0.0
 40
0.0
 40
0.0
 40
0.0
 10
5.05516965565016
 20
0.3473827625823578
 30
0.0
 10
5.107060514011354
 20
-1.392172670417493
 30
0.0
 10
3.759187155774417
 20
-3.726757808810179
 30
0.0
 10
2.226742530323773
 20
-4.551596723479063
 30
0.0
  0
LINE
  5
258C
330
2549
100
AcDbEntity
  8
0
100
AcDbLine
 10
42.74752657290527
 20
26.758988624588
 30
0.0
 11
44.16174013527837
 21
27.57548520551573
 31
0.0
  0
LINE
  5
258D
330
2549
100
AcDbEntity
  8
0
100
AcDbLine
 10
41.54901052490026
 20
-20.72234608704282
 30
0.0
 11
42.74752657290527
 21
26.758988624588
 31
0.0
  0
LINE
  5
258E
330
2549
100
AcDbEntity
  8
0
100
AcDbLine
 10
41.54901052490026
 20
-20.72234608704282
 30
0.0
 11
42.17126449238029
 21
-20.36308759137843
 31
0.0
  0
LINE
  5
258F
330
2549
100
AcDbEntity
  8
0
100
AcDbLine
 10
42.17126449238029
 20
-20.36308759137843
 30
0.0
 11
42.96322408727335
 21
-19.90584950603448
 31
0.0
  0
SPLINE
  5
2590
330
2549
100
AcDbEntity
  8
0
100
AcDbSpline
210
0.0
220
0.0
230
1.0
 70
     8
 71
     3
 72
     8
 73
     4
 74
     0
 42
0.000000001
 43
0.0000000001
 40
-1.0
 40
-1.0
 40
-1.0
 40
-1.0
 40
0.0
 40
0.0
 40
0.0
 40
0.0
 10
38.72058339957707
 20
-25.62132557310492
 30
0.0
 10
40.14924630844993
 20
-24.73656825643261
 30
0.0
 10
41.49711966668477
 20
-22.40198311803596
 30
0.0
 10
41.54901052490024
 20
-20.72234608704281
 30
0.0
  0
LINE
  5
2591
330
2549
100
AcDbEntity
  8
0
100
AcDbLine
 10
38.72058339944965
 20
-25.6213255731785
 30
0.0
 11
38.72058339944965
 21
-26.3398425643677
 31
0.0
  0
LINE
  5
2592
330
2549
100
AcDbEntity
  8
0
100
AcDbLine
 10
38.72058339944965
 20
-26.3398425643677
 30
0.0
 11
38.72058339944965
 21
-27.25431873503396
 31
0.0
  0
LINE
  5
2593
330
2549
100
AcDbEntity
  8
0
100
AcDbLine
 10
-1.800200641847209
 20
-52.03293143493756
 30
0.0
 11
-1.800200641847209
 21
-50.39993827308212
 31
0.0
  0
LINE
  5
2594
330
2549
100
AcDbEntity
  8
0
100
AcDbLine
 10
3.856653607645146
 20
49.21264460010045
 30
0.0
 11
5.055169655650155
 21
0.3473827625820736
 31
0.0
  0
ELLIPSE
  5
2595
330
2549
100
AcDbEntity
  8
0
100
AcDbEllipse
 10
11.58985959502669
 20
5.556040157056061
 30
0.0
 11
1.250000000000129
 21
-2.165063509461021
 31
0.0
210
0.0
220
0.0
230
1.0
 40
0.5773502691896261
 41
3.742856870268576
 42
5.68192109050012
  0
ELLIPSE
  5
2596
330
2549
100
AcDbEntity
  8
0
100
AcDbEllipse
 10
14.71911687451569
 20
20.07929424293401
 30
0.0
 11
1.25000000000013
 21
-2.165063509461021
 31
0.0
210
0.0
220
0.0
230
1.0
 40
0.577350269189626
 41
3.742856870268578
 42
5.681921090500121
  0
ELLIPSE
  5
2597
330
2549
100
AcDbEntity
  8
0
100
AcDbEllipse
 10
12.39271956018918
 20
43.87609633411488
 30
0.0
 11
1.25000000000013
 21
-2.165063509461021
 31
0.0
210
0.0
220
0.0
230
1.0
 40
0.577350269189626
 41
3.742856870268578
 42
5.681921090500116
  0
ELLIPSE
  5
2598
330
2549
100
AcDbEntity
  8
0
100
AcDbEllipse
 10
13.3049033121426
 20
19.26279766200628
 30
0.0
 11
1.25
 21
-2.165063509461095
 31
0.0
210
0.0
220
0.0
230
1.0
 40
0.5773502691896262
 41
0.0
 42
6.283185307179586
  0
ELLIPSE
  5
2599
330
2549
100
AcDbEntity
  8
0
100
AcDbEllipse
 10
10.97850599781609
 20
43.05959975318716
 30
0.0
 11
1.25
 21
-2.165063509461095
 31
0.0
210
0.0
220
0.0
230
1.0
 40
0.5773502691896262
 41
0.0
 42
6.283185307179586
  0
ELLIPSE
  5
259A
330
2549
100
AcDbEntity
  8
0
100
AcDbEllipse
 10
10.1756460326536
 20
4.739543576128337
 30
0.0
 11
1.25
 21
-2.165063509461095
 31
0.0
210
0.0
220
0.0
230
1.0
 40
0.5773502691896262
 41
0.0
 42
6.283185307179586
  0
ELLIPSE
  5
259B
330
2549
100
AcDbEntity
  8
0
100
AcDbEllipse
 10
37.84274771026992
 20
-9.601071863284726
 30
0.0
 11
1.25000000000013
 21
-2.165063509461021
 31
0.0
210
0.0
220
0.0
230
1.0
 40
0.577350269189626
 41
3.742856870268578
 42
5.681921090500118
  0
ELLIPSE
  5
259C
330
2549
100
AcDbEntity
  8
0
100
AcDbEllipse
 10
34.71349043078092
 20
8.535537287946352
 30
0.0
 11
1.25000000000013
 21
-2.165063509461021
 31
0.0
210
0.0
220
0.0
230
1.0
 40
0.577350269189626
 41
3.742856870268578
 42
5.681921090500118
  0
ELLIPSE
  5
259D
330
2549
100
AcDbEntity
  8
0
100
AcDbEllipse
 10
37.03988774510742
 20
29.64604714779039
 30
0.0
 11
1.25000000000013
 21
-2.165063509461021
 31
0.0
210
0.0
220
0.0
230
1.0
 40
0.577350269189626
 41
3.742856870268578
 42
5.681921090500118
  0
ELLIPSE
  5
259E
330
2549
100
AcDbEntity
  8
0
100
AcDbEllipse
 10
27.2361459924717
 20
-27.97224493415857
 30
0.0
 11
-2.5
 21
-0.0000000000001497
 31
0.0
210
0.0
220
0.0
230
1.0
 40
0.5773502691896258
 41
3.742856870268576
 42
5.681921090500121
  0
ELLIPSE
  5
259F
330
2549
100
AcDbEntity
  8
0
100
AcDbEllipse
 10
-7.154286079051788
 20
-46.90050731418391
 30
0.0
 11
-2.5
 21
-0.0000000000001499
 31
0.0
210
0.0
220
0.0
230
1.0
 40
0.5773502691896259
 41
3.74285687026858
 42
5.681921090500122
  0
ELLIPSE
  5
25A0
330
2549
100
AcDbEntity
  8
0
100
AcDbEllipse
 10
9.96475308925175
 20
-34.33053321075926
 30
0.0
 11
-2.5
 21
-0.0000000000001499
 31
0.0
210
0.0
220
0.0
230
1.0
 40
0.5773502691896259
 41
3.742856870268576
 42
5.681921090500121
  0
ELLIPSE
  5
25A1
330
2549
100
AcDbEntity
  8
0
100
AcDbEllipse
 10
-7.154286079051788
 20
-45.26751415232846
 30
0.0
 11
2.5
 21
-0.0000000000001492
 31
0.0
210
0.0
220
0.0
230
1.0
 40
0.5773502691896258
 41
0.0
 42
6.283185307179586
  0
ELLIPSE
  5
25A2
330
2549
100
AcDbEntity
  8
0
100
AcDbEllipse
 10
27.2361459924717
 20
-26.33925177230313
 30
0.0
 11
2.5
 21
-0.0000000000001492
 31
0.0
210
0.0
220
0.0
230
1.0
 40
0.5773502691896258
 41
0.0
 42
6.283185307179586
  0
ELLIPSE
  5
25A3
330
2549
100
AcDbEntity
  8
0
100
AcDbEllipse
 10
9.96475308925175
 20
-32.69754004890382
 30
0.0
 11
2.5
 21
-0.0000000000001492
 31
0.0
210
0.0
220
0.0
230
1.0
 40
0.5773502691896258
 41
0.0
 42
6.283185307179586
  0
ELLIPSE
  5
25A4
330
2549
100
AcDbEntity
  8
0
100
AcDbEllipse
 10
33.29927686840782
 20
7.719040707018629
 30
0.0
 11
-1.25
 21
2.165063509461095
 31
0.0
210
0.0
220
0.0
230
1.0
 40
0.5773502691896262
 41
0.0
 42
6.283185307179586
  0
ELLIPSE
  5
25A5
330
2549
100
AcDbEntity
  8
0
100
AcDbEllipse
 10
36.42853414789684
 20
-10.41756844421245
 30
0.0
 11
-1.25
 21
2.165063509461095
 31
0.0
210
0.0
220
0.0
230
1.0
 40
0.5773502691896262
 41
0.0
 42
6.283185307179586
  0
ELLIPSE
  5
25A6
330
2549
100
AcDbEntity
  8
0
100
AcDbEllipse
 10
35.62567418273433
 20
28.82955056686265
 30
0.0
 11
-1.25
 21
2.165063509461095
 31
0.0
210
0.0
220
0.0
230
1.0
 40
0.5773502691896262
 41
0.0
 42
6.283185307179586
  0
ELLIPSE
  5
25A7
330
2549
100
AcDbEntity
  8
0
100
AcDbEllipse
 10
24.71630365264831
 20
32.67858883631401
 30
0.0
 11
-2.125000000000001
 21
3.680607966083862
 31
0.0
210
0.0
220
0.0
230
1.0
 40
0.577350269189626
 41
0.3392247615358613
 42
2.802367892053929
  0
ELLIPSE
  5
25A8
330
2549
100
AcDbEntity
  8
0
100
AcDbEllipse
 10
23.30209009027522
 20
31.86209225538629
 30
0.0
 11
2.125000000000001
 21
-3.680607966083862
 31
0.0
210
0.0
220
0.0
230
1.0
 40
0.577350269189626
 41
0.0
 42
6.283185307179586
  0
ELLIPSE
  5
25A9
330
2549
100
AcDbEntity
  8
0
100
AcDbEllipse
 10
12.97649019082457
 20
-8.308476685538032
 30
0.0
 11
-2.365369237495228
 21
1.845271896038967
 31
0.0
210
0.0
220
0.0
230
1.0
 40
0.7444686138016519
 41
2.096959743996256
 42
2.503846285817362
  0
SPLINE
  5
25AA
330
2549
100
AcDbEntity
  8
0
100
AcDbSpline
210
0.0
220
0.0
230
1.0
 70
     8
 71
     3
 72
    10
 73
     6
 74
     0
 42
0.000000001
 43
0.0000000001
 40
-6.75124641613473
 40
-6.75124641613473
 40
-6.75124641613473
 40
-6.75124641613473
 40
-6.199004066980563
 40
-6.199004066980563
 40
-5.90426757910142
 40
-5.90426757910142
 40
-5.90426757910142
 40
-5.90426757910142
 10
12.97649019082457
 20
-10.75796642832121
 30
0.0
 10
12.2205259176599
 20
-11.72700228706258
 30
0.0
 10
11.39825548319191
 20
-12.6801345764758
 30
0.0
 10
9.939295959234115
 20
-14.07563327938675
 30
0.0
 10
9.39391083431008
 20
-14.5484807448076
 30
0.0
 10
8.801898453405526
 20
-15.00103516539934
 30
0.0
  0
ELLIPSE
  5
25AB
330
2549
100
AcDbEntity
  8
0
100
AcDbEllipse
 10
13.68359697201112
 20
-7.083731814146445
 30
0.0
 11
-2.780736957606841
 21
1.125833900981604
 31
0.0
210
0.0
220
0.0
230
1.0
 40
0.7444686138016515
 41
3.779339021362224
 42
4.186225563183326
  0
SPLINE
  5
25AC
330
2549
100
AcDbEntity
  8
0
100
AcDbSpline
210
0.0
220
0.0
230
1.0
 70
     8
 71
     3
 72
    14
 73
    10
 74
     0
 42
0.000000001
 43
0.0000000001
 40
0.0
 40
0.0
 40
0.0
 40
0.0
 40
0.0293413100000726
 40
0.0293413100000726
 40
0.0776449297149637
 40
0.0776449297149637
 40
0.1289588110816419
 40
0.1289588110816419
 40
0.1610299869358157
 40
0.1610299869358157
 40
0.1610299869358157
 40
0.1610299869358157
 10
15.80491731557076
 20
-5.858986942754855
 30
0.0
 10
15.78041173376561
 20
-6.143540667241089
 30
0.0
 10
15.72320607930652
 20
-6.45618084724398
 30
0.0
 10
15.48214143592548
 20
-7.329594807473917
 30
0.0
 10
15.23751087413587
 20
-7.9214653505202
 30
0.0
 10
14.58922128848683
 20
-9.08015505537039
 30
0.0
 10
14.17957265914692
 20
-9.636848820591175
 30
0.0
 10
13.49799998154896
 20
-10.34982382498164
 30
0.0
 10
13.23245567567687
 20
-10.57925540964088
 30
0.0
 10
12.97649019082457
 20
-10.75796642832121
 30
0.0
  0
SPLINE
  5
25AD
330
2549
100
AcDbEntity
  8
0
100
AcDbSpline
210
0.0
220
0.0
230
1.0
 70
     8
 71
     3
 72
    10
 73
     6
 74
     0
 42
0.000000001
 43
0.0000000001
 40
-0.846978866666469
 40
-0.846978866666469
 40
-0.846978866666469
 40
-0.846978866666469
 40
-0.5522830436662895
 40
-0.5522830436662895
 40
0.0
 40
0.0
 40
0.0
 40
0.0
 10
17.39222676317445
 20
-0.1221500791822927
 30
0.0
 10
17.29632256197127
 20
-0.8610230986068966
 30
0.0
 10
17.15954176791965
 20
-1.569670528958349
 30
0.0
 10
16.6805078961921
 20
-3.530936416836689
 30
0.0
 10
16.26617883750428
 20
-4.719700801127844
 30
0.0
 10
15.80491731557076
 20
-5.858986942754851
 30
0.0
  0
SPLINE
  5
25AE
330
2549
100
AcDbEntity
  8
0
100
AcDbSpline
210
0.0
220
0.0
230
1.0
 70
     8
 71
     3
 72
    10
 73
     6
 74
     0
 42
0.000000001
 43
0.0000000001
 40
5.84176518583745
 40
5.84176518583745
 40
5.84176518583745
 40
5.84176518583745
 40
6.198962525455491
 40
6.198962525455491
 40
6.751246048461654
 40
6.751246048461654
 40
6.751246048461654
 40
6.751246048461654
 10
26.19949687524603
 20
-6.220347842068281
 30
0.0
 10
26.27498242110638
 20
-7.35998965648907
 30
0.0
 10
26.40190471497445
 20
-8.523169618717007
 30
0.0
 10
26.82824556884122
 20
-11.48066258799077
 30
0.0
 10
27.18234783186772
 20
-13.27185615357429
 30
0.0
 10
27.59044378482876
 20
-15.04127506310227
 30
0.0
  0
ELLIPSE
  5
25AF
330
2549
100
AcDbEntity
  8
0
100
AcDbEllipse
 10
28.67794252142002
 20
-15.74072125341993
 30
0.0
 11
2.891957309629114
 21
0.7978614662225102
 31
0.0
210
0.0
220
0.0
230
0.9999999999999998
 40
0.3353105273189508
 41
0.6596348343239012
 42
1.862346828685286
  0
SPLINE
  5
25B0
330
2549
100
AcDbEntity
  8
0
100
AcDbSpline
210
0.0
220
0.0
230
1.0
 70
     8
 71
     3
 72
    10
 73
     6
 74
     0
 42
0.000000001
 43
0.0000000001
 40
-6.751246048461654
 40
-6.751246048461654
 40
-6.751246048461654
 40
-6.751246048461654
 40
-6.198962525455491
 40
-6.198962525455491
 40
-5.904267181464404
 40
-5.904267181464404
 40
-5.904267181464404
 40
-5.904267181464404
 10
30.79926286497966
 20
-14.51597638202834
 30
0.0
 10
30.33800094270607
 20
-12.84406986160404
 30
0.0
 10
29.923671560097
 20
-11.17687804243691
 30
0.0
 10
29.4446379674776
 20
-8.662471565527065
 30
0.0
 10
29.30785746270377
 20
-7.795884716022768
 30
0.0
 10
29.21195341737597
 20
-6.946272444733336
 30
0.0
  0
SPLINE
  5
25B1
330
2549
100
AcDbEntity
  8
0
100
AcDbSpline
210
0.0
220
0.0
230
1.0
 70
     8
 71
     3
 72
    14
 73
    10
 74
     0
 42
0.000000001
 43
0.0000000001
 40
-0.1610299869358158
 40
-0.1610299869358158
 40
-0.1610299869358158
 40
-0.1610299869358158
 40
-0.1289588110816417
 40
-0.1289588110816417
 40
-0.0776449297149632
 40
-0.0776449297149632
 40
-0.029341310000081
 40
-0.029341310000081
 40
0.0
 40
0.0
 40
0.0
 40
0.0
 10
27.59044378482876
 20
-15.04127506310227
 30
0.0
 10
27.61414196977832
 20
-15.14402544880686
 30
0.0
 10
27.6230086163344
 20
-15.2533737477663
 30
0.0
 10
27.60201104888596
 20
-15.54219799389718
 30
0.0
 10
27.54426886408381
 20
-15.72425887435944
 30
0.0
 10
27.35566505628214
 20
-16.03166368114191
 30
0.0
 10
27.23032904896881
 20
-16.15841810989612
 30
0.0
 10
27.00441529365525
 20
-16.30344907907896
 30
0.0
 10
26.9135988912435
 20
-16.34516181250428
 30
0.0
 10
26.8213482025425
 20
-16.37338768749884
 30
0.0
  0
ELLIPSE
  5
25B2
330
2549
100
AcDbEntity
  8
0
100
AcDbEllipse
 10
27.97083574023347
 20
-16.96546612481152
 30
0.0
 11
0.7550103563651649
 21
-2.903439229910167
 31
0.0
210
0.0
220
0.0
230
0.9999999999999998
 40
0.3353105273189509
 41
4.4208384784943
 42
5.623550472855684
  0
SPLINE
  5
25B3
330
2549
100
AcDbEntity
  8
0
100
AcDbSpline
210
0.0
220
0.0
230
1.0
 70
     8
 71
     3
 72
    14
 73
    10
 74
     0
 42
0.000000001
 43
0.0000000001
 40
0.0
 40
0.0
 40
0.0
 40
0.0
 40
0.029341310000081
 40
0.029341310000081
 40
0.0776449297149632
 40
0.0776449297149632
 40
0.1289588110816417
 40
0.1289588110816417
 40
0.1610299869358158
 40
0.1610299869358158
 40
0.1610299869358158
 40
0.1610299869358158
 10
27.97083574023347
 20
-19.4149558675947
 30
0.0
 10
28.25402486708783
 20
-19.27975315747746
 30
0.0
 10
28.53906962971088
 20
-19.09865594790485
 30
0.0
 10
29.26614764256015
 20
-18.50584193736709
 30
0.0
 10
29.68967974866636
 20
-18.01726024909059
 30
0.0
 10
30.37609521277725
 20
-16.88058253043356
 30
0.0
 10
30.62318176237479
 20
-16.2300335047135
 30
0.0
 10
30.80638508521444
 20
-15.22932481919746
 30
0.0
 10
30.82604840466687
 20
-14.8579337808402
 30
0.0
 10
30.79926286497966
 20
-14.51597638202834
 30
0.0
  0
SPLINE
  5
25B4
330
2549
100
AcDbEntity
  8
0
100
AcDbSpline
210
0.0
220
0.0
230
1.0
 70
     8
 71
     3
 72
    10
 73
     6
 74
     0
 42
0.000000001
 43
0.0000000001
 40
-0.8469788374255299
 40
-0.8469788374255299
 40
-0.8469788374255299
 40
-0.8469788374255299
 40
-0.5522428588590076
 40
-0.5522428588590076
 40
-0.0000000000000002
 40
-0.0000000000000002
 40
-0.0000000000000002
 40
-0.0000000000000002
 10
20.62162510760703
 20
-21.82515753095037
 30
0.0
 10
21.40547100277617
 20
-21.48335961409832
 30
0.0
 10
22.22446535948253
 20
-21.16848186327963
 30
0.0
 10
24.64153979237565
 20
-20.32615097515586
 30
0.0
 10
26.29241484940136
 20
-19.85141244704138
 30
0.0
 10
27.97083574023347
 20
-19.4149558675947
 30
0.0
  0
SPLINE
  5
25B5
330
2549
100
AcDbEntity
  8
0
100
AcDbSpline
210
0.0
220
0.0
230
1.0
 70
     8
 71
     3
 72
    10
 73
     6
 74
     0
 42
0.000000001
 43
0.0000000001
 40
0.0000000000000002
 40
0.0000000000000002
 40
0.0000000000000002
 40
0.0000000000000002
 40
0.5522428588590076
 40
0.5522428588590076
 40
0.9094808325304549
 40
0.9094808325304549
 40
0.9094808325304549
 40
0.9094808325304549
 10
26.8213482025425
 20
-16.37338768749884
 30
0.0
 10
25.08506635078423
 20
-16.90463656155214
 30
0.0
 10
23.35692346765438
 20
-17.49352392163803
 30
0.0
 10
20.58247729555469
 20
-18.60302823836966
 30
0.0
 10
19.51154570272548
 20
-19.0747500914305
 30
0.0
 10
18.48672768940201
 20
-19.57925593900174
 30
0.0
  0
ELLIPSE
  5
25B6
330
2549
100
AcDbEntity
  8
0
100
AcDbEllipse
 10
16.0518971083627
 20
-9.267567116318582
 30
0.0
 11
6.482918418180675
 21
11.22874408161453
 31
0.0
210
0.0
220
0.0
230
1.0
 40
0.5773502691896258
 41
4.130808165901806
 42
5.293969794867307
  0
SPLINE
  5
25B7
330
2549
100
AcDbEntity
  8
0
100
AcDbSpline
210
0.0
220
0.0
230
1.0
 70
     8
 71
     3
 72
    16
 73
    12
 74
     0
 42
0.000000001
 43
0.0000000001
 40
4.919533785653438
 40
4.919533785653438
 40
4.919533785653438
 40
4.919533785653438
 40
5.148838655092486
 40
5.148838655092486
 40
5.381470980885586
 40
5.381470980885586
 40
5.614103306678686
 40
5.614103306678686
 40
5.846735632471785
 40
5.846735632471785
 40
6.076040652353969
 40
6.076040652353969
 40
6.076040652353969
 40
6.076040652353969
 10
11.09371016624171
 20
-14.01500812709003
 30
0.0
 10
11.68227206878834
 20
-13.53237478383524
 30
0.0
 10
12.2883131688689
 20
-12.95254096842652
 30
0.0
 10
13.47416309277945
 20
-11.62917874049469
 30
0.0
 10
14.05351915735542
 20
-10.88366205936316
 30
0.0
 10
15.12065535948643
 20
-9.293156916385047
 30
0.0
 10
15.60843765085986
 20
-8.448293204693895
 30
0.0
 10
16.45228740846321
 20
-6.72887357286134
 30
0.0
 10
16.8082457609802
 20
-5.854378162536201
 30
0.0
 10
17.36138628696873
 20
-4.165720339428093
 30
0.0
 10
17.56051663068032
 20
-3.350955923941083
 30
0.0
 10
17.68420839905466
 20
-2.599929284136219
 30
0.0
  0
ELLIPSE
  5
25B8
330
2549
100
AcDbEntity
  8
0
100
AcDbEllipse
 10
-15.94233626557818
 20
-37.74424126870234
 30
0.0
 11
4.25
 21
0.0000000000000012
 31
0.0
210
0.0
220
0.0
230
1.0
 40
0.5773502691896259
 41
0.3392247615358614
 42
2.80236789205393
  0
ELLIPSE
  5
25B9
330
2549
100
AcDbEntity
  8
0
100
AcDbEllipse
 10
-31.80145426397003
 20
-32.67045812785939
 30
0.0
 11
-2.5
 21
-0.0000000000001499
 31
0.0
210
0.0
220
0.0
230
1.0
 40
0.5773502691896259
 41
3.742856870268576
 42
5.681921090500121
  0
ELLIPSE
  5
25BA
330
2549
100
AcDbEntity
  8
0
100
AcDbEllipse
 10
-10.02962046701347
 20
-22.78677625577161
 30
0.0
 11
-2.5
 21
-0.0000000000001499
 31
0.0
210
0.0
220
0.0
230
1.0
 40
0.5773502691896259
 41
3.742856870268576
 42
5.681921090500121
  0
ELLIPSE
  5
25BB
330
2549
100
AcDbEntity
  8
0
100
AcDbEllipse
 10
0.9832578772284739
 20
-12.81513291381778
 30
0.0
 11
-2.5
 21
-0.0000000000001499
 31
0.0
210
0.0
220
0.0
230
1.0
 40
0.5773502691896259
 41
3.742856870268578
 42
5.68192109050012
  0
ELLIPSE
  5
25BC
330
2549
100
AcDbEntity
  8
0
100
AcDbEllipse
 10
0.9832578772284739
 20
-11.18213975196234
 30
0.0
 11
-2.5
 21
0.0000000000001492
 31
0.0
210
0.0
220
0.0
230
1.0
 40
0.5773502691896258
 41
0.0
 42
6.283185307179586
  0
ELLIPSE
  5
25BD
330
2549
100
AcDbEntity
  8
0
100
AcDbEllipse
 10
-10.02962046701347
 20
-21.15378309391617
 30
0.0
 11
-2.5
 21
0.0000000000001492
 31
0.0
210
0.0
220
0.0
230
1.0
 40
0.5773502691896258
 41
0.0
 42
6.283185307179586
  0
ELLIPSE
  5
25BE
330
2549
100
AcDbEntity
  8
0
100
AcDbEllipse
 10
-31.80145426397003
 20
-31.03746496600396
 30
0.0
 11
-2.5
 21
0.0000000000001492
 31
0.0
210
0.0
220
0.0
230
1.0
 40
0.5773502691896258
 41
0.0
 42
6.283185307179586
  0
ELLIPSE
  5
25BF
330
2549
100
AcDbEntity
  8
0
100
AcDbEllipse
 10
-15.94233626557818
 20
-36.11124810684689
 30
0.0
 11
-4.25
 21
0.0000000000002534
 31
0.0
210
0.0
220
0.0
230
1.0
 40
0.5773502691896259
 41
0.0
 42
6.283185307179586
  0
LINE
  5
25C0
330
2549
100
AcDbEntity
  8
0
100
AcDbLine
 10
12.97649019082457
 20
-10.75796642832121
 30
0.0
 11
2.226742530196386
 21
-4.551596723552593
 31
0.0
  0
LINE
  5
25C1
330
2549
100
AcDbEntity
  8
0
100
AcDbLine
 10
38.72058339944965
 20
-25.6213255731785
 30
0.0
 11
27.97083574023347
 21
-19.4149558675947
 31
0.0
  0
LINE
  5
25C2
330
2549
100
AcDbEntity
  8
0
100
AcDbLine
 10
15.80491731557076
 20
-5.858986942754855
 30
0.0
 11
5.055169655650155
 21
0.3473827625820758
 31
0.0
  0
LINE
  5
25C3
330
2549
100
AcDbEntity
  8
0
100
AcDbLine
 10
41.54901052490026
 20
-20.72234608704282
 30
0.0
 11
30.79926286497966
 21
-14.51597638202834
 31
0.0
  0
ENDBLK
  5
254B
330
2549
100
AcDbEntity
  8
0
100
AcDbBlockEnd
  0
ENDSEC
  0
SECTION
  2
ENTITIES
  0
INSERT
  5
25C4
330
1F
100
AcDbEntity
  8
0
100
AcDbBlockReference
  2
ABR70-Front
 10
0.0
 20
0.0
 30
0.0
  0
INSERT
  5
25C5
330
1F
100
AcDbEntity
  8
0
100
AcDbBlockReference
  2
ABR70-Left
 10
48.51635315881424
 20
0.0
 30
0.0
  0
INSERT
  5
25C6
330
1F
100
AcDbEntity
  8
0
100
AcDbBlockReference
  2
ABR70-Right
 10
-48.51314296936317
 20
0.0
 30
0.0
  0
INSERT
  5
25C7
330
1F
100
AcDbEntity
  8
0
100
AcDbBlockReference
  2
ABR70-Top
 10
0.0
 20
-21.02153322537082
 30
0.0
  0
INSERT
  5
25C8
330
1F
100
AcDbEntity
  8
0
100
AcDbBlockReference
  2
ABR70-Bottom
 10
0.0
 20
91.01317186592204
 30
0.0
  0
INSERT
  5
25C9
330
1F
100
AcDbEntity
  8
0
100
AcDbBlockReference
  2
ABR70-ISO
 10
89.19423975355567
 20
-73.08355449926954
 30
0.0
  0
MTEXT
  5
25CA
330
1F
100
AcDbEntity
  8
0
100
AcDbMText
 10
0.0
 20
-112.0246993718192
 30
0.0
 40
7.001055382149445
 41
0.0
 71
     5
 72
     5
  1
ABR70
 73
     1
 44
1.0
1001
ACAD
1000
MTEXTBEGIN
1070
    73
1070
     1
1070
    44
1040
1.0
1070
    74
1070
     0
1000
MTEXTEND
  0
ENDSEC
  0
SECTION
  2
OBJECTS
  0
DICTIONARY
  5
C
330
0
100
AcDbDictionary
281
     1
  3
ACAD_CIP_PREVIOUS_PRODUCT_INFO
350
216
  3
ACAD_COLOR
350
6B
  3
ACAD_DETAILVIEWSTYLE
350
21B
  3
ACAD_GROUP
350
D
  3
ACAD_LAYOUT
350
1A
  3
ACAD_MATERIAL
350
6A
  3
ACAD_MLEADERSTYLE
350
12D
  3
ACAD_MLINESTYLE
350
17
  3
ACAD_PLOTSETTINGS
350
19
  3
ACAD_PLOTSTYLENAME
350
E
  3
ACAD_SCALELIST
350
10C
  3
ACAD_SECTIONVIEWSTYLE
350
219
  3
ACAD_TABLESTYLE
350
7E
  3
ACAD_VISUALSTYLE
350
EF
  3
ACDB_RECOMPOSE_DATA
350
26CB
  3
AcDbVariableDictionary
350
5E
  3
DWGPROPS
350
26CC
  0
DICTIONARY
  5
261B
330
8
100
AcDbDictionary
280
     1
281
     1
  0
DICTIONARY
  5
1FF
330
2
100
AcDbDictionary
280
     1
281
     1
  3
ACAD_LAYERSTATES
360
200
  0
DICTIONARY
  5
13C
330
10
100
AcDbDictionary
280
     1
281
     1
  0
DICTIONARY
  5
1CE
330
1F
100
AcDbDictionary
280
     1
281
     1
  3
ACAD_LAYOUTSELFREF
360
2623
  0
DICTIONARY
  5
25CE
330
D2
100
AcDbDictionary
280
     1
281
     1
  3
ACAD_LAYOUTSELFREF
360
262C
  0
DICTIONARY
  5
25D0
330
D6
100
AcDbDictionary
280
     1
281
     1
  3
ACAD_LAYOUTSELFREF
360
262F
  0
XRECORD
  5
216
102
{ACAD_REACTORS
330
C
102
}
330
C
100
AcDbXrecord
280
     1
300
ACD
300
2021
300

  0
DICTIONARY
  5
6B
102
{ACAD_REACTORS
330
C
102
}
330
C
100
AcDbDictionary
281
     1
  0
DICTIONARY
  5
21B
102
{ACAD_REACTORS
330
C
102
}
330
C
100
AcDbDictionary
281
     1
  3
Metric50
350
21C
  0
DICTIONARY
  5
D
102
{ACAD_REACTORS
330
C
102
}
330
C
100
AcDbDictionary
281
     1
  0
DICTIONARY
  5
1A
102
{ACAD_REACTORS
330
C
102
}
330
C
100
AcDbDictionary
281
     1
  3
Layout1
350
D3
  3
Layout2
350
D7
  3
Model
350
22
  0
DICTIONARY
  5
6A
102
{ACAD_REACTORS
330
C
102
}
330
C
100
AcDbDictionary
281
     1
  3
ByBlock
350
ED
  3
ByLayer
350
EC
  3
Global
350
EE
  0
DICTIONARY
  5
12D
102
{ACAD_REACTORS
330
C
102
}
330
C
100
AcDbDictionary
281
     1
  3
Standard
350
12E
  0
DICTIONARY
  5
17
102
{ACAD_REACTORS
330
C
102
}
330
C
100
AcDbDictionary
281
     1
  3
Standard
350
18
  0
DICTIONARY
  5
19
102
{ACAD_REACTORS
330
C
102
}
330
C
100
AcDbDictionary
281
     1
  0
ACDBDICTIONARYWDFLT
  5
E
102
{ACAD_REACTORS
330
C
102
}
330
C
100
AcDbDictionary
281
     1
  3
Normal
350
F
100
AcDbDictionaryWithDefault
340
F
  0
DICTIONARY
  5
10C
102
{ACAD_REACTORS
330
C
102
}
330
C
100
AcDbDictionary
281
     1
  3
A0
350
10D
  3
A1
350
1BE
  3
A2
350
1BF
  3
A3
350
1C0
  3
A4
350
1C1
  3
A5
350
1C2
  3
A6
350
1C3
  3
A7
350
1C4
  3
A8
350
1C5
  3
A9
350
1C6
  3
B0
350
1C7
  3
B1
350
1C8
  3
B2
350
1C9
  3
B3
350
1CA
  3
B4
350
1CB
  3
B5
350
1CC
  3
B6
350
1CD
  0
DICTIONARY
  5
219
102
{ACAD_REACTORS
330
C
102
}
330
C
100
AcDbDictionary
281
     1
  3
Metric50
350
21A
  0
DICTIONARY
  5
7E
102
{ACAD_REACTORS
330
C
102
}
330
C
100
AcDbDictionary
281
     1
  3
Standard
350
7F
  0
DICTIONARY
  5
EF
102
{ACAD_REACTORS
330
C
102
}
330
C
100
AcDbDictionary
281
     1
  3
2dWireframe
350
F5
  3
Basic
350
F4
  3
Brighten
350
FB
  3
ColorChange
350
FF
  3
Conceptual
350
F8
  3
Dim
350
FA
  3
EdgeColorOff
350
1E6
  3
Facepattern
350
FE
  3
Flat
350
F0
  3
FlatWithEdges
350
F1
  3
Gouraud
350
F2
  3
GouraudWithEdges
350
F3
  3
Hidden
350
F7
  3
JitterOff
350
1E4
  3
Linepattern
350
FD
  3
OverhangOff
350
1E5
  3
Realistic
350
F9
  3
Shaded
350
1F3
  3
Shaded with edges
350
1F2
  3
Shades of Gray
350
1EF
  3
Sketchy
350
1F0
  3
Thicken
350
FC
  3
Wireframe
350
F6
  3
X-Ray
350
1F1
  0
XRECORD
  5
26CB
102
{ACAD_REACTORS
330
C
102
}
330
C
100
AcDbXrecord
280
     1
 90
        1
330
7F
  0
DICTIONARY
  5
5E
102
{ACAD_REACTORS
330
C
102
}
330
C
100
AcDbDictionary
281
     1
  3
CANNOSCALE
350
146
  3
CENTEREXE
350
259
  3
CENTERLTYPEFILE
350
25A
  3
CMLEADERSTYLE
350
145
  3
CTABLESTYLE
350
84
  3
CVIEWDETAILSTYLE
350
227
  3
CVIEWSECTIONSTYLE
350
228
  3
DIMASSOC
350
5F
  3
HIDETEXT
350
63
  3
INDEXCTL
350
2678
  3
LAYEREVAL
350
1AE
  3
LAYERNOTIFY
350
1AF
  3
LIGHTINGUNITS
350
2676
  3
MSLTSCALE
350
2675
  3
PSOLHEIGHT
350
26C8
  3
PSOLWIDTH
350
26C7
  3
SORTENTS
350
2677
  3
XCLIPFRAME
350
26C9
  0
XRECORD
  5
26CC
102
{ACAD_REACTORS
330
C
102
}
330
C
100
AcDbXrecord
280
     1
  1
DWGPROPS COOKIE
  2

  3

  4

  6

  7

  8
tronnguyen
  9

300
=
301
=
302
=
303
=
304
=
305
=
306
=
307
=
308
=
309
=
 40
0.0035069444444444
 41
2460367.705740741
 42
2460367.711273149
  1

 90
        0
  0
DICTIONARY
  5
200
102
{ACAD_REACTORS
330
1FF
102
}
330
1FF
100
AcDbDictionary
281
     1
  0
XRECORD
  5
2623
102
{ACAD_REACTORS
330
1CE
102
}
330
1CE
100
AcDbXrecord
280
     1
340
1F
  0
XRECORD
  5
262C
102
{ACAD_REACTORS
330
25CE
102
}
330
25CE
100
AcDbXrecord
280
     1
340
D2
  0
XRECORD
  5
262F
102
{ACAD_REACTORS
330
25D0
102
}
330
25D0
100
AcDbXrecord
280
     1
340
D6
  0
ACDBDETAILVIEWSTYLE
  5
21C
102
{ACAD_XDICTIONARY
360
270B
102
}
102
{ACAD_REACTORS
330
21B
102
}
330
21B
100
AcDbModelDocViewStyle
 70
     0
  3
Metric50
290
     0
100
AcDbDetailViewStyle
 70
     0
 71
     0
 90
        3
 71
     1
340
11
 40
5.0
340
0
 40
5.0
300

 40
0.0
280
     1
 71
     2
340
16
 90
       25
 71
     3
340
11
 40
5.0
 90
        0
 40
15.0
 90
        1
300
%<\AcVar ViewDetailId>% (%<\AcVar ViewScale \f "%sn">%)
 71
     4
340
16
 90
       25
340
16
 90
       25
280
     0
  0
LAYOUT
  5
D3
102
{ACAD_XDICTIONARY
360
26D0
102
}
102
{ACAD_REACTORS
330
1A
102
}
330
1A
100
AcDbPlotSettings
  1

  2
C:\Documents and Settings\basas\Application Data\Autodesk\AutoCAD 2005\R16.1\enu\plotters\Default Windows System Printer.pc3
  4

  6

 40
0.0
 41
0.0
 42
0.0
 43
0.0
 44
0.0
 45
0.0
 46
0.0
 47
0.0
 48
0.0
 49
0.0
140
0.0
141
0.0
142
1.0
143
1.0
 70
   688
 72
     0
 73
     0
 74
     5
  7

 75
    16
147
1.0
148
0.0
149
0.0
100
AcDbLayout
  1
Layout1
 70
     1
 71
     1
 10
0.0
 20
0.0
 11
12.0
 21
9.0
 12
0.0
 22
0.0
 32
0.0
 14
0.0
 24
0.0
 34
0.0
 15
0.0
 25
0.0
 35
0.0
146
0.0
 13
0.0
 23
0.0
 33
0.0
 16
1.0
 26
0.0
 36
0.0
 17
0.0
 27
1.0
 37
0.0
 76
     0
330
D2
  0
LAYOUT
  5
D7
102
{ACAD_XDICTIONARY
360
26D2
102
}
102
{ACAD_REACTORS
330
1A
102
}
330
1A
100
AcDbPlotSettings
  1

  2
C:\Documents and Settings\basas\Application Data\Autodesk\AutoCAD 2005\R16.1\enu\plotters\Default Windows System Printer.pc3
  4

  6

 40
0.0
 41
0.0
 42
0.0
 43
0.0
 44
0.0
 45
0.0
 46
0.0
 47
0.0
 48
0.0
 49
0.0
140
0.0
141
0.0
142
1.0
143
1.0
 70
   688
 72
     0
 73
     0
 74
     5
  7

 75
    16
147
1.0
148
0.0
149
0.0
100
AcDbLayout
  1
Layout2
 70
     1
 71
     2
 10
0.0
 20
0.0
 11
12.0
 21
9.0
 12
0.0
 22
0.0
 32
0.0
 14
0.0
 24
0.0
 34
0.0
 15
0.0
 25
0.0
 35
0.0
146
0.0
 13
0.0
 23
0.0
 33
0.0
 16
1.0
 26
0.0
 36
0.0
 17
0.0
 27
1.0
 37
0.0
 76
     0
330
D6
  0
LAYOUT
  5
22
102
{ACAD_XDICTIONARY
360
26CD
102
}
102
{ACAD_REACTORS
330
1A
102
}
330
1A
100
AcDbPlotSettings
  1

  2
none_device
  4
ISO_A4_(210.00_x_297.00_MM)
  6

 40
7.5
 41
20.0
 42
7.5
 43
20.0
 44
210.0
 45
297.0
 46
11.54999923706054
 47
-13.65000009536743
 48
0.0
 49
0.0
140
0.0
141
0.0
142
1.0
143
8.704084754739808
 70
 11952
 72
     1
 73
     0
 74
     0
  7

 75
     0
147
0.1148885871608098
148
0.0
149
0.0
100
AcDbLayout
  1
Model
 70
     1
 71
     0
 10
0.0
 20
0.0
 11
12.0
 21
9.0
 12
0.0
 22
0.0
 32
0.0
 14
0.0
 24
0.0
 34
0.0
 15
0.0
 25
0.0
 35
0.0
146
0.0
 13
0.0
 23
0.0
 33
0.0
 16
1.0
 26
0.0
 36
0.0
 17
0.0
 27
1.0
 37
0.0
 76
     0
330
1F
331
EA
1001
ACAD_PSEXT
1000
None
1000
None
1000
Not applicable
1000
The layout will not be plotted unless a new plotter configuration name is selected.
1070
     0
  0
MATERIAL
  5
ED
102
{ACAD_XDICTIONARY
360
1F9
102
}
102
{ACAD_REACTORS
330
6A
102
}
330
6A
100
AcDbMaterial
  1
ByBlock
  0
MATERIAL
  5
EC
102
{ACAD_XDICTIONARY
360
1F7
102
}
102
{ACAD_REACTORS
330
6A
102
}
330
6A
100
AcDbMaterial
  1
ByLayer
  0
MATERIAL
  5
EE
102
{ACAD_XDICTIONARY
360
173
102
}
102
{ACAD_REACTORS
330
6A
102
}
330
6A
100
AcDbMaterial
  1
Global
 43
0.0007999999797903
 43
0.0
 43
0.0
 43
0.0
 43
0.0
 43
0.0007999999797903
 43
0.0
 43
0.0
 43
0.0
 43
0.0
 43
1.0
 43
0.0
 43
0.0
 43
0.0
 43
0.0
 43
1.0
 49
0.0007999999797903
 49
0.0
 49
0.0
 49
0.0
 49
0.0
 49
0.0007999999797903
 49
0.0
 49
0.0
 49
0.0
 49
0.0
 49
1.0
 49
0.0
 49
0.0
 49
0.0
 49
0.0
 49
1.0
142
0.0007999999797903
142
0.0
142
0.0
142
0.0
142
0.0
142
0.0007999999797903
142
0.0
142
0.0
142
0.0
142
0.0
142
1.0
142
0.0
142
0.0
142
0.0
142
0.0
142
1.0
144
0.0007999999797903
144
0.0
144
0.0
144
0.0
144
0.0
144
0.0007999999797903
144
0.0
144
0.0
144
0.0
144
0.0
144
1.0
144
0.0
144
0.0
144
0.0
144
0.0
144
1.0
1001
ACAD
1070
    -1
1070
     3
1070
     0
1000

1071
        0
1070
     0
  0
MLEADERSTYLE
  5
12E
102
{ACAD_XDICTIONARY
360
26F7
102
}
102
{ACAD_REACTORS
330
12D
102
}
330
12D
100
AcDbMLeaderStyle
170
     2
171
     1
172
     0
 90
        2
 40
0.0
 41
0.0
173
     1
 91
-1056964608
340
14
 92
       -2
290
     1
 42
2.0
291
     1
 43
8.0
  3
Standard
 44
4.0
300

342
11
174
     1
178
     1
175
     1
176
     0
 93
-1056964608
 45
4.0
292
     0
297
     0
 46
4.0
 94
-1056964608
 47
1.0
 49
1.0
140
1.0
293
     1
141
0.0
294
     1
177
     0
142
1.0
295
     0
296
     0
143
3.75
1001
ACAD_MLEADERVER
1070
     2
  0
MLINESTYLE
  5
18
102
{ACAD_REACTORS
330
17
102
}
330
17
100
AcDbMlineStyle
  2
STANDARD
 70
     0
  3

 62
   256
 51
90.0
 52
90.0
 71
     2
 49
0.5
 62
   256
  6
BYLAYER
 49
-0.5
 62
   256
  6
BYLAYER
  0
ACDBPLACEHOLDER
  5
F
102
{ACAD_REACTORS
330
E
102
}
330
E
  0
SCALE
  5
10D
102
{ACAD_REACTORS
330
10C
102
}
330
10C
100
AcDbScale
 70
     0
300
1:1
140
1.0
141
1.0
290
     1
  0
SCALE
  5
1BE
102
{ACAD_REACTORS
330
10C
102
}
330
10C
100
AcDbScale
 70
     0
300
1:2
140
1.0
141
2.0
290
     0
  0
SCALE
  5
1BF
102
{ACAD_REACTORS
330
10C
102
}
330
10C
100
AcDbScale
 70
     0
300
1:4
140
1.0
141
4.0
290
     0
  0
SCALE
  5
1C0
102
{ACAD_REACTORS
330
10C
102
}
330
10C
100
AcDbScale
 70
     0
300
1:5
140
1.0
141
5.0
290
     0
  0
SCALE
  5
1C1
102
{ACAD_REACTORS
330
10C
102
}
330
10C
100
AcDbScale
 70
     0
300
1:8
140
1.0
141
8.0
290
     0
  0
SCALE
  5
1C2
102
{ACAD_REACTORS
330
10C
102
}
330
10C
100
AcDbScale
 70
     0
300
1:10
140
1.0
141
10.0
290
     0
  0
SCALE
  5
1C3
102
{ACAD_REACTORS
330
10C
102
}
330
10C
100
AcDbScale
 70
     0
300
1:16
140
1.0
141
16.0
290
     0
  0
SCALE
  5
1C4
102
{ACAD_REACTORS
330
10C
102
}
330
10C
100
AcDbScale
 70
     0
300
1:20
140
1.0
141
20.0
290
     0
  0
SCALE
  5
1C5
102
{ACAD_REACTORS
330
10C
102
}
330
10C
100
AcDbScale
 70
     0
300
1:30
140
1.0
141
30.0
290
     0
  0
SCALE
  5
1C6
102
{ACAD_REACTORS
330
10C
102
}
330
10C
100
AcDbScale
 70
     0
300
1:40
140
1.0
141
40.0
290
     0
  0
SCALE
  5
1C7
102
{ACAD_REACTORS
330
10C
102
}
330
10C
100
AcDbScale
 70
     0
300
1:50
140
1.0
141
50.0
290
     0
  0
SCALE
  5
1C8
102
{ACAD_REACTORS
330
10C
102
}
330
10C
100
AcDbScale
 70
     0
300
1:100
140
1.0
141
100.0
290
     0
  0
SCALE
  5
1C9
102
{ACAD_REACTORS
330
10C
102
}
330
10C
100
AcDbScale
 70
     0
300
2:1
140
2.0
141
1.0
290
     0
  0
SCALE
  5
1CA
102
{ACAD_REACTORS
330
10C
102
}
330
10C
100
AcDbScale
 70
     0
300
4:1
140
4.0
141
1.0
290
     0
  0
SCALE
  5
1CB
102
{ACAD_REACTORS
330
10C
102
}
330
10C
100
AcDbScale
 70
     0
300
8:1
140
8.0
141
1.0
290
     0
  0
SCALE
  5
1CC
102
{ACAD_REACTORS
330
10C
102
}
330
10C
100
AcDbScale
 70
     0
300
10:1
140
10.0
141
1.0
290
     0
  0
SCALE
  5
1CD
102
{ACAD_REACTORS
330
10C
102
}
330
10C
100
AcDbScale
 70
     0
300
100:1
140
100.0
141
1.0
290
     0
  0
ACDBSECTIONVIEWSTYLE
  5
21A
102
{ACAD_XDICTIONARY
360
2709
102
}
102
{ACAD_REACTORS
330
219
102
}
330
219
100
AcDbModelDocViewStyle
 70
     0
  3
Metric50
290
     0
100
AcDbSectionViewStyle
 70
     0
 71
     0
 90
      102
 71
     1
340
11
 40
5.0
340
0
340
0
 40
5.0
300
I, O, Q, S, X, Z
 40
10.0
 90
        0
 40
2.5
 90
        0
 71
     2
340
16
 90
       25
340
16
 90
       50
 40
5.0
 40
2.5
 40
5.0
 71
     3
340
11
 40
5.0
 90
        0
 40
15.0
 90
        1
300
%<\AcVar ViewSectionStartId>%-%<\AcVar ViewSectionEndId>% (%<\AcVar ViewScale \f "%sn">%)
 71
     4
300
ANSI31
 40
1.0
 90
        0
290
     0
290
     0
 90
        6
 40
0.0
 40
1.570796326794896
 40
0.2617993877991494
 40
1.308996938995747
 40
-0.2617993877991494
 40
1.832595714594046
  0
TABLESTYLE
  5
7F
102
{ACAD_XDICTIONARY
360
162
102
}
102
{ACAD_REACTORS
330
7E
102
}
330
7E
100
AcDbTableStyle
  3
Standard
 70
     0
 71
     0
 40
1.5
 41
1.5
280
     0
281
     0
  7
Standard
140
4.5
170
     2
 62
     0
 63
     7
283
     0
274
    -2
284
     1
 64
     0
275
    -2
285
     1
 65
     0
276
    -2
286
     1
 66
     0
277
    -2
287
     1
 67
     0
278
    -2
288
     1
 68
     0
279
    -2
289
     1
 69
     0
  7
Standard
140
6.0
170
     5
 62
     0
 63
     7
283
     0
274
    -2
284
     1
 64
     0
275
    -2
285
     1
 65
     0
276
    -2
286
     1
 66
     0
277
    -2
287
     1
 67
     0
278
    -2
288
     1
 68
     0
279
    -2
289
     1
 69
     0
  7
Standard
140
4.5
170
     5
 62
     0
 63
     7
283
     0
274
    -2
284
     1
 64
     0
275
    -2
285
     1
 65
     0
276
    -2
286
     1
 66
     0
277
    -2
287
     1
 67
     0
278
    -2
288
     1
 68
     0
279
    -2
289
     1
 69
     0
  0
VISUALSTYLE
  5
F5
102
{ACAD_XDICTIONARY
360
26E1
102
}
102
{ACAD_REACTORS
330
EF
102
}
330
EF
100
AcDbVisualStyle
  2
2dWireframe
 70
     4
 71
     0
 72
     2
 73
     1
 90
        0
 40
-0.6
 41
-30.0
 62
     5
 63
     7
 74
     1
 91
        4
 64
     7
 65
   257
 75
     1
175
     1
 42
1.0
 92
        0
 66
   257
 43
1.0
 76
     1
 77
     6
 78
     2
 67
     7
 79
     5
170
     0
171
     0
290
     0
174
     0
 93
        1
 44
0.0
173
     0
291
     0
 45
0.0
1001
ACAD
1000
AcDbSavedByObjectVersion
1070
     0
  0
VISUALSTYLE
  5
F4
102
{ACAD_XDICTIONARY
360
26DF
102
}
102
{ACAD_REACTORS
330
EF
102
}
330
EF
100
AcDbVisualStyle
  2
Basic
 70
     7
 71
     1
 72
     0
 73
     1
 90
        0
 40
-0.6
 41
-30.0
 62
     5
 63
     7
 74
     0
 91
        4
 64
     7
 65
   257
 75
     1
175
     1
 42
1.0
 92
        8
 66
     7
 43
1.0
 76
     1
 77
     6
 78
     2
 67
     7
 79
     5
170
     0
171
     0
290
     0
174
     0
 93
        1
 44
0.0
173
     0
291
     1
 45
0.0
1001
ACAD
1000
AcDbSavedByObjectVersion
1070
     0
  0
VISUALSTYLE
  5
FB
102
{ACAD_XDICTIONARY
360
26ED
102
}
102
{ACAD_REACTORS
330
EF
102
}
330
EF
100
AcDbVisualStyle
  2
Brighten
 70
    12
 71
     2
 72
     2
 73
     1
 90
        0
 40
-0.6
 41
-30.0
 62
     5
 63
     7
 74
     1
 91
        4
 64
     7
 65
   257
 75
     1
175
     1
 42
1.0
 92
        8
 66
     7
 43
1.0
 76
     1
 77
     6
 78
     2
 67
     7
 79
     5
170
     0
171
     0
290
     0
174
     0
 93
        1
 44
50.0
173
     0
291
     1
 45
0.0
1001
ACAD
1000
AcDbSavedByObjectVersion
1070
     0
  0
VISUALSTYLE
  5
FF
102
{ACAD_XDICTIONARY
360
26F5
102
}
102
{ACAD_REACTORS
330
EF
102
}
330
EF
100
AcDbVisualStyle
  2
ColorChange
 70
    16
 71
     2
 72
     2
 73
     3
 90
        0
 40
-0.6
 41
-30.0
 62
     5
 63
     8
 74
     1
 91
        4
 64
     7
 65
   257
 75
     1
175
     1
 42
1.0
 92
        8
 66
     8
 43
1.0
 76
     1
 77
     6
 78
     2
 67
     7
 79
     5
170
     0
171
     0
290
     0
174
     0
 93
        1
 44
0.0
173
     0
291
     1
 45
0.0
1001
ACAD
1000
AcDbSavedByObjectVersion
1070
     0
  0
VISUALSTYLE
  5
F8
102
{ACAD_XDICTIONARY
360
26E7
102
}
102
{ACAD_REACTORS
330
EF
102
}
330
EF
100
AcDbVisualStyle
  2
Conceptual
 70
     9
 71
     3
 72
     2
 73
     1
 90
        0
 40
-0.6
 41
-30.0
 62
     5
 63
     7
 74
     2
 91
        2
 64
     7
 65
   257
 75
     1
175
     1
 42
40.0
 92
        8
 66
     7
 43
1.0
 76
     1
 77
     6
 78
     2
 67
     7
 79
     3
170
     0
171
     0
290
     0
174
     0
 93
        1
 44
0.0
173
     0
291
     0
 45
0.0
1001
ACAD
1000
AcDbSavedByObjectVersion
1070
     0
  0
VISUALSTYLE
  5
FA
102
{ACAD_XDICTIONARY
360
26EB
102
}
102
{ACAD_REACTORS
330
EF
102
}
330
EF
100
AcDbVisualStyle
  2
Dim
 70
    11
 71
     2
 72
     2
 73
     1
 90
        0
 40
-0.6
 41
-30.0
 62
     5
 63
     7
 74
     1
 91
        4
 64
     7
 65
   257
 75
     1
175
     1
 42
1.0
 92
        8
 66
     7
 43
1.0
 76
     1
 77
     6
 78
     2
 67
     7
 79
     5
170
     0
171
     0
290
     0
174
     0
 93
        1
 44
-50.0
173
     0
291
     1
 45
0.0
1001
ACAD
1000
AcDbSavedByObjectVersion
1070
     0
  0
VISUALSTYLE
  5
1E6
102
{ACAD_XDICTIONARY
360
26FD
102
}
102
{ACAD_REACTORS
330
EF
102
}
330
EF
100
AcDbVisualStyle
  2
EdgeColorOff
 70
    22
 71
     2
 72
     2
 73
     0
 90
        0
 40
-0.6
 41
-30.0
 62
     5
 63
     7
 74
     1
 91
        4
 64
     7
 65
   257
 75
     1
175
     1
 42
1.0
 92
        8
 66
     7
 43
1.0
 76
     1
 77
     6
 78
     2
 67
     7
 79
     5
170
     0
171
     0
290
     0
174
     0
 93
        1
 44
0.0
173
     0
291
     1
 45
0.0
1001
ACAD
1000
AcDbSavedByObjectVersion
1070
     0
  0
VISUALSTYLE
  5
FE
102
{ACAD_XDICTIONARY
360
26F3
102
}
102
{ACAD_REACTORS
330
EF
102
}
330
EF
100
AcDbVisualStyle
  2
Facepattern
 70
    15
 71
     2
 72
     2
 73
     1
 90
        0
 40
-0.6
 41
-30.0
 62
     5
 63
     7
 74
     1
 91
        4
 64
     7
 65
   257
 75
     1
175
     1
 42
1.0
 92
        8
 66
     7
 43
1.0
 76
     1
 77
     6
 78
     2
 67
     7
 79
     5
170
     0
171
     0
290
     0
174
     0
 93
        1
 44
0.0
173
     0
291
     1
 45
0.0
1001
ACAD
1000
AcDbSavedByObjectVersion
1070
     0
  0
VISUALSTYLE
  5
F0
102
{ACAD_XDICTIONARY
360
26D7
102
}
102
{ACAD_REACTORS
330
EF
102
}
330
EF
100
AcDbVisualStyle
  2
Flat
 70
     0
 71
     2
 72
     1
 73
     1
 90
        2
 40
-0.6
 41
30.0
 62
     5
 63
     7
 74
     0
 91
        0
 64
     7
 65
   257
 75
     1
175
     1
 42
1.0
 92
        8
 66
     7
 43
1.0
 76
     1
 77
     6
 78
     2
 67
     7
 79
     5
170
     0
171
     0
290
     0
174
     0
 93
       13
 44
0.0
173
     0
291
     1
 45
0.0
1001
ACAD
1000
AcDbSavedByObjectVersion
1070
     0
  0
VISUALSTYLE
  5
F1
102
{ACAD_XDICTIONARY
360
26D9
102
}
102
{ACAD_REACTORS
330
EF
102
}
330
EF
100
AcDbVisualStyle
  2
FlatWithEdges
 70
     1
 71
     2
 72
     1
 73
     1
 90
        2
 40
-0.6
 41
30.0
 62
     5
 63
     7
 74
     1
 91
        0
 64
     7
 65
   257
 75
     1
175
     1
 42
1.0
 92
        0
 66
   257
 43
1.0
 76
     1
 77
     6
 78
     2
 67
     7
 79
     5
170
     0
171
     0
290
     0
174
     0
 93
       13
 44
0.0
173
     0
291
     1
 45
0.0
1001
ACAD
1000
AcDbSavedByObjectVersion
1070
     0
  0
VISUALSTYLE
  5
F2
102
{ACAD_XDICTIONARY
360
26DB
102
}
102
{ACAD_REACTORS
330
EF
102
}
330
EF
100
AcDbVisualStyle
  2
Gouraud
 70
     2
 71
     2
 72
     2
 73
     1
 90
        2
 40
-0.6
 41
30.0
 62
     5
 63
     7
 74
     0
 91
        0
 64
     7
 65
   257
 75
     1
175
     1
 42
1.0
 92
        0
 66
     7
 43
1.0
 76
     1
 77
     6
 78
     2
 67
     7
 79
     5
170
     0
171
     0
290
     0
174
     0
 93
       13
 44
0.0
173
     0
291
     1
 45
0.0
1001
ACAD
1000
AcDbSavedByObjectVersion
1070
     0
  0
VISUALSTYLE
  5
F3
102
{ACAD_XDICTIONARY
360
26DD
102
}
102
{ACAD_REACTORS
330
EF
102
}
330
EF
100
AcDbVisualStyle
  2
GouraudWithEdges
 70
     3
 71
     2
 72
     2
 73
     1
 90
        2
 40
-0.6
 41
30.0
 62
     5
 63
     7
 74
     1
 91
        0
 64
     7
 65
   257
 75
     1
175
     1
 42
1.0
 92
        0
 66
   257
 43
1.0
 76
     1
 77
     6
 78
     2
 67
     7
 79
     5
170
     0
171
     0
290
     0
174
     0
 93
       13
 44
0.0
173
     0
291
     1
 45
0.0
1001
ACAD
1000
AcDbSavedByObjectVersion
1070
     0
  0
VISUALSTYLE
  5
F7
102
{ACAD_XDICTIONARY
360
26E5
102
}
102
{ACAD_REACTORS
330
EF
102
}
330
EF
100
AcDbVisualStyle
  2
Hidden
 70
     6
 71
     1
 72
     2
 73
     2
 90
        0
 40
-0.6
 41
-30.0
 62
     5
 63
     7
 74
     2
 91
        2
 64
     7
 65
   257
 75
     2
175
     1
 42
40.0
 92
        0
 66
   257
 43
1.0
 76
     1
 77
     6
 78
     2
 67
     7
 79
     3
170
     0
171
     0
290
     0
174
     0
 93
        1
 44
0.0
173
     0
291
     0
 45
0.0
1001
ACAD
1000
AcDbSavedByObjectVersion
1070
     0
  0
VISUALSTYLE
  5
1E4
102
{ACAD_XDICTIONARY
360
26F9
102
}
102
{ACAD_REACTORS
330
EF
102
}
330
EF
100
AcDbVisualStyle
  2
JitterOff
 70
    20
 71
     2
 72
     2
 73
     0
 90
        0
 40
-0.6
 41
-30.0
 62
     5
 63
     7
 74
     1
 91
        4
 64
     7
 65
   257
 75
     1
175
     1
 42
1.0
 92
       10
 66
     7
 43
1.0
 76
     1
 77
     6
 78
     2
 67
     7
 79
     5
170
     0
171
     0
290
     0
174
     0
 93
        1
 44
0.0
173
     0
291
     1
 45
0.0
1001
ACAD
1000
AcDbSavedByObjectVersion
1070
     0
  0
VISUALSTYLE
  5
FD
102
{ACAD_XDICTIONARY
360
26F1
102
}
102
{ACAD_REACTORS
330
EF
102
}
330
EF
100
AcDbVisualStyle
  2
Linepattern
 70
    14
 71
     2
 72
     2
 73
     1
 90
        0
 40
-0.6
 41
-30.0
 62
     5
 63
     7
 74
     1
 91
        4
 64
     7
 65
   257
 75
     7
175
     7
 42
1.0
 92
        8
 66
     7
 43
1.0
 76
     1
 77
     6
 78
     2
 67
     7
 79
     5
170
     0
171
     0
290
     0
174
     0
 93
        1
 44
0.0
173
     0
291
     1
 45
0.0
1001
ACAD
1000
AcDbSavedByObjectVersion
1070
     0
  0
VISUALSTYLE
  5
1E5
102
{ACAD_XDICTIONARY
360
26FB
102
}
102
{ACAD_REACTORS
330
EF
102
}
330
EF
100
AcDbVisualStyle
  2
OverhangOff
 70
    21
 71
     2
 72
     2
 73
     0
 90
        0
 40
-0.6
 41
-30.0
 62
     5
 63
     7
 74
     1
 91
        4
 64
     7
 65
   257
 75
     1
175
     1
 42
1.0
 92
        9
 66
     7
 43
1.0
 76
     1
 77
     6
 78
     2
 67
     7
 79
     5
170
     0
171
     0
290
     0
174
     0
 93
        1
 44
0.0
173
     0
291
     1
 45
0.0
1001
ACAD
1000
AcDbSavedByObjectVersion
1070
     0
  0
VISUALSTYLE
  5
F9
102
{ACAD_XDICTIONARY
360
26E9
102
}
102
{ACAD_REACTORS
330
EF
102
}
330
EF
100
AcDbVisualStyle
  2
Realistic
 70
     8
 71
     2
 72
     2
 73
     0
 90
        2
 40
-0.6
 41
30.0
 62
     5
 63
     7
 74
     0
 91
        0
 64
     7
 65
   257
 75
     1
175
     1
 42
1.0
 92
        8
 66
   257
 43
1.0
 76
     1
 77
     6
 78
     2
 67
     7
 79
     3
170
     0
171
     0
290
     0
174
     0
 93
       13
 44
0.0
173
     0
291
     0
 45
0.0
1001
ACAD
1000
AcDbSavedByObjectVersion
1070
     0
  0
VISUALSTYLE
  5
1F3
102
{ACAD_XDICTIONARY
360
2707
102
}
102
{ACAD_REACTORS
330
EF
102
}
330
EF
100
AcDbVisualStyle
  2
Shaded
 70
    27
 71
     2
 72
     2
 73
     1
 90
        2
 40
-0.6
 41
30.0
 62
     5
 63
     7
 74
     0
 91
        4
 64
     7
 65
   257
 75
     1
175
     1
 42
1.0
 92
        8
 66
   257
 43
1.0
 76
     1
 77
     6
 78
     2
 67
     8
 79
     3
170
     0
171
     0
290
     0
174
     0
 93
        5
 44
0.0
173
     0
291
     0
 45
0.0
1001
ACAD
1000
AcDbSavedByObjectVersion
1070
     0
  0
VISUALSTYLE
  5
1F2
102
{ACAD_XDICTIONARY
360
2705
102
}
102
{ACAD_REACTORS
330
EF
102
}
330
EF
100
AcDbVisualStyle
  2
Shaded with edges
 70
    26
 71
     2
 72
     2
 73
     1
 90
        2
 40
-0.6
 41
30.0
 62
     5
 63
     7
 74
     1
 91
        2
 64
     7
 65
   257
 75
     2
175
     1
 42
1.0
 92
        8
 66
   257
 43
1.0
 76
     1
 77
     6
 78
     2
 67
     7
 79
     3
170
     0
171
     0
290
     0
174
     0
 93
        5
 44
0.0
173
     0
291
     0
 45
0.0
1001
ACAD
1000
AcDbSavedByObjectVersion
1070
     0
  0
VISUALSTYLE
  5
1EF
102
{ACAD_XDICTIONARY
360
26FF
102
}
102
{ACAD_REACTORS
330
EF
102
}
330
EF
100
AcDbVisualStyle
  2
Shades of Gray
 70
    23
 71
     2
 72
     2
 73
     3
 90
        0
 40
-0.6
 41
-30.0
 62
     5
 63
     7
 74
     2
 91
        2
 64
     7
 65
     7
 75
     1
175
     1
 42
40.0
 92
        8
 66
     7
 43
1.0
 76
     1
 77
     6
 78
     2
 67
     7
 79
     3
170
     0
171
     0
290
     0
174
     0
 93
        1
 44
0.0
173
     0
291
     0
 45
0.0
1001
ACAD
1000
AcDbSavedByObjectVersion
1070
     0
  0
VISUALSTYLE
  5
1F0
102
{ACAD_XDICTIONARY
360
2701
102
}
102
{ACAD_REACTORS
330
EF
102
}
330
EF
100
AcDbVisualStyle
  2
Sketchy
 70
    24
 71
     1
 72
     2
 73
     2
 90
        0
 40
-0.6
 41
-30.0
 62
     5
 63
     7
 74
     2
 91
        2
 64
     7
 65
     7
 75
     1
175
     1
 42
40.0
 92
       11
 66
     7
 43
1.0
 76
     1
 77
     6
 78
     2
 67
     7
 79
     6
170
     0
171
     0
290
     0
174
     0
 93
        1
 44
0.0
173
     0
291
     0
 45
0.0
1001
ACAD
1000
AcDbSavedByObjectVersion
1070
     0
  0
VISUALSTYLE
  5
FC
102
{ACAD_XDICTIONARY
360
26EF
102
}
102
{ACAD_REACTORS
330
EF
102
}
330
EF
100
AcDbVisualStyle
  2
Thicken
 70
    13
 71
     2
 72
     2
 73
     1
 90
        0
 40
-0.6
 41
-30.0
 62
     5
 63
     7
 74
     1
 91
        4
 64
     7
 65
   257
 75
     1
175
     1
 42
1.0
 92
       12
 66
     7
 43
1.0
 76
     1
 77
     6
 78
     2
 67
     7
 79
     5
170
     0
171
     0
290
     0
174
     0
 93
        1
 44
0.0
173
     0
291
     1
 45
0.0
1001
ACAD
1000
AcDbSavedByObjectVersion
1070
     0
  0
VISUALSTYLE
  5
F6
102
{ACAD_XDICTIONARY
360
26E3
102
}
102
{ACAD_REACTORS
330
EF
102
}
330
EF
100
AcDbVisualStyle
  2
Wireframe
 70
     5
 71
     0
 72
     2
 73
     0
 90
        0
 40
-0.6
 41
-30.0
 62
     5
 63
     7
 74
     1
 91
        4
 64
     7
 65
   257
 75
     1
175
     1
 42
1.0
 92
        0
 66
   257
 43
1.0
 76
     1
 77
     6
 78
     2
 67
     7
 79
     3
170
     0
171
     0
290
     0
174
     0
 93
        1
 44
0.0
173
     0
291
     0
 45
0.0
1001
ACAD
1000
AcDbSavedByObjectVersion
1070
     0
  0
VISUALSTYLE
  5
1F1
102
{ACAD_XDICTIONARY
360
2703
102
}
102
{ACAD_REACTORS
330
EF
102
}
330
EF
100
AcDbVisualStyle
  2
X-Ray
 70
    25
 71
     2
 72
     2
 73
     1
 90
        1
 40
0.5
 41
-30.0
 62
     5
 63
     7
 74
     1
 91
        0
 64
     7
 65
   257
 75
     1
175
     1
 42
1.0
 92
        8
 66
     7
 43
1.0
 76
     1
 77
     6
 78
     2
 67
     7
 79
     3
170
     0
171
     0
290
     0
174
     0
 93
       13
 44
0.0
173
     0
291
     0
 45
0.0
1001
ACAD
1000
AcDbSavedByObjectVersion
1070
     0
  0
DICTIONARYVAR
  5
146
102
{ACAD_REACTORS
330
5E
102
}
330
5E
100
DictionaryVariables
280
     0
  1
1:1
  0
DICTIONARYVAR
  5
259
102
{ACAD_REACTORS
330
5E
102
}
330
5E
100
DictionaryVariables
280
     0
  1
3.500000
  0
DICTIONARYVAR
  5
25A
102
{ACAD_REACTORS
330
5E
102
}
330
5E
100
DictionaryVariables
280
     0
  1
acadiso.lin
  0
DICTIONARYVAR
  5
145
102
{ACAD_REACTORS
330
5E
102
}
330
5E
100
DictionaryVariables
280
     0
  1
STANDARD
  0
DICTIONARYVAR
  5
84
102
{ACAD_REACTORS
330
5E
102
}
330
5E
100
DictionaryVariables
280
     0
  1
STANDARD
  0
DICTIONARYVAR
  5
227
102
{ACAD_REACTORS
330
5E
102
}
330
5E
100
DictionaryVariables
280
     0
  1
Metric50
  0
DICTIONARYVAR
  5
228
102
{ACAD_REACTORS
330
5E
102
}
330
5E
100
DictionaryVariables
280
     0
  1
Metric50
  0
DICTIONARYVAR
  5
5F
102
{ACAD_REACTORS
330
5E
102
}
330
5E
100
DictionaryVariables
280
     0
  1
2
  0
DICTIONARYVAR
  5
63
102
{ACAD_REACTORS
330
5E
102
}
330
5E
100
DictionaryVariables
280
     0
  1
1
  0
DICTIONARYVAR
  5
2678
102
{ACAD_REACTORS
330
5E
102
}
330
5E
100
DictionaryVariables
280
     0
  1
0
  0
DICTIONARYVAR
  5
1AE
102
{ACAD_REACTORS
330
5E
102
}
330
5E
100
DictionaryVariables
280
     0
  1
0
  0
DICTIONARYVAR
  5
1AF
102
{ACAD_REACTORS
330
5E
102
}
330
5E
100
DictionaryVariables
280
     0
  1
0
  0
DICTIONARYVAR
  5
2676
102
{ACAD_REACTORS
330
5E
102
}
330
5E
100
DictionaryVariables
280
     0
  1
2
  0
DICTIONARYVAR
  5
2675
102
{ACAD_REACTORS
330
5E
102
}
330
5E
100
DictionaryVariables
280
     0
  1
1
  0
DICTIONARYVAR
  5
26C8
102
{ACAD_REACTORS
330
5E
102
}
330
5E
100
DictionaryVariables
280
     0
  1
80.000000
  0
DICTIONARYVAR
  5
26C7
102
{ACAD_REACTORS
330
5E
102
}
330
5E
100
DictionaryVariables
280
     0
  1
5.000000
  0
DICTIONARYVAR
  5
2677
102
{ACAD_REACTORS
330
5E
102
}
330
5E
100
DictionaryVariables
280
     0
  1
127
  0
DICTIONARYVAR
  5
26C9
102
{ACAD_REACTORS
330
5E
102
}
330
5E
100
DictionaryVariables
280
     0
  1
2
  0
DICTIONARY
  5
270B
330
21C
100
AcDbDictionary
280
     1
281
     1
  3
ACAD_XREC_ROUNDTRIP
360
270C
  0
DICTIONARY
  5
26D0
330
D3
100
AcDbDictionary
280
     1
281
     1
  3
ACAD_XREC_ROUNDTRIP
360
26D1
  0
DICTIONARY
  5
26D2
330
D7
100
AcDbDictionary
280
     1
281
     1
  3
ACAD_XREC_ROUNDTRIP
360
26D3
  0
DICTIONARY
  5
26CD
330
22
100
AcDbDictionary
280
     1
281
     1
  3
ACAD_XREC_ROUNDTRIP
360
26CE
  0
DICTIONARY
  5
1F9
330
ED
100
AcDbDictionary
280
     1
281
     1
  3
ACAD_XREC_ROUNDTRIP
360
26D5
  3
FBXASSET
360
1FA
  0
DICTIONARY
  5
1F7
330
EC
100
AcDbDictionary
280
     1
281
     1
  3
ACAD_XREC_ROUNDTRIP
360
26D4
  3
FBXASSET
360
1F8
  0
DICTIONARY
  5
173
330
EE
100
AcDbDictionary
280
     1
281
     1
  3
ACAD_XREC_ROUNDTRIP
360
26D6
  3
BUMPTILE
360
175
  3
DIFFUSETILE
360
174
  3
FBXASSET
360
1FB
  3
OPACITYTILE
360
176
  3
REFLECTIONTILE
360
177
  0
DICTIONARY
  5
26F7
330
12E
100
AcDbDictionary
280
     1
281
     1
  3
ACAD_XREC_ROUNDTRIP
360
26F8
  0
DICTIONARY
  5
2709
330
21A
100
AcDbDictionary
280
     1
281
     1
  3
ACAD_XREC_ROUNDTRIP
360
270A
  0
DICTIONARY
  5
162
330
7F
100
AcDbDictionary
280
     1
281
     1
  3
ACAD_ROUNDTRIP_2008_TABLESTYLE_CELLSTYLEMAP
360
26CA
  3
ACAD_XREC_ROUNDTRIP
360
26CF
  0
DICTIONARY
  5
26E1
330
F5
100
AcDbDictionary
280
     1
281
     1
  3
ACAD_XREC_ROUNDTRIP
360
26E2
  0
DICTIONARY
  5
26DF
330
F4
100
AcDbDictionary
280
     1
281
     1
  3
ACAD_XREC_ROUNDTRIP
360
26E0
  0
DICTIONARY
  5
26ED
330
FB
100
AcDbDictionary
280
     1
281
     1
  3
ACAD_XREC_ROUNDTRIP
360
26EE
  0
DICTIONARY
  5
26F5
330
FF
100
AcDbDictionary
280
     1
281
     1
  3
ACAD_XREC_ROUNDTRIP
360
26F6
  0
DICTIONARY
  5
26E7
330
F8
100
AcDbDictionary
280
     1
281
     1
  3
ACAD_XREC_ROUNDTRIP
360
26E8
  0
DICTIONARY
  5
26EB
330
FA
100
AcDbDictionary
280
     1
281
     1
  3
ACAD_XREC_ROUNDTRIP
360
26EC
  0
DICTIONARY
  5
26FD
330
1E6
100
AcDbDictionary
280
     1
281
     1
  3
ACAD_XREC_ROUNDTRIP
360
26FE
  0
DICTIONARY
  5
26F3
330
FE
100
AcDbDictionary
280
     1
281
     1
  3
ACAD_XREC_ROUNDTRIP
360
26F4
  0
DICTIONARY
  5
26D7
330
F0
100
AcDbDictionary
280
     1
281
     1
  3
ACAD_XREC_ROUNDTRIP
360
26D8
  0
DICTIONARY
  5
26D9
330
F1
100
AcDbDictionary
280
     1
281
     1
  3
ACAD_XREC_ROUNDTRIP
360
26DA
  0
DICTIONARY
  5
26DB
330
F2
100
AcDbDictionary
280
     1
281
     1
  3
ACAD_XREC_ROUNDTRIP
360
26DC
  0
DICTIONARY
  5
26DD
330
F3
100
AcDbDictionary
280
     1
281
     1
  3
ACAD_XREC_ROUNDTRIP
360
26DE
  0
DICTIONARY
  5
26E5
330
F7
100
AcDbDictionary
280
     1
281
     1
  3
ACAD_XREC_ROUNDTRIP
360
26E6
  0
DICTIONARY
  5
26F9
330
1E4
100
AcDbDictionary
280
     1
281
     1
  3
ACAD_XREC_ROUNDTRIP
360
26FA
  0
DICTIONARY
  5
26F1
330
FD
100
AcDbDictionary
280
     1
281
     1
  3
ACAD_XREC_ROUNDTRIP
360
26F2
  0
DICTIONARY
  5
26FB
330
1E5
100
AcDbDictionary
280
     1
281
     1
  3
ACAD_XREC_ROUNDTRIP
360
26FC
  0
DICTIONARY
  5
26E9
330
F9
100
AcDbDictionary
280
     1
281
     1
  3
ACAD_XREC_ROUNDTRIP
360
26EA
  0
DICTIONARY
  5
2707
330
1F3
100
AcDbDictionary
280
     1
281
     1
  3
ACAD_XREC_ROUNDTRIP
360
2708
  0
DICTIONARY
  5
2705
330
1F2
100
AcDbDictionary
280
     1
281
     1
  3
ACAD_XREC_ROUNDTRIP
360
2706
  0
DICTIONARY
  5
26FF
330
1EF
100
AcDbDictionary
280
     1
281
     1
  3
ACAD_XREC_ROUNDTRIP
360
2700
  0
DICTIONARY
  5
2701
330
1F0
100
AcDbDictionary
280
     1
281
     1
  3
ACAD_XREC_ROUNDTRIP
360
2702
  0
DICTIONARY
  5
26EF
330
FC
100
AcDbDictionary
280
     1
281
     1
  3
ACAD_XREC_ROUNDTRIP
360
26F0
  0
DICTIONARY
  5
26E3
330
F6
100
AcDbDictionary
280
     1
281
     1
  3
ACAD_XREC_ROUNDTRIP
360
26E4
  0
DICTIONARY
  5
2703
330
1F1
100
AcDbDictionary
280
     1
281
     1
  3
ACAD_XREC_ROUNDTRIP
360
2704
  0
XRECORD
  5
270C
102
{ACAD_REACTORS
330
270B
102
}
330
270B
100
AcDbXrecord
280
     1
102
DISPLAYNAME
  1
Metric50
102
FLAGS
 90
        0
  0
XRECORD
  5
26D1
102
{ACAD_REACTORS
330
26D0
102
}
330
26D0
100
AcDbXrecord
280
     1
102
SHADEPLOT
 70
     0
102
SHADEPLOTRESLEVEL
 70
     2
102
SHADEPLOTCUSTOMDPI
 70
   300
  0
XRECORD
  5
26D3
102
{ACAD_REACTORS
330
26D2
102
}
330
26D2
100
AcDbXrecord
280
     1
102
SHADEPLOT
 70
     0
102
SHADEPLOTRESLEVEL
 70
     2
102
SHADEPLOTCUSTOMDPI
 70
   300
  0
XRECORD
  5
26CE
102
{ACAD_REACTORS
330
26CD
102
}
330
26CD
100
AcDbXrecord
280
     1
102
SHADEPLOT
 70
     0
102
SHADEPLOTRESLEVEL
 70
     2
102
SHADEPLOTCUSTOMDPI
 70
   300
  0
XRECORD
  5
26D5
102
{ACAD_REACTORS
330
1F9
102
}
330
1F9
100
AcDbXrecord
280
     1
102
MATERIAL
148
0.0
149
0.0
149
0.0
 93
        0
 94
       63
282
     0
 72
     1
 77
     1
171
     1
175
     1
179
     1
273
     0
  0
XRECORD
  5
1FA
102
{ACAD_REACTORS
330
1F9
102
}
330
1F9
100
AcDbXrecord
280
     1
 70
     1
 90
429727718
  1
D62C5603-E3A1-4AEA-B7FB-FE5D8D0755AF
310
504B03040A0000080000CC70623B3DEE336E79000000790000001B0000006175746F6465736B2D64657369676E2D7061636B6167652E786D6C3C3F786D6C2076657273696F6E3D22312E302220656E636F64696E673D227574662D3822203F3E3C666F726D6174733E3C666F726D61743E687474703A2F2F736368656D612E
310
6175746F6465736B2E636F6D2F64657369676E2D7061636B6167652F323030393C2F666F726D61743E3C2F666F726D6174733E504B0304140006080800CC70623BD486FD9CA0000000F4000000130000005B436F6E74656E745F54797065735D2E786D6C7D8EC10E82300C865F65E91D8A1E8C310C0EEA1BF002731658846E
310
D98AC1B77784ABF1D8FE5FBFBF75BBCE937A534CCEB38643598122B6FEE978D0B0485F9C41B54DDD7D022595594E1A469170414C76A4D9A4D207E29CF43ECE46F218070CC6BECC4078ACAA135ACF422C856C0E68EA1BF5669944DDD7BCDE7B1F8E415D77AECB980613C2E4AC91FC167A2B244592486606FC29C8FD7F045B9A
310
EF7053A7E60B504B0304140006080800CC70623B853B8169EB0000007C01000008000000636F72652E786D6C8D90416EC3201045AF62CDB6C206821CC7C244919D9CA01740401C94182C03558F5F9C3852BBEB6A467FFE9B197D7EFC9E1EC5975982F5AE035262288C535E5B377690E21535501C055FBC8FBF6C503839990E
310
5619041F179FE64D52DE45E362569DD7661365082642A11EB9E920A89B99642953CC8E702F67A9EE7234257977194EC9EAE275C4EABCCF5EAD5940D4AC6F0E35A568B8F43562CD7046CD199FD07E60174276A7BE677B5EADB0E0D14EEFFB6A31321A0D82627C4084204C3F096B71DD52F6819B16635EADF63F509AF53FA164
310
5DDCD1EDDD17164090FCC8732078B56691CB33A85CD7DCC40F504B0304140006080800CC70623B55019EA25F0000007C00000007000000636E782E786D6C4DCB3B0E80201045D1AD90E915ED2CF8AC45050C11660C8261F98AB1B07AC9C97D42D718D865D3E909258CFD00CCE24AC6E326A164D74DC0B4128928FF32603847
310
2BA13128B1252AC747C6BAB984FC68F0B87FE8960A5C09FE86CFB69FBA01504B0304140006080800CC70623BDBABAAF470010000D40300000C0000006662782F636F72652E786D6CC553D16E823014FD95A6AF4B694182CC941A83FA05FB810A9511A125A5257EFE2E82712ECEB8A7F100CD39F7F69E734AF9FADC366850B6
310
AF8DCE7018308C942E4C59EB2AC3DE1D498AD15A706B8CFB56869196ADCAF00863C12B6B7C374385D14E6907A836A59A41D9F7CA615434B0C8705F7CAA5606D23BA8E84F41278B93AC54100640439DE0BDB320004D43C63716C7C399D30917DCFBBA9CD9BA8469F5B156168B24CED3F7248AC8769F27244EB73B92EED8862C
310
B7F13E0C179B3C8F979C8ECD82BBBABDAA2BAC924E9558448CBD9330242CFA08E3154B5651FCC6D215639C8EE5774DBE2B5F6CF2B5768B68963BB5F5588420E442FC700B1139D4CB01F450C1E918227C2E09DF070D8140C84E1E9AAB8F1340832A9CB13130A5F1376A908D57309505ECF2A0DF179C4E9D30F5B239B87E3823
310
7A79C6F31DE1A8A5AEC08474B03C7837EAE4938639B44E5932B833D2C6B6B279CDC613877FA26EE21F4A2A4C63EC7F29A2F301D1F9F7A0E37D145F504B0304140006080800CC70623B9C113CC27E0000009D0000000B0000006662782F636E782E786D6C4DCCDF0A83201C86E15B91DFB94BFB330DD428C8FB886521330DA7
310
6397BF1A1DECE883878F57749FCDA1B7892F1BBC047A23808C7F84D9FA55424E0BE6803A256208E9EF06C84F9B91703228B1C690F78B66B34CD9A5439DF5CF0BFBF65E35BCA1B8D6A5C6F540381E886698B5741C695F9503EBA150A2F8958E3DC3EA0B504B0304140006080800CC70623B7DF2F77C2A010000120200003100
310
00006662782F41393633353835312D344632462D344230382D423046372D3739314545314133324237412F636F72652E786D6C8D51DB8EC22014FC15C2939B0D2DB4B45643319AE817EC0F6041255A68B86CFCFC856D4D76DF7CE190393373060EDB3DC707F856CE6B6B7A480A0C81328395DA5C7B18C3057510EC3873D686
310
3F34088C18550F330C39BB3A1BA7051AAC09CA84841A2BD5020AEF55806078A44B0FFD7053A328440C89E1EFC52486BBB8AA8214A99D789CF9E05200300FC927E4FB4D5B375D43103D5527440FB843077C5AA3F5861C8F645F5787F59E95B390B318B55CE45AA638FAA2957BD7248B390B7A7CC51F9C124149C82B8C378810
310
84AB2F42B7B8DD56F413775B8C5999E9FF4471926F8AA236A1AE96B8B3CC434E5839373893369E1FAF30EA395917409EB7F26AF8801C171837A4A6AC9C89E9F9C9B1A58BA30FD6A5EF5DDDCF894B9AD9B6A59C957943A9FCAE2FD5BC4DFE03504B0304140006080800CC70623BAD7543B64E01000033030000300000006662
310
782F41393633353835312D344632462D344230382D423046372D3739314545314133324237412F636E782E786D6CD593CD6EC32010845F0571AD6CE3D48AD20813A9873E410FBD12D82434182C7EAAE6EDBB2424CD25871E7B41D6EC30B3FA84F9E67BB2E40B4234DE8DB46F1925E094D7C6ED479AD3AE5951B2113C789FEE
310
6C943839C1488B4C05DF079FE72A69D8C96C13AAD6B8631503449F83828872B949AC57D26200B826A308D316B4064D6E46FCDA41C05550DC9E483A00797BFD207EFB092A45DE9514C1BBD22178396BD39D891265658C238DEA00936C654E5E433CB65A26D9F6EDB5EBC14EBF49A45CB856E66048291F6939A9A81BB5C89177
310
38143CA680F4AA299D66A042CEB3354A2684DC9D8D178FE0D9B8B41CAAD720F880EE7EF93C0C18769E099ECC04D5A102C8049A8A05632F4DDF376CF1DE0F6BB65C2F8627B65A33C6BB62177CEBBDAD973006829F89F22E814B54F4BC2BE347F8AA8F681390B50FA73F804400B5F542E796F19FF974E7F78DB802FE05E20750
310
4B0304140006080800CC70623BE75B7789680500003C100000340000006662782F41393633353835312D344632462D344230382D423046372D3739314545314133324237412F6F626A656374732E786D6CAD575B8F9B3818FD2B887D06C22499CB8AA1CA655245D5B455A356FB305264C061D8018C6C3393D95FBFC7600890
310
A4CD5EF210B0B1BFEBF98E3F7B1FF6596ABC522E1296DF9BAE3D320D9A872C4AF2F8DE2CE5CEBA358D0FBEC719939D65A691938CDE9B6ADAF4BD98B3B2D05311DD91329583D9D5FC0F438434A7A611A644887B5384CF34233629258BA878B12322891DEFF6B66BD70BFB62634E8AE781D082709A4B588AF91C528CDA28B73F
310
1C998EEF39EABBEFA97FBD6A7C7E9553F9D3D79FE442923C3C523610337627CB87ABE99D359D4CC6D6E4FACAB5E6ABF9D2726FC6A3C5F56271377BB88362213924694B38DD99FE47C48627A1E7D49F5A8BB5E1A74C0A599ED3B0F21F1E56366B89112D681E218F0915D0D6F17AD41FBA2A369DCF6335D62ABBD39779D5DDD1
310
11D4D8DE3CBB96B2E04FB8202E41051754A1AA8E8F76B4C6DFE810B580B1547F4B84911149794252234D024EF8BBE963A95AE27B3D310A9D5C215C7960FAEE415ED75694C6AFB17BCACA5D99A60A9AA65F217B0BFC53292ACB92BF283FAD0D3621576592CB5BED907C2FA8E9DF794E35E97BEA31BED21FEB401ABB94C44839
310
DCACBF0E1C5DA8DA5B2F4DFFD32AD86F543D9E565E7056502E157C00AD2671CD534549AB752FCA9CDA00677A313F04E51B22FF19E57B300579E3C97EB29F682D92935CEC18CF901B7B54FD8C51F362B56FC72FE0B3C1EAE335EDCCBF5AEC39ADB17DC238973F804BA5E6F6BFE7AF1FB32E523BE9F3BD571418E3631DCA4D48
310
5250CF639223210A9446CA30052EDF057BD35F8329C1ECD84552BF0DC8D18BE7BCE23BFE6BD960AB4A7DE79923A103BEBD80F911CBAA2C60DB19B01CF164A5583B772EE6D3FFA56666CBCDA74DC97724A48F9A58967497E489C4D979006FD7A05E227A1EBDD0F737C623387A9C844D3709995625106D157315F8B8392CD4E0
310
A0B9A720C4BE9829CEF37EA1E13111214D53925356365ADA634861B52519DD27A00AEB808EAF0628E6F435519D446F45CF2C9CF5214F0A15B2F6D06B79DA3EE3CBF7F56780D2F4E7EF73A0F5E5B02A38D07DC852C6B7C1FBB6664213E0C39E3EBA7FF4E1AD23EA2829407C85E586727488B751B2DB9502BC7B228A3FD68B6E
310
A65A22397E690AA8D158D7E404EC8CDA235CC3B7D1898680131CEC2CDF2638C65196279577750F15884AEE19F94199155B92B13297978469D4F8D358DF0AEF7631E28DC8F0D9F437D5D39A83B2231A1D52D543813A824EF8D44BCFF2FA6A31BD1E8DAD87F1CCB526B3879935BF59CDADD5C37479BB1CDD4CA7B3556B516589
310
EF352754B706114D9C885EC9131DE6EFEB43D99AFE2391C2F958179413D7CFEF6B1B6DB1E7600F00DE6E5C67454A339A4BA2E0FBA85ED26F045D454F463DBFCE484C2F90F2E5E3666003662ED8F755951A7D1BECD5B30B550B2785C8E7320B7292A4838DDA71BBC863ED7613CAF659337A3354231D4FF4A182A54904C2898C
310
98B28C4AD0CE056CCF332A80986E571EE9DBC305BB5FEB7E509220A58D25CF042D712A806AC0AD0C657FDEF80D2D9CEAA2EE4D1C76F60BFE74219A06527D6F82DF6412526107381E55E353090704D085B52408A8913C4ED159D79BDA71BB4BC506F4831350EB6F975CD22D69BF7AC49B91A2C0A9DDA3D5CA36AD20FC478E37
310
E61844E2352865EBCB61A275A65283CAAA9DD27703B4102F5AF51EF5F573B75CBB5AD38BC845F7A49F82A0966A49C2E3EA5EA0ECD326CD965F1DB402C6FA8B51A4658C5C5E2EC9E214602E55810345408596591009A82E7E7FFACA19EEA299B14A0081A705CB3296EBC14CDF658DCD336EA6D1136881AAEB87B81AB9EE53D5
310
F5EB8BC8362082DA24122F98680A4E7930C01A0079749CEA14382A0783E5EBA5A10F8C098456A03D6A4AEB6BB881E2513747552A5DB22C7EDAF83BD5528081A365F7FF06504B0304140006080000CC70623B000000000000000000000000350000006662782F41393633353835312D344632462D344230382D423046372D37
310
39314545314133324237412F76657274696365732E62696E504B0304140006080800CC70623BF270F1330600000004000000360000006662782F41393633353835312D344632462D344230382D423046372D3739314545314133324237412F747269616E676C65732E62696E636660600000504B0304140006080000CC7062
310
3B000000000000000000000000370000006662782F41393633353835312D344632462D344230382D423046372D3739314545314133324237412F617474726962757465732E62696E504B0304140006080800CC70623B08DA0BD19000000041010000360000006662782F41393633353835312D344632462D344230382D4230
310
46372D3739314545314133324237412F6469726563746F72792E786D6C858F410AC3201045AF22B36F53E9A60B35CBEEBAE80D244E44489C6234F4F835464A48035D0DF398FF9F8AF63D0E6CC63039F212F8F9020C7D47C6792B21C5FE7403D62A1188E2E60C98D7234A5830286103A55745067B9D86B8A3CF9C7F90C11DE6
310
07FB144396D7B6A82D282E9A152AD114D5EF2CB866EEE831B8EEA07A7BB5A8D7D61A2BAAEB7FD5F70921FF497D00504B0304140006080800CC70623BEDD1DC58FD000000A00100003B0000006662782F41393633353835312D344632462D344230382D423046372D3739314545314133324237412F7265736F75726365732F
310
636F72652E786D6C8D504B6E833010BD0A9A6D65B00922041947112427E8052C33A156828DFCA97AFC9A40A576D7CDCCE87D344F8F9FBFE667F689CE6B6B3A6039850C8DB2A336530731DC4903D95970676DF82583CCC8193B5861107C72362E3BA4AC096842428D1D7107A5F7182053CF7474E0D507CE32973124857FE48B
310
540F3961CEF244279DE03EB81420DB9EAC1384436FA353E879B1B182C7A8C75DA3C7F453DF353A1075D537A7BA6464B8F535A99AE14A9A2BBD90E350DD183B5CFABE3AF262350B1EF4FC9351399401471025A527C218A1E53BAB5A5AB765F5469B96525EACF23FA6B88CFF34456DC2A1DCE36E360F82A5202F42F062ED2BAD
310
579969AFDD8A6F504B010214000A0000080000CC70623B3DEE336E79000000790000001B00000000000000000000000000000000006175746F6465736B2D64657369676E2D7061636B6167652E786D6C504B01021400140006080800CC70623BD486FD9CA0000000F40000001300000000000000000000000000B20000005B
310
436F6E74656E745F54797065735D2E786D6C504B01021400140006080800CC70623B853B8169EB0000007C010000080000000000000000000000000083010000636F72652E786D6C504B01021400140006080800CC70623B55019EA25F0000007C000000070000000000000000000000000094020000636E782E786D6C504B
310
01021400140006080800CC70623BDBABAAF470010000D40300000C00000000000000000000000000180300006662782F636F72652E786D6C504B01021400140006080800CC70623B9C113CC27E0000009D0000000B00000000000000000000000000B20400006662782F636E782E786D6C504B01021400140006080800CC70
310
623B7DF2F77C2A010000120200003100000000000000000000000000590500006662782F41393633353835312D344632462D344230382D423046372D3739314545314133324237412F636F72652E786D6C504B01021400140006080800CC70623BAD7543B64E010000330300003000000000000000000000000000D2060000
310
6662782F41393633353835312D344632462D344230382D423046372D3739314545314133324237412F636E782E786D6C504B01021400140006080800CC70623BE75B7789680500003C10000034000000000000000000000000006E0800006662782F41393633353835312D344632462D344230382D423046372D3739314545
310
314133324237412F6F626A656374732E786D6C504B01021400140006080000CC70623B0000000000000000000000003500000000000000000000000000280E00006662782F41393633353835312D344632462D344230382D423046372D3739314545314133324237412F76657274696365732E62696E504B01021400140006
310
080800CC70623BF270F133060000000400000036000000000000000000000000007B0E00006662782F41393633353835312D344632462D344230382D423046372D3739314545314133324237412F747269616E676C65732E62696E504B01021400140006080000CC70623B0000000000000000000000003700000000000000
310
000000000000D50E00006662782F41393633353835312D344632462D344230382D423046372D3739314545314133324237412F617474726962757465732E62696E504B01021400140006080800CC70623B08DA0BD1900000004101000036000000000000000000000000002A0F00006662782F41393633353835312D344632
310
462D344230382D423046372D3739314545314133324237412F6469726563746F72792E786D6C504B01021400140006080800CC70623BEDD1DC58FD000000A00100003B000000000000000000000000000E1000006662782F41393633353835312D344632462D344230382D423046372D3739314545314133324237412F7265
310
736F75726365732F636F72652E786D6C504B0506000000000E000E0080040000641100000000
  0
XRECORD
  5
26D4
102
{ACAD_REACTORS
330
1F7
102
}
330
1F7
100
AcDbXrecord
280
     1
102
MATERIAL
148
0.0
149
0.0
149
0.0
 93
        0
 94
       63
282
     0
 72
     1
 77
     1
171
     1
175
     1
179
     1
273
     0
  0
XRECORD
  5
1F8
102
{ACAD_REACTORS
330
1F7
102
}
330
1F7
100
AcDbXrecord
280
     1
 70
     1
 90
429727718
  1
30362254-06B7-45E0-A893-8CFA70E3D6BC
310
504B03040A0000080000CC70623B3DEE336E79000000790000001B0000006175746F6465736B2D64657369676E2D7061636B6167652E786D6C3C3F786D6C2076657273696F6E3D22312E302220656E636F64696E673D227574662D3822203F3E3C666F726D6174733E3C666F726D61743E687474703A2F2F736368656D612E
310
6175746F6465736B2E636F6D2F64657369676E2D7061636B6167652F323030393C2F666F726D61743E3C2F666F726D6174733E504B0304140006080800CC70623BD486FD9CA0000000F4000000130000005B436F6E74656E745F54797065735D2E786D6C7D8EC10E82300C865F65E91D8A1E8C310C0EEA1BF002731658846E
310
D98AC1B77784ABF1D8FE5FBFBF75BBCE937A534CCEB38643598122B6FEE978D0B0485F9C41B54DDD7D022595594E1A469170414C76A4D9A4D207E29CF43ECE46F218070CC6BECC4078ACAA135ACF422C856C0E68EA1BF5669944DDD7BCDE7B1F8E415D77AECB980613C2E4AC91FC167A2B244592486606FC29C8FD7F045B9A
310
EF7053A7E60B504B0304140006080800CC70623B1EC5D7A3EB0000007C01000008000000636F72652E786D6C8D90416EC3201045AF82665B6103C6756C6122AB4D4ED00B204C5C94182C03558F5F9C3852BBEB6A467FFE9B197D71FC9E6FE8CBACC17AD7032D0820E3B41FAD9B7A48F1820F808E52ACDEC75F36404ECDA687
310
4D0629A6D5A76597B477D1B89855E747B38B2A041301E95B6E7A08FAD3CCAA50296647B8168BD2573599823EBB0CA76447F43862C7BCCF5EAC59410E4DDD9C7973C2755553CCCFA4C603E3040F1565ED3B1FDE4E432BCA0D9622DAF9795FAF464533826484B498524CD807E51D79ED187F21878E10516EF63F505AC67F42C9
310
BA58B1FDDD071640D2FCC87D2045B96591CB3DA85CB7DCE40F504B0304140006080800CC70623B55019EA25F0000007C00000007000000636E782E786D6C4DCB3B0E80201045D1AD90E915ED2CF8AC45050C11660C8261F98AB1B07AC9C97D42D718D865D3E909258CFD00CCE24AC6E326A164D74DC0B4128928FF32603847
310
2BA13128B1252AC747C6BAB984FC68F0B87FE8960A5C09FE86CFB69FBA01504B0304140006080800CC70623B8C9102E971010000D40300000C0000006662782F636F72652E786D6CC5535B6E833010BC8AE5DF0A6C08340F1947A84D4ED00B38C6A128602363A31CBFCB234A53A551FA553EC09AD9F5CE8C31DB9E9B1AF5CA
310
7695D1198E428A91D2D214952E33ECDD315861B4E5CC1AE3BE9561A445A3323CC098B3D21ADFCE9034DA29ED00D5A6503328BA4E398C640D8B0C77F253352214DE4145770A5B214FA2546114020D759C75CE8200340D19DE981F0F6746269C33EFAB6266AB02A655C74A59CCF365BADC27CB5D902ED22848F6340DF238A141
310
BE88E2F57B92BFEDF23523433367AE6A2EEAA455C2A902F398D2751045018D3FA264435F3771F242571B4A1919CA6F9A7C5B3CD9E42BED16F12C776AEB308F40C848FC700B1139D4891EF410CEC810227CC6846F8386402064270EF5C5C709A05E49676C024C61FC95EA45ED154CA5211D1FF4FB8291A913A68E9B83EBBB33
310
E2A7673CDE118E5AE8124C0807CB8377834E366998436B950D7A7746DAD846D4CFD978E0F04FD455FC5D49D2D4C6FE9722321F10997F0F32DC47FE05504B0304140006080800CC70623BFFEA85907E0000009D0000000B0000006662782F636E782E786D6C4DCCD10A83201886E15B91FFDC95D95A811AB6F23E625948A6C3
310
E9D8E5AF46073BFAE0E1E365ED67B3E8ADC3CB78C7815C7240DA3DFC64DCC221C519D7805AC182F7F1EF06C88D9BE6703008B6049F9E274D7A1E938DBB5AE3D6131B2589BA0D3D965551E0B2EA732C9B9A624AAEB41E3A557677029960D9AFB4EF11165F504B0304140006080800CC70623B4FEEA4082C0100001202000031
310
0000006662782F39464131463745442D413632322D343644302D413938332D3331353338454246344243312F636F72652E786D6C8D515B6EC32010BC0AE2AB55850DD871ED0813254D72825EC00192A2C460F1A872FC42ED48ED5F7E00CDCECCCEB26C731F6FE05B39AFADE921293004CA082BB5B9F43086336A21D870E6AC
310
0D7F68109861543DCC30E4ECE26C9C164858139409093556AA051CBC570102714B8F1E7AF1A5C6A11862480C7F2DA6415C878B2A4891CA89C7990F2E050073937C42DE1DB7E4F87ED8A36D4329AA9B3D46DBAEAD504556557BD81DEBDD0761E52CE42C462D17B996298E3E6BE59E35C962CE821E1FF18553435012728A7187
310
0841987E927A8D9B35ADDF70BBC6989599FE4F1427F9A4286A132ABAC49D651EF234CD5CE04CDA78BA3DC2A8FB645D00B9DF8B57E215725C60BCA2A463E54C4CE327C7A65E1C7DB02E7DEFCBF594B864C5CA6CDBD49C957943E9FA5D5FBAF336F90F504B0304140006080800CC70623BAD7543B64E01000033030000300000
310
006662782F39464131463745442D413632322D343644302D413938332D3331353338454246344243312F636E782E786D6CD593CD6EC32010845F0571AD6CE3D48AD20813A9873E410FBD12D82434182C7EAAE6EDBB2424CD25871E7B41D6EC30B3FA84F9E67BB2E40B4234DE8DB46F1925E094D7C6ED479AD3AE5951B2113C
310
789FEE6C943839C1488B4C05DF079FE72A69D8C96C13AAD6B8631503449F83828872B949AC57D26200B826A308D316B4064D6E46FCDA41C05550DC9E483A00797BFD207EFB092A45DE9514C1BBD22178396BD39D891265658C238DEA00936C654E5E433CB65A26D9F6EDB5EBC14EBF49A45CB856E66048291F6939A9A81BB5
310
C8917738143CA680F4AA299D66A042CEB3354A2684DC9D8D178FE0D9B8B41CAAD720F880EE7EF93C0C18769E099ECC04D5A102C8049A8A05632F4DDF376CF1DE0F6BB65C2F8627B65A33C6BB62177CEBBDAD973006829F89F22E814B54F4BC2BE347F8AA8F681390B50FA73F804400B5F542E796F19FF974E7F78DB802FE05
310
E207504B0304140006080800CC70623B16AB87BA640500003C100000340000006662782F39464131463745442D413632322D343644302D413938332D3331353338454246344243312F6F626A656374732E786D6CAD575B6FA33818FD2B887DE6924B3BED8A326A92B68A663B534DD4D13E548A0C38942D60649B369D5FBFC7
310
600890A493BDE42160637FD7F31D7FF63E6FB3D478A55C242CBF3247B66B1A340F5994E4F19559CA8D75611A9F7D8F33263BCB4C232719BD32D5B4E97B316765A1A722BA21652A07B3B7B33F0D11D29C9A46981221AE4C113ED38CD8A4942CA2E2C58E882476BCD9DA23BB5ED8171B73523C0F841684D35CC252CCE79062D4
310
468DFA43D7747CCF51DF7D4FFDEB5593E3AB9CCA9FBEFE241792E4E19EB28198C968BAB8199F5D5A67D3E9C49A9E8F47D6EC76B6B0469F26EEFC7C3EBFBCBEB98462213924694B38DD98FE1D62C393D073EA4FADC5DAF04326852CCF6958F90F0F2B9BB5C48816348F90C7840A68EB78EDF68723159BCEE7891A6B95DDE9D3
310
BCEAEEE8086A6C6F9E5D4B59F0175C10A7A0820BAA5055C7473B5AE3CFDD452D602CD5DF12616444529E90D448938013FE6EFA58AA96F85E4F8C42275708571E98FE6827AF6B2B4AE3D7D83D64E5A64C53054DD3AF90BD06FEA9149565C94FCA0F6B834DC85599E4F2423B24DF0B6AFA979E534DFA9E7A4CC6FA631D486393
310
921829879BF5D781A373557BCB85E97FB90DB62B558F8795179C15944B051F40AB495CF35451D26A4727654E6D8033BD98EF82F21D91FF8AF2DD9982BCF1643BDD4EB516C9492E368C67C88DED563FC36D5EACF66DFF057C3658BDBFA69DF9578B3DA735B64F18C7F20770A9D45CFCF7FCF563D6456A277DBEF78A02637CA2
310
43B90A490AEAB94F72244481D24819A6C0E59B606BFA4B3025981DBB48EAB701D97BF19C577CC77F2D1B6C55A9EF3C732474C0B727303F625995056C3B02963D9EAC146BE78EC5FCEC7FA999EBC5EACBAAE41B12D27B4D2C0BBA49F244E2ECDC81B76B502F113D8F5EE8FB1BE3111CDD4FC2AA9B844CAB1288B68AB90A7CDC
310
1C166AB0D3DC5310625FCC14E779BFD0709F8890A629C9292B1B2DED31A4B0DA928CEE135085754027E3018A397D4D5427D15BD1330B677DC8934285AC3DF45A9EB68FF8F2B8FC0A509AFEECFD0FF2DE25CC6047F7214B195F07EFEB9A094D800F7BFAE8FED187B78EA8A3A400F115961BCAD1215E47C966530AF0EE8128FE
310
58CEBB996A8964FFA529A046635D9353B0336A8F700DDF46271A024E70B0B37C9DE01847591E54DED53D54202AB947E4076556AC49C6CA5C9E1226B7F1A7B1BE15DEED62C41B91E1B3E9AFAAA735036547343A925075041DF0A9979E893B391F8FCFA6967B3EFB644DCF6E5CEBFAE272625DCC6FAF3FB93793C5F90CE1EF57
310
407342756B10D1C489E8953CD1617E5CEECAD6F4EF8914CE5D5D504E5C3F1F9736DA62CFC11E00BCDDB8CC8A9466349744C1F75EBDA4DF09BA8A9E8C7A7E9991989E20E5DBDD6A6003664ED8F7A04A8DBE0DF6EAD9B9AA858342E47399053949D2C146EDB85DE4B176BB0965FBAC19BD19AA918E27FA50C1D22402E144464C
310
59462568E704B6E71915404CB72B8FF4EDE184DDAF753F284990D2C6926782963815403548A70C657FDEF80D2D9CEAA2AE4C1C76F60BFE74219A06527D6582DF6412526107381E55E353090704D085B52408D0933C4ED159D79BDA71BB4BC506F4831350EB6F979CD22D69BF7AC49B91A2C0A9DDA3D5CA36AD20FC478E37E6
310
1844E2352865EBCB6EA275A652E3836BE04EFB400BF1A2556F515F1FBB35B2AB35BD889C744FFA1004B5544B121E57F70215746DD2F5E2C1412B602CBF19455AC6C8E5E9922C4E01E65215385004546899059180EAFCF7A707CE7017CD8CDB0410789AB32C63B91E5CEBBBACB17AC6CD347A022D5075FD106377347AAABA7E
310
7D11590744509B44E205134DC1290F06580320F78E537D3D73540E06CB970B431F185308AD40BBD794D6D77003C5A36E8EAA54BA64597CD8F83BD552A080A365F7FF06504B0304140006080000CC70623B000000000000000000000000350000006662782F39464131463745442D413632322D343644302D413938332D3331
310
353338454246344243312F76657274696365732E62696E504B0304140006080800CC70623BF270F1330600000004000000360000006662782F39464131463745442D413632322D343644302D413938332D3331353338454246344243312F747269616E676C65732E62696E636660600000504B0304140006080000CC70623B
310
000000000000000000000000370000006662782F39464131463745442D413632322D343644302D413938332D3331353338454246344243312F617474726962757465732E62696E504B0304140006080800CC70623B08DA0BD19000000041010000360000006662782F39464131463745442D413632322D343644302D413938
310
332D3331353338454246344243312F6469726563746F72792E786D6C858F410AC3201045AF22B36F53E9A60B35CBEEBAE80D244E44489C6234F4F835464A48035D0DF398FF9F8AF63D0E6CC63039F212F8F9020C7D47C6792B21C5FE7403D62A1188E2E60C98D7234A5830286103A55745067B9D86B8A3CF9C7F90C11DE607
310
FB144396D7B6A82D282E9A152AD114D5EF2CB866EEE831B8EEA07A7BB5A8D7D61A2BAAEB7FD5F70921FF497D00504B0304140006080800CC70623B0D6EF93BFE000000A00100003B0000006662782F39464131463745442D413632322D343644302D413938332D3331353338454246344243312F7265736F75726365732F63
310
6F72652E786D6C8D50596E833010BD0A9ADFCA60B334011947A8694ED00B586642AC041B79A97AFC9A40A5F6AF3F33A3B7689E1E3F7DCD8FEC139DD7D6F4C0720A191A65476DA61E62B892236427C19DB5E1970C322367EC618541F0C9D9B8EC90B226A009093576C41D94DE63804C3DD2D18357379C652E63480A7FCF17A9
310
EE72C29CE5894E3AC17D702940B63D59270887DE46A7D0F36263058F518FBB468FE9A7BE6A7420864373B8D4873369AA8691FA421B3294352543C5CAF65C0F6FEF43CB8BD52C78D0F34F46E550061C419494B6843142CB0F5677F4B52BEB177AEC28E5C52AFF638ACBF84F53D42654E51E77B379102C05791282176B5F693D
310
CB4C7BED567C03504B010214000A0000080000CC70623B3DEE336E79000000790000001B00000000000000000000000000000000006175746F6465736B2D64657369676E2D7061636B6167652E786D6C504B01021400140006080800CC70623BD486FD9CA0000000F40000001300000000000000000000000000B20000005B
310
436F6E74656E745F54797065735D2E786D6C504B01021400140006080800CC70623B1EC5D7A3EB0000007C010000080000000000000000000000000083010000636F72652E786D6C504B01021400140006080800CC70623B55019EA25F0000007C000000070000000000000000000000000094020000636E782E786D6C504B
310
01021400140006080800CC70623B8C9102E971010000D40300000C00000000000000000000000000180300006662782F636F72652E786D6C504B01021400140006080800CC70623BFFEA85907E0000009D0000000B00000000000000000000000000B30400006662782F636E782E786D6C504B01021400140006080800CC70
310
623B4FEEA4082C0100001202000031000000000000000000000000005A0500006662782F39464131463745442D413632322D343644302D413938332D3331353338454246344243312F636F72652E786D6C504B01021400140006080800CC70623BAD7543B64E010000330300003000000000000000000000000000D5060000
310
6662782F39464131463745442D413632322D343644302D413938332D3331353338454246344243312F636E782E786D6C504B01021400140006080800CC70623B16AB87BA640500003C1000003400000000000000000000000000710800006662782F39464131463745442D413632322D343644302D413938332D3331353338
310
454246344243312F6F626A656374732E786D6C504B01021400140006080000CC70623B0000000000000000000000003500000000000000000000000000270E00006662782F39464131463745442D413632322D343644302D413938332D3331353338454246344243312F76657274696365732E62696E504B01021400140006
310
080800CC70623BF270F133060000000400000036000000000000000000000000007A0E00006662782F39464131463745442D413632322D343644302D413938332D3331353338454246344243312F747269616E676C65732E62696E504B01021400140006080000CC70623B0000000000000000000000003700000000000000
310
000000000000D40E00006662782F39464131463745442D413632322D343644302D413938332D3331353338454246344243312F617474726962757465732E62696E504B01021400140006080800CC70623B08DA0BD190000000410100003600000000000000000000000000290F00006662782F39464131463745442D413632
310
322D343644302D413938332D3331353338454246344243312F6469726563746F72792E786D6C504B01021400140006080800CC70623B0D6EF93BFE000000A00100003B000000000000000000000000000D1000006662782F39464131463745442D413632322D343644302D413938332D3331353338454246344243312F7265
310
736F75726365732F636F72652E786D6C504B0506000000000E000E0080040000641100000000
  0
XRECORD
  5
26D6
102
{ACAD_REACTORS
330
173
102
}
330
173
100
AcDbXrecord
280
     1
102
MATERIAL
148
0.0
149
0.0
149
0.0
 93
        0
 94
       63
282
     0
 72
     1
 77
     1
171
     1
175
     1
179
     1
273
     0
  0
XRECORD
  5
175
102
{ACAD_REACTORS
330
173
102
}
330
173
100
AcDbXrecord
280
     1
270
     1
271
     1
  0
XRECORD
  5
174
102
{ACAD_REACTORS
330
173
102
}
330
173
100
AcDbXrecord
280
     1
270
     1
271
     1
  0
XRECORD
  5
1FB
102
{ACAD_REACTORS
330
173
102
}
330
173
100
AcDbXrecord
280
     1
 70
     0
 90
1673772943
  1
ECE7A1D2-D628-4531-984C-D00F80459256
310
504B03040A0000080000CC70623B3DEE336E79000000790000001B0000006175746F6465736B2D64657369676E2D7061636B6167652E786D6C3C3F786D6C2076657273696F6E3D22312E302220656E636F64696E673D227574662D3822203F3E3C666F726D6174733E3C666F726D61743E687474703A2F2F736368656D612E
310
6175746F6465736B2E636F6D2F64657369676E2D7061636B6167652F323030393C2F666F726D61743E3C2F666F726D6174733E504B0304140006080800CC70623BD486FD9CA0000000F4000000130000005B436F6E74656E745F54797065735D2E786D6C7D8EC10E82300C865F65E91D8A1E8C310C0EEA1BF002731658846E
310
D98AC1B77784ABF1D8FE5FBFBF75BBCE937A534CCEB38643598122B6FEE978D0B0485F9C41B54DDD7D022595594E1A469170414C76A4D9A4D207E29CF43ECE46F218070CC6BECC4078ACAA135ACF422C856C0E68EA1BF5669944DDD7BCDE7B1F8E415D77AECB980613C2E4AC91FC167A2B244592486606FC29C8FD7F045B9A
310
EF7053A7E60B504B0304140006080800CC70623BD9DDAED0EC0000007C01000008000000636F72652E786D6C8D90416EC3201045AF82665B61836D9CD8C2444DD39CA01740405C94182C03558F5F9C3852BBEB6A467FFE9B197D7EF89E6EE8CB2CC17A37002D0820E394D7D68D03A478C17B4007C117EFE32F1B20272733C0
310
2A83E0E3E2D3BC49CABB685CCCAAF3DA6CA20CC14440EA969B0182FA34932C648AD911AEC52CD5558EA6A0CF2EC329598D1E47ACCEFBECC59A050463A7EA5833865FEBDD0E37353BE3EE8DBDE3F6786A48D375FBF6CC78B9C282473B3DEFABC5C86834888A900E538A49F5419B9EB47DD5BC907D4F082F57FB1F28CDFA9F50
310
B22ED6D5F6EE030B20687EE43E10BC5CB3C8E51E54AE6B6EE207504B0304140006080800CC70623B55019EA25F0000007C00000007000000636E782E786D6C4DCB3B0E80201045D1AD90E915ED2CF8AC45050C11660C8261F98AB1B07AC9C97D42D718D865D3E909258CFD00CCE24AC6E326A164D74DC0B4128928FF326038
310
472BA13128B1252AC747C6BAB984FC68F0B87FE8960A5C09FE86CFB69FBA01504B0304140006080800CC70623BA24EB22D72010000D40300000C0000006662782F636F72652E786D6CC5535B6E833010BC8AE5DF0A6C5E49888CA3A6694ED00B38E05014B091B1518EDFE511A5A9D228FD2A1F60CDEC7A67C6986DCE4D8D7A
310
69BA4AAB0C073EC548AA5C17952A33ECECD15B61B4E1CC686DBF9561A44423333CC098B3D268D7CE50AE9595CA02AA74216750749DB418E5352C32DCE59FB211BE70162ABA93DF8AFC244AE9073ED050C759670D0840D390E18DF9F1706664C23973AE2A66B62A605A75ACA4C13C4976E1364A12EF355A2EBD384AF65EFA96
310
BC7B8BED2EA6719AAE16FB8491A199335B351775B991C2CA02F390D2D40B028F861F41BCA68B7518BFD0D59A524686F29B26D7164F36B94AD9289CE54E6D1DE6010819891F6E21228B3AD1831EC219194284CF98F06DD01008846CC5A1BEF83801D4CBDC6A1303536877A57A513B0953A94FC707FDBE6064EA84A9E3E6E0FA
310
EE8CF0E9198F7784A316AA0413C2C2F2E0ECA0934D1AE6D05A69BCDE9E91D2A611F573361E38FC1375157F5752AE6B6DFE4B11990F88CCBF0719EE23FF02504B0304140006080800CC70623B408A7D3B7C0000009D0000000B0000006662782F636E782E786D6C4DCCD10A83201886E15B91FFDC552A92A0064DBC8F581632
310
D3703A76F9ABD1C18E3E78F878E5F0D9027ABBFCF2292AE86E2D20171F69F6715550CB827B40839639A5F2770314A7CD293819B45C73AAFB45B35BA61ACAA1C1C7E7855C58C15BC331339661262CC762340413D68D77DA5B42298546CBE6573AF60CEB2F504B0304140006080800CC70623B449FB9BD290100001202000031
310
0000006662782F36394639363044362D344446342D343946362D394244322D3234314243333846323333332F636F72652E786D6C8D515B6EC32010BC0AE22B55850D98B871848994463E412FE002495162B07854397EA176A4F62F3F2C9A9D991D587EB84F37F0AD7D30CEF6905418026DA553C65E7A98E219ED203808EE9D
310
8B7F6810D871D23D2C3014FCE25D9A57483A1BB58D19B54EE9151C43D0110279CB971E06F9A5A7B11A53CC8C70ADE6515EC78BAE4895DB992778883E0700CB907242D17643D7E2538BD869608875438BBAE38922CAC8F1BDD90DB4691A5E2F42C153326A951B95E398B3D1FE599322163C9AE9115F7A3D46ADA0A018778810
310
84E907617BDCEE297BC5BB3DC6BC2EF47FA234AB2745C9D8D8D035EE220B50105E2F0DC1954B9FB747187D9F9D8FA0CCDB042D5FA0C015C65B42DF78BD10F3F3B363CB56C7109DCFDFBBB97E662ED92EB62D13BC2E1BCAE5777DB9966D8A1F504B0304140006080800CC70623BAD7543B64E01000033030000300000006662
310
782F36394639363044362D344446342D343946362D394244322D3234314243333846323333332F636E782E786D6CD593CD6EC32010845F0571AD6CE3D48AD20813A9873E410FBD12D82434182C7EAAE6EDBB2424CD25871E7B41D6EC30B3FA84F9E67BB2E40B4234DE8DB46F1925E094D7C6ED479AD3AE5951B2113C789FEE
310
6C943839C1488B4C05DF079FE72A69D8C96C13AAD6B8631503449F83828872B949AC57D26200B826A308D316B4064D6E46FCDA41C05550DC9E483A00797BFD207EFB092A45DE9514C1BBD22178396BD39D891265658C238DEA00936C654E5E433CB65A26D9F6EDB5EBC14EBF49A45CB856E66048291F6939A9A81BB5C89177
310
38143CA680F4AA299D66A042CEB3354A2684DC9D8D178FE0D9B8B41CAAD720F880EE7EF93C0C18769E099ECC04D5A102C8049A8A05632F4DDF376CF1DE0F6BB65C2F8627B65A33C6BB62177CEBBDAD973006829F89F22E814B54F4BC2BE347F8AA8F681390B50FA73F804400B5F542E796F19FF974E7F78DB802FE05E20750
310
4B0304140006080800CC70623B8D05915C650500003B100000340000006662782F36394639363044362D344446342D343946362D394244322D3234314243333846323333332F6F626A656374732E786D6CAD575B6FA33814FE2B887D06429276DA1565D4266D158D3A339A6846FB502932E050B66023DB74D2FDF5FB190C01
310
9276B2973C046C8ECFF53B17071F77456EBD502133CEAE6CDF9DD81665314F32965ED995DA3A17B6F5310C04E7AA47665B8C14F4CAD6DB7618A48257A5D94AE89654B91AEDDEDDFC61C998326A5B714EA4BCB265FC440BE2924AF184CA6737218AB8E976E7FA6E4338649B0A523E8D98964450A6A029F619B8588D52FE7039
310
B1BD30F0F4F730D0FF866AF6369557DB33949F31A9088B0F848DD8CCFCF9F2767A76E99CCDE733677E3EF59D9BBB9BA5E37F984D16E78BC5E5F5ED25044B25C0C96822E8D60EEFE11B91C581D77CEA34368A1F5329E68CD1B8B61F16D63A1B8E092D294B10C78C4A48EB593D192E7DED9BDEE7995E1B91FDEDD3ACEA9FE831
310
6A756F9F7D4D79F4274C90A7A04248AA51D5F8C718DAE06FB2F75AC4796EBE65D22A88A22223B995679120E2D50E41AA49C260C046A35368846B0BECD0DFF3EBEB8AD4F835768F69B9ADF25C43D30E6B646F807FAA64AD59F61715C7A54127C4AACA98BA3006A9D792DAE165E0D59B61A01FB3A9F9D838D2DAE62445C86166
310
F37564E842E7DE6A69879FEEA2DD5AE7E371E1A5E025154AC307D06A03D73EB5978C58FFA4C8E9033066E0F3BD53BEC1F39F91BE7B55103791EDE6BBB991A2046172CB4581D8B893FA674DDA17A77B3B7C413D1B511FD2743BFF8A38F03A658705E3ADF8015C3A3417FF3D7E439FF591DA0B5F18BC20C1B8981957AE6392A3
310
F43C640C01D1A0B4728E2DD4F26DB4B3C3152A252A3B4E913CEC1C72F012782FF88EFF8637AA552DBEF76408E8A8DE9E50F9E1CB3A2DA0DB1B6039A893B56063DC5B3E3FFB5F72E67AB9FEB4AEC496C4F4C1149625DD662C53E89D7BF0F6151A046260D1337DFDC94502430F83B0EE07A130A224BCAD7DAE1D9FB6CD422FF6
310
920702629C4BB9AE79C12F243C6432A6794E18E5552BA56B431AAB5D91317302B2B071E86C3A42B1A02F999E24061403B5D0EB639195DA655DD3EBEAB4FB862DDF579F014AD0E73C22F99E28DA57FB98E75C6CA2D74D53086D600F4786E0FE3144B771A8A7B900F03594DB8A633CBC49B2EDB69228BB479CF863B5E807AAAB
310
23872F6DFEB4129B949CA33823F58830E86D65621E10047D9DB34D862E8EAC3C2ABC2F7B2C40D67CDFE01F5545B92105AF983AC54D93D69E56FB8E797F88913F898A9FEC705D3F9D1B54EC8426FB500D40A03BD0119B06E1B95DDC7EB8F6975367793EBD70E66733DFB9BC982F9CE564727731999F5D4ECFCE3B8D6A4DC2A0
310
6D50FD148437D110834A64C6CDDF57FBACB5C307A2A477DFE4939736CFEF2B175371E0E10CF0DD1D5C15654E0BCA14D1E87DD02FF93782A162C0A3D95F1524A52770F972BF1EE9809D13CE7DD599467F8ECE9ADD85CE85A34CD45355448C64F9E8A031DC2D596ACC6E5DD93D9B82DE2EF5CAF81363A8E47996A0DE24564A79
310
4115AACE09C55E14540231FDA13C319787134EBF34E3A022514E5B4D9E0826E25C02D5805B15ABE1BEF51B26383D445DD9E875EE33FE4C22DA16427D65A3BCA92CA6D28DD01DF5DC53330704308475351050232CCD31583787BA75774AFB06E5070DD0C8EF484E19968C5D83BA5B90B244D31E54D55A372320FE4786B7EA58
310
44E135AA5467CB7EA333A61683CC6A8C3257034C10CF46F40EF9F5BE59BE5BD30C3C72D235E95D10345C1D45445A5F0BB47E46A5EBE5570F9380B5FA629579952296A773720405982B9DE04011506178964401AA8BDF1FBF0A8EAB6861DD6580C0E38217056766716DAEB2D6FA0917D3E4116581EADB879C4E7CFFB11EFACD
310
3D641311495D92C8676CB409A72D18610D803CE8A626049E8EC1887CB5B44CC39883690DDA8399B4B9855B481E7D71D4A9D22F96E5BB73BF5793020C02137BF837504B0304140006080000CC70623B000000000000000000000000350000006662782F36394639363044362D344446342D343946362D394244322D32343142
310
43333846323333332F76657274696365732E62696E504B0304140006080800CC70623BF270F1330600000004000000360000006662782F36394639363044362D344446342D343946362D394244322D3234314243333846323333332F747269616E676C65732E62696E636660600000504B0304140006080000CC70623B0000
310
00000000000000000000370000006662782F36394639363044362D344446342D343946362D394244322D3234314243333846323333332F617474726962757465732E62696E504B0304140006080800CC70623B08DA0BD19000000041010000360000006662782F36394639363044362D344446342D343946362D394244322D
310
3234314243333846323333332F6469726563746F72792E786D6C858F410AC3201045AF22B36F53E9A60B35CBEEBAE80D244E44489C6234F4F835464A48035D0DF398FF9F8AF63D0E6CC63039F212F8F9020C7D47C6792B21C5FE7403D62A1188E2E60C98D7234A5830286103A55745067B9D86B8A3CF9C7F90C11DE607FB14
310
4396D7B6A82D282E9A152AD114D5EF2CB866EEE831B8EEA07A7BB5A8D7D61A2BAAEB7FD5F70921FF497D00504B0304140006080800CC70623BCA768048FE000000A00100003B0000006662782F36394639363044362D344446342D343946362D394244322D3234314243333846323333332F7265736F75726365732F636F72
310
652E786D6C8D50596E833010BD0A9ADFCA60D600328E9AA639412F609909B1126CE4A5EAF16B0295DABFFECC8CDEA2797AECF8353F924FB44E193D409E5248504B332A3D0D10FC95B4901C39B3C6F85F3248B49871801506CE266BC2B243D2688FDA47549B11775038871E12F988C7004EDE7016A9083E2ADC3D5D84BC8B09
310
D33C8D74D471E6BC8D0192EDC93A815B742658898E651BCB59086ADC356A8C3FD555A1055ED7E7E254D615792D0F075295F585746FF53B694EE78A565DD736979A65AB9933AFE69F8CD2A2F038022F28ED489E135A7CE4554F9BBEA85E68DB53CAB255FEC71496F19FA6A0B42F8B3DEE6673C0F318E4497096AD7DC5F52C33
310
EEB55BFE0D504B010214000A0000080000CC70623B3DEE336E79000000790000001B00000000000000000000000000000000006175746F6465736B2D64657369676E2D7061636B6167652E786D6C504B01021400140006080800CC70623BD486FD9CA0000000F40000001300000000000000000000000000B20000005B436F
310
6E74656E745F54797065735D2E786D6C504B01021400140006080800CC70623BD9DDAED0EC0000007C010000080000000000000000000000000083010000636F72652E786D6C504B01021400140006080800CC70623B55019EA25F0000007C000000070000000000000000000000000095020000636E782E786D6C504B0102
310
1400140006080800CC70623BA24EB22D72010000D40300000C00000000000000000000000000190300006662782F636F72652E786D6C504B01021400140006080800CC70623B408A7D3B7C0000009D0000000B00000000000000000000000000B50400006662782F636E782E786D6C504B01021400140006080800CC70623B
310
449FB9BD290100001202000031000000000000000000000000005A0500006662782F36394639363044362D344446342D343946362D394244322D3234314243333846323333332F636F72652E786D6C504B01021400140006080800CC70623BAD7543B64E010000330300003000000000000000000000000000D20600006662
310
782F36394639363044362D344446342D343946362D394244322D3234314243333846323333332F636E782E786D6C504B01021400140006080800CC70623B8D05915C650500003B10000034000000000000000000000000006E0800006662782F36394639363044362D344446342D343946362D394244322D32343142433338
310
46323333332F6F626A656374732E786D6C504B01021400140006080000CC70623B0000000000000000000000003500000000000000000000000000250E00006662782F36394639363044362D344446342D343946362D394244322D3234314243333846323333332F76657274696365732E62696E504B010214001400060808
310
00CC70623BF270F13306000000040000003600000000000000000000000000780E00006662782F36394639363044362D344446342D343946362D394244322D3234314243333846323333332F747269616E676C65732E62696E504B01021400140006080000CC70623B00000000000000000000000037000000000000000000
310
00000000D20E00006662782F36394639363044362D344446342D343946362D394244322D3234314243333846323333332F617474726962757465732E62696E504B01021400140006080800CC70623B08DA0BD190000000410100003600000000000000000000000000270F00006662782F36394639363044362D344446342D
310
343946362D394244322D3234314243333846323333332F6469726563746F72792E786D6C504B01021400140006080800CC70623BCA768048FE000000A00100003B000000000000000000000000000B1000006662782F36394639363044362D344446342D343946362D394244322D3234314243333846323333332F7265736F
310
75726365732F636F72652E786D6C504B0506000000000E000E0080040000621100000000
  0
XRECORD
  5
176
102
{ACAD_REACTORS
330
173
102
}
330
173
100
AcDbXrecord
280
     1
270
     1
271
     1
  0
XRECORD
  5
177
102
{ACAD_REACTORS
330
173
102
}
330
173
100
AcDbXrecord
280
     1
270
     1
271
     1
  0
XRECORD
  5
26F8
102
{ACAD_REACTORS
330
26F7
102
}
330
26F7
100
AcDbXrecord
280
     1
102
ACAD_ROUNDTRIP_2012_MLEADER_STYLE
298
     1
  0
XRECORD
  5
270A
102
{ACAD_REACTORS
330
2709
102
}
330
2709
100
AcDbXrecord
280
     1
102
DISPLAYNAME
  1
Metric50
102
FLAGS
 90
        0
  0
CELLSTYLEMAP
  5
26CA
102
{ACAD_REACTORS
330
162
102
}
330
162
100
AcDbCellStyleMap
 90
        3
300
CELLSTYLE
  1
TABLEFORMAT_BEGIN
 90
        5
170
     1
 91
        0
 92
    32768
 62
   257
 93
        1
300
CONTENTFORMAT
  1
CONTENTFORMAT_BEGIN
 90
        0
 91
        0
 92
      512
 93
        0
300

 40
0.0
140
1.0
 94
        5
 62
     0
340
11
144
6.0
309
CONTENTFORMAT_END
171
     1
301
MARGIN
  1
CELLMARGIN_BEGIN
 40
1.5
 40
1.5
 40
1.5
 40
1.5
 40
4.5
 40
4.5
309
CELLMARGIN_END
 94
        6
 95
        1
302
GRIDFORMAT
  1
GRIDFORMAT_BEGIN
 90
        0
 91
        1
 62
     0
 92
       -2
340
14
 93
        0
 40
1.125
309
GRIDFORMAT_END
 95
        2
302
GRIDFORMAT
  1
GRIDFORMAT_BEGIN
 90
        0
 91
        1
 62
     0
 92
       -2
340
14
 93
        0
 40
1.125
309
GRIDFORMAT_END
 95
        4
302
GRIDFORMAT
  1
GRIDFORMAT_BEGIN
 90
        0
 91
        1
 62
     0
 92
       -2
340
14
 93
        0
 40
1.125
309
GRIDFORMAT_END
 95
        8
302
GRIDFORMAT
  1
GRIDFORMAT_BEGIN
 90
        0
 91
        1
 62
     0
 92
       -2
340
14
 93
        0
 40
1.125
309
GRIDFORMAT_END
 95
       16
302
GRIDFORMAT
  1
GRIDFORMAT_BEGIN
 90
        0
 91
        1
 62
     0
 92
       -2
340
14
 93
        0
 40
1.125
309
GRIDFORMAT_END
 95
       32
302
GRIDFORMAT
  1
GRIDFORMAT_BEGIN
 90
        0
 91
        1
 62
     0
 92
       -2
340
14
 93
        0
 40
1.125
309
GRIDFORMAT_END
309
TABLEFORMAT_END
  1
CELLSTYLE_BEGIN
 90
        1
 91
        1
300
_TITLE
309
CELLSTYLE_END
300
CELLSTYLE
  1
TABLEFORMAT_BEGIN
 90
        5
170
     1
 91
        0
 92
        0
 62
   257
 93
        1
300
CONTENTFORMAT
  1
CONTENTFORMAT_BEGIN
 90
        0
 91
        0
 92
      512
 93
        0
300

 40
0.0
140
1.0
 94
        5
 62
     0
340
11
144
4.5
309
CONTENTFORMAT_END
171
     1
301
MARGIN
  1
CELLMARGIN_BEGIN
 40
1.5
 40
1.5
 40
1.5
 40
1.5
 40
4.5
 40
4.5
309
CELLMARGIN_END
 94
        6
 95
        1
302
GRIDFORMAT
  1
GRIDFORMAT_BEGIN
 90
        0
 91
        1
 62
     0
 92
       -2
340
14
 93
        0
 40
1.125
309
GRIDFORMAT_END
 95
        2
302
GRIDFORMAT
  1
GRIDFORMAT_BEGIN
 90
        0
 91
        1
 62
     0
 92
       -2
340
14
 93
        0
 40
1.125
309
GRIDFORMAT_END
 95
        4
302
GRIDFORMAT
  1
GRIDFORMAT_BEGIN
 90
        0
 91
        1
 62
     0
 92
       -2
340
14
 93
        0
 40
1.125
309
GRIDFORMAT_END
 95
        8
302
GRIDFORMAT
  1
GRIDFORMAT_BEGIN
 90
        0
 91
        1
 62
     0
 92
       -2
340
14
 93
        0
 40
1.125
309
GRIDFORMAT_END
 95
       16
302
GRIDFORMAT
  1
GRIDFORMAT_BEGIN
 90
        0
 91
        1
 62
     0
 92
       -2
340
14
 93
        0
 40
1.125
309
GRIDFORMAT_END
 95
       32
302
GRIDFORMAT
  1
GRIDFORMAT_BEGIN
 90
        0
 91
        1
 62
     0
 92
       -2
340
14
 93
        0
 40
1.125
309
GRIDFORMAT_END
309
TABLEFORMAT_END
  1
CELLSTYLE_BEGIN
 90
        2
 91
        1
300
_HEADER
309
CELLSTYLE_END
300
CELLSTYLE
  1
TABLEFORMAT_BEGIN
 90
        5
170
     1
 91
        0
 92
        0
 62
   257
 93
        1
300
CONTENTFORMAT
  1
CONTENTFORMAT_BEGIN
 90
        0
 91
        0
 92
      512
 93
        0
300

 40
0.0
140
1.0
 94
        2
 62
     0
340
11
144
4.5
309
CONTENTFORMAT_END
171
     1
301
MARGIN
  1
CELLMARGIN_BEGIN
 40
1.5
 40
1.5
 40
1.5
 40
1.5
 40
4.5
 40
4.5
309
CELLMARGIN_END
 94
        6
 95
        1
302
GRIDFORMAT
  1
GRIDFORMAT_BEGIN
 90
        0
 91
        1
 62
     0
 92
       -2
340
14
 93
        0
 40
1.125
309
GRIDFORMAT_END
 95
        2
302
GRIDFORMAT
  1
GRIDFORMAT_BEGIN
 90
        0
 91
        1
 62
     0
 92
       -2
340
14
 93
        0
 40
1.125
309
GRIDFORMAT_END
 95
        4
302
GRIDFORMAT
  1
GRIDFORMAT_BEGIN
 90
        0
 91
        1
 62
     0
 92
       -2
340
14
 93
        0
 40
1.125
309
GRIDFORMAT_END
 95
        8
302
GRIDFORMAT
  1
GRIDFORMAT_BEGIN
 90
        0
 91
        1
 62
     0
 92
       -2
340
14
 93
        0
 40
1.125
309
GRIDFORMAT_END
 95
       16
302
GRIDFORMAT
  1
GRIDFORMAT_BEGIN
 90
        0
 91
        1
 62
     0
 92
       -2
340
14
 93
        0
 40
1.125
309
GRIDFORMAT_END
 95
       32
302
GRIDFORMAT
  1
GRIDFORMAT_BEGIN
 90
        0
 91
        1
 62
     0
 92
       -2
340
14
 93
        0
 40
1.125
309
GRIDFORMAT_END
309
TABLEFORMAT_END
  1
CELLSTYLE_BEGIN
 90
        3
 91
        2
300
_DATA
309
CELLSTYLE_END
  0
XRECORD
  5
26CF
102
{ACAD_REACTORS
330
162
102
}
330
162
100
AcDbXrecord
280
     1
102
ACAD_ROUNDTRIP_PRE2007_TABLESTYLE
 90
      512
 91
        0
  1

 92
      512
 93
        0
  2

 94
      512
 95
        0
  3

  0
XRECORD
  5
26E2
102
{ACAD_REACTORS
330
26E1
102
}
330
26E1
100
AcDbXrecord
280
     1
102
RTVSPost2010Prop28
280
     1
102
RTVSPost2010PropOp28
 70
     1
102
RTVSPost2010Prop29
280
     1
102
RTVSPost2010PropOp29
 70
     1
102
RTVSPost2010Prop30
280
     0
102
RTVSPost2010PropOp30
 70
     1
102
RTVSPost2010Prop31
280
     0
102
RTVSPost2010PropOp31
 70
     1
102
RTVSPost2010Prop32
280
     0
102
RTVSPost2010PropOp32
 70
     1
102
RTVSPost2010Prop33
280
     0
102
RTVSPost2010PropOp33
 70
     1
102
RTVSPost2010Prop34
280
     0
102
RTVSPost2010PropOp34
 70
     1
102
RTVSPost2010Prop35
280
     0
102
RTVSPost2010PropOp35
 70
     1
102
RTVSPost2010Prop36
280
     0
102
RTVSPost2010PropOp36
 70
     1
102
RTVSPost2010Prop37
 90
       50
102
RTVSPost2010PropOp37
 70
     1
102
RTVSPost2010Prop38
140
0.0
102
RTVSPost2010PropOp38
 70
     1
102
RTVSPost2010Prop39
140
1.0
102
RTVSPost2010PropOp39
 70
     1
102
RTVSPost2010Prop40
 90
        0
102
RTVSPost2010PropOp40
 70
     1
102
RTVSPost2010Prop41ColorIndex
 90
       18
102
RTVSPost2010Prop41ColorRGB
 90
        0
102
RTVSPost2010PropOp41
 70
     1
102
RTVSPost2010Prop42
 90
       50
102
RTVSPost2010PropOp42
 70
     1
102
RTVSPost2010Prop43
 90
        3
102
RTVSPost2010PropOp43
 70
     1
102
RTVSPost2010Prop44ColorIndex
 90
        5
102
RTVSPost2010Prop44ColorRGB
 90
      255
102
RTVSPost2010PropOp44
 70
     1
102
RTVSPost2010Prop45
280
     0
102
RTVSPost2010PropOp45
 70
     1
102
RTVSPost2010Prop46
 90
       50
102
RTVSPost2010PropOp46
 70
     1
102
RTVSPost2010Prop47
 90
       50
102
RTVSPost2010PropOp47
 70
     1
102
RTVSPost2010Prop48
 90
       50
102
RTVSPost2010PropOp48
 70
     1
102
RTVSPost2010Prop49
280
     0
102
RTVSPost2010PropOp49
 70
     1
102
RTVSPost2010Prop50
 90
       50
102
RTVSPost2010PropOp50
 70
     1
102
RTVSPost2010Prop51ColorIndex
 90
      256
102
RTVSPost2010Prop51ColorRGB
 90
-16777216
102
RTVSPost2010PropOp51
 70
     0
102
RTVSPost2010Prop52
140
1.0
102
RTVSPost2010PropOp52
 70
     0
102
RTVSPost2010Prop53
 90
        2
102
RTVSPost2010PropOp53
 70
     1
102
RTVSPost2010Prop54
  1
strokes_ogs.tif
102
RTVSPost2010PropOp54
 70
     1
102
RTVSPost2010Prop55
280
     0
102
RTVSPost2010PropOp55
 70
     1
102
RTVSPost2010Prop56
140
1.0
102
RTVSPost2010PropOp56
 70
     1
102
RTVSPost2010Prop57
140
1.0
102
RTVSPost2010PropOp57
 70
     1
102
RTVSPropertyOp0
 70
     1
102
RTVSPropertyOp1
 70
     1
102
RTVSPropertyOp2
 70
     1
102
RTVSPropertyOp3
 70
     1
102
RTVSPropertyOp4
 70
     1
102
RTVSPropertyOp5
 70
     1
102
RTVSPropertyOp6
 70
     1
102
RTVSPropertyOp7
 70
     1
102
RTVSPropertyOp8
 70
     1
102
RTVSPropertyOp9
 70
     1
102
RTVSPropertyOp10
 70
     1
102
RTVSPropertyOp11
 70
     1
102
RTVSPropertyOp12
 70
     1
102
RTVSPropertyOp13
 70
     1
102
RTVSPropertyOp14
 70
     1
102
RTVSPropertyOp15
 70
     1
102
RTVSPropertyOp16
 70
     1
102
RTVSPropertyOp17
 70
     1
102
RTVSPropertyOp18
 70
     1
102
RTVSPropertyOp19
 70
     1
102
RTVSPropertyOp20
 70
     1
102
RTVSPropertyOp21
 70
     1
102
RTVSPropertyOp22
 70
     1
102
RTVSPropertyOp23
 70
     1
102
RTVSPropertyOp24
 70
     1
102
RTVSPropertyOp25
 70
     1
102
RTVSPropertyOp26
 70
     1
102
RTVSPropertyOp27
 70
     1
102
RTVSPropertyOp28
 70
     1
102
RTVSPropertyOp29
 70
     1
102
RTVSPropertyOp30
 70
     1
102
RTVSPropertyOp31
 70
     1
102
RTVSPropertyOp32
 70
     1
102
RTVSPropertyOp33
 70
     1
102
RTVSPropertyOp34
 70
     1
102
RTVSPropertyOp35
 70
     1
102
RTVSPropertyOp36
 70
     1
102
RTVSPropertyOp37
 70
     1
102
RTVSPropertyOp38
 70
     1
102
RTVSPropertyOp39
 70
     1
102
RTVSPropertyOp40
 70
     1
102
RTVSPropertyOp41
 70
     1
102
RTVSPropertyOp42
 70
     1
102
RTVSPropertyOp43
 70
     1
102
RTVSPropertyOp44
 70
     1
102
RTVSPropertyOp45
 70
     1
102
RTVSPropertyOp46
 70
     1
102
RTVSPropertyOp47
 70
     1
102
RTVSPropertyOp48
 70
     1
102
RTVSPropertyOp49
 70
     1
102
RTVSPropertyOp50
 70
     1
102
RTVSPropertyOp51
 70
     0
102
RTVSPropertyOp52
 70
     0
102
RTVSPropertyOp53
 70
     1
102
RTVSPropertyOp54
 70
     1
102
RTVSPropertyOp55
 70
     1
102
RTVSPropertyOp56
 70
     1
102
RTVSPropertyOp57
 70
     1
102
RTVSPropertyOp58
 70
     1
102
RTVSPropertyOp59
 70
     1
102
RTVSPropertyOp60
 70
     1
102
RTVSPropertyOp61
 70
     1
102
RTVSPropertyOp62
 70
     1
  0
XRECORD
  5
26E0
102
{ACAD_REACTORS
330
26DF
102
}
330
26DF
100
AcDbXrecord
280
     1
102
RTVSPost2010Prop28
280
     0
102
RTVSPost2010PropOp28
 70
     1
102
RTVSPost2010Prop29
280
     1
102
RTVSPost2010PropOp29
 70
     1
102
RTVSPost2010Prop30
280
     1
102
RTVSPost2010PropOp30
 70
     1
102
RTVSPost2010Prop31
280
     0
102
RTVSPost2010PropOp31
 70
     1
102
RTVSPost2010Prop32
280
     0
102
RTVSPost2010PropOp32
 70
     1
102
RTVSPost2010Prop33
280
     0
102
RTVSPost2010PropOp33
 70
     1
102
RTVSPost2010Prop34
280
     0
102
RTVSPost2010PropOp34
 70
     1
102
RTVSPost2010Prop35
280
     0
102
RTVSPost2010PropOp35
 70
     1
102
RTVSPost2010Prop36
280
     0
102
RTVSPost2010PropOp36
 70
     1
102
RTVSPost2010Prop37
 90
       50
102
RTVSPost2010PropOp37
 70
     1
102
RTVSPost2010Prop38
140
0.0
102
RTVSPost2010PropOp38
 70
     1
102
RTVSPost2010Prop39
140
1.0
102
RTVSPost2010PropOp39
 70
     1
102
RTVSPost2010Prop40
 90
        0
102
RTVSPost2010PropOp40
 70
     1
102
RTVSPost2010Prop41ColorIndex
 90
       18
102
RTVSPost2010Prop41ColorRGB
 90
        0
102
RTVSPost2010PropOp41
 70
     1
102
RTVSPost2010Prop42
 90
       50
102
RTVSPost2010PropOp42
 70
     1
102
RTVSPost2010Prop43
 90
        3
102
RTVSPost2010PropOp43
 70
     1
102
RTVSPost2010Prop44ColorIndex
 90
        5
102
RTVSPost2010Prop44ColorRGB
 90
      255
102
RTVSPost2010PropOp44
 70
     1
102
RTVSPost2010Prop45
280
     0
102
RTVSPost2010PropOp45
 70
     1
102
RTVSPost2010Prop46
 90
       50
102
RTVSPost2010PropOp46
 70
     1
102
RTVSPost2010Prop47
 90
       50
102
RTVSPost2010PropOp47
 70
     1
102
RTVSPost2010Prop48
 90
       50
102
RTVSPost2010PropOp48
 70
     1
102
RTVSPost2010Prop49
280
     0
102
RTVSPost2010PropOp49
 70
     1
102
RTVSPost2010Prop50
 90
       50
102
RTVSPost2010PropOp50
 70
     1
102
RTVSPost2010Prop51ColorIndex
 90
      256
102
RTVSPost2010Prop51ColorRGB
 90
-16777216
102
RTVSPost2010PropOp51
 70
     0
102
RTVSPost2010Prop52
140
1.0
102
RTVSPost2010PropOp52
 70
     0
102
RTVSPost2010Prop53
 90
        2
102
RTVSPost2010PropOp53
 70
     1
102
RTVSPost2010Prop54
  1
strokes_ogs.tif
102
RTVSPost2010PropOp54
 70
     1
102
RTVSPost2010Prop55
280
     0
102
RTVSPost2010PropOp55
 70
     1
102
RTVSPost2010Prop56
140
1.0
102
RTVSPost2010PropOp56
 70
     1
102
RTVSPost2010Prop57
140
1.0
102
RTVSPost2010PropOp57
 70
     1
102
RTVSPropertyOp0
 70
     1
102
RTVSPropertyOp1
 70
     1
102
RTVSPropertyOp2
 70
     1
102
RTVSPropertyOp3
 70
     1
102
RTVSPropertyOp4
 70
     1
102
RTVSPropertyOp5
 70
     1
102
RTVSPropertyOp6
 70
     1
102
RTVSPropertyOp7
 70
     1
102
RTVSPropertyOp8
 70
     1
102
RTVSPropertyOp9
 70
     1
102
RTVSPropertyOp10
 70
     1
102
RTVSPropertyOp11
 70
     1
102
RTVSPropertyOp12
 70
     1
102
RTVSPropertyOp13
 70
     1
102
RTVSPropertyOp14
 70
     1
102
RTVSPropertyOp15
 70
     1
102
RTVSPropertyOp16
 70
     1
102
RTVSPropertyOp17
 70
     1
102
RTVSPropertyOp18
 70
     1
102
RTVSPropertyOp19
 70
     1
102
RTVSPropertyOp20
 70
     1
102
RTVSPropertyOp21
 70
     1
102
RTVSPropertyOp22
 70
     1
102
RTVSPropertyOp23
 70
     1
102
RTVSPropertyOp24
 70
     1
102
RTVSPropertyOp25
 70
     1
102
RTVSPropertyOp26
 70
     1
102
RTVSPropertyOp27
 70
     1
102
RTVSPropertyOp28
 70
     1
102
RTVSPropertyOp29
 70
     1
102
RTVSPropertyOp30
 70
     1
102
RTVSPropertyOp31
 70
     1
102
RTVSPropertyOp32
 70
     1
102
RTVSPropertyOp33
 70
     1
102
RTVSPropertyOp34
 70
     1
102
RTVSPropertyOp35
 70
     1
102
RTVSPropertyOp36
 70
     1
102
RTVSPropertyOp37
 70
     1
102
RTVSPropertyOp38
 70
     1
102
RTVSPropertyOp39
 70
     1
102
RTVSPropertyOp40
 70
     1
102
RTVSPropertyOp41
 70
     1
102
RTVSPropertyOp42
 70
     1
102
RTVSPropertyOp43
 70
     1
102
RTVSPropertyOp44
 70
     1
102
RTVSPropertyOp45
 70
     1
102
RTVSPropertyOp46
 70
     1
102
RTVSPropertyOp47
 70
     1
102
RTVSPropertyOp48
 70
     1
102
RTVSPropertyOp49
 70
     1
102
RTVSPropertyOp50
 70
     1
102
RTVSPropertyOp51
 70
     0
102
RTVSPropertyOp52
 70
     0
102
RTVSPropertyOp53
 70
     1
102
RTVSPropertyOp54
 70
     1
102
RTVSPropertyOp55
 70
     1
102
RTVSPropertyOp56
 70
     1
102
RTVSPropertyOp57
 70
     1
102
RTVSPropertyOp58
 70
     1
102
RTVSPropertyOp59
 70
     1
102
RTVSPropertyOp60
 70
     1
102
RTVSPropertyOp61
 70
     1
102
RTVSPropertyOp62
 70
     1
  0
XRECORD
  5
26EE
102
{ACAD_REACTORS
330
26ED
102
}
330
26ED
100
AcDbXrecord
280
     1
102
RTVSPost2010Prop28
280
     0
102
RTVSPost2010PropOp28
 70
     1
102
RTVSPost2010Prop29
280
     1
102
RTVSPost2010PropOp29
 70
     1
102
RTVSPost2010Prop30
280
     1
102
RTVSPost2010PropOp30
 70
     1
102
RTVSPost2010Prop31
280
     0
102
RTVSPost2010PropOp31
 70
     1
102
RTVSPost2010Prop32
280
     0
102
RTVSPost2010PropOp32
 70
     1
102
RTVSPost2010Prop33
280
     0
102
RTVSPost2010PropOp33
 70
     1
102
RTVSPost2010Prop34
280
     0
102
RTVSPost2010PropOp34
 70
     1
102
RTVSPost2010Prop35
280
     0
102
RTVSPost2010PropOp35
 70
     1
102
RTVSPost2010Prop36
280
     0
102
RTVSPost2010PropOp36
 70
     1
102
RTVSPost2010Prop37
 90
       50
102
RTVSPost2010PropOp37
 70
     1
102
RTVSPost2010Prop38
140
0.0
102
RTVSPost2010PropOp38
 70
     1
102
RTVSPost2010Prop39
140
1.0
102
RTVSPost2010PropOp39
 70
     1
102
RTVSPost2010Prop40
 90
        0
102
RTVSPost2010PropOp40
 70
     1
102
RTVSPost2010Prop41ColorIndex
 90
       18
102
RTVSPost2010Prop41ColorRGB
 90
        0
102
RTVSPost2010PropOp41
 70
     1
102
RTVSPost2010Prop42
 90
       50
102
RTVSPost2010PropOp42
 70
     1
102
RTVSPost2010Prop43
 90
        3
102
RTVSPost2010PropOp43
 70
     1
102
RTVSPost2010Prop44ColorIndex
 90
        5
102
RTVSPost2010Prop44ColorRGB
 90
      255
102
RTVSPost2010PropOp44
 70
     1
102
RTVSPost2010Prop45
280
     0
102
RTVSPost2010PropOp45
 70
     1
102
RTVSPost2010Prop46
 90
       50
102
RTVSPost2010PropOp46
 70
     1
102
RTVSPost2010Prop47
 90
       50
102
RTVSPost2010PropOp47
 70
     1
102
RTVSPost2010Prop48
 90
       50
102
RTVSPost2010PropOp48
 70
     1
102
RTVSPost2010Prop49
280
     0
102
RTVSPost2010PropOp49
 70
     1
102
RTVSPost2010Prop50
 90
       50
102
RTVSPost2010PropOp50
 70
     1
102
RTVSPost2010Prop51ColorIndex
 90
      256
102
RTVSPost2010Prop51ColorRGB
 90
-16777216
102
RTVSPost2010PropOp51
 70
     0
102
RTVSPost2010Prop52
140
1.0
102
RTVSPost2010PropOp52
 70
     0
102
RTVSPost2010Prop53
 90
        2
102
RTVSPost2010PropOp53
 70
     1
102
RTVSPost2010Prop54
  1
strokes_ogs.tif
102
RTVSPost2010PropOp54
 70
     1
102
RTVSPost2010Prop55
280
     0
102
RTVSPost2010PropOp55
 70
     1
102
RTVSPost2010Prop56
140
1.0
102
RTVSPost2010PropOp56
 70
     1
102
RTVSPost2010Prop57
140
1.0
102
RTVSPost2010PropOp57
 70
     1
102
RTVSPropertyOp0
 70
     1
102
RTVSPropertyOp1
 70
     1
102
RTVSPropertyOp2
 70
     1
102
RTVSPropertyOp3
 70
     1
102
RTVSPropertyOp4
 70
     1
102
RTVSPropertyOp5
 70
     1
102
RTVSPropertyOp6
 70
     1
102
RTVSPropertyOp7
 70
     1
102
RTVSPropertyOp8
 70
     1
102
RTVSPropertyOp9
 70
     1
102
RTVSPropertyOp10
 70
     1
102
RTVSPropertyOp11
 70
     1
102
RTVSPropertyOp12
 70
     1
102
RTVSPropertyOp13
 70
     1
102
RTVSPropertyOp14
 70
     1
102
RTVSPropertyOp15
 70
     1
102
RTVSPropertyOp16
 70
     1
102
RTVSPropertyOp17
 70
     1
102
RTVSPropertyOp18
 70
     1
102
RTVSPropertyOp19
 70
     1
102
RTVSPropertyOp20
 70
     1
102
RTVSPropertyOp21
 70
     1
102
RTVSPropertyOp22
 70
     1
102
RTVSPropertyOp23
 70
     1
102
RTVSPropertyOp24
 70
     1
102
RTVSPropertyOp25
 70
     1
102
RTVSPropertyOp26
 70
     1
102
RTVSPropertyOp27
 70
     1
102
RTVSPropertyOp28
 70
     1
102
RTVSPropertyOp29
 70
     1
102
RTVSPropertyOp30
 70
     1
102
RTVSPropertyOp31
 70
     1
102
RTVSPropertyOp32
 70
     1
102
RTVSPropertyOp33
 70
     1
102
RTVSPropertyOp34
 70
     1
102
RTVSPropertyOp35
 70
     1
102
RTVSPropertyOp36
 70
     1
102
RTVSPropertyOp37
 70
     1
102
RTVSPropertyOp38
 70
     1
102
RTVSPropertyOp39
 70
     1
102
RTVSPropertyOp40
 70
     1
102
RTVSPropertyOp41
 70
     1
102
RTVSPropertyOp42
 70
     1
102
RTVSPropertyOp43
 70
     1
102
RTVSPropertyOp44
 70
     1
102
RTVSPropertyOp45
 70
     1
102
RTVSPropertyOp46
 70
     1
102
RTVSPropertyOp47
 70
     1
102
RTVSPropertyOp48
 70
     1
102
RTVSPropertyOp49
 70
     1
102
RTVSPropertyOp50
 70
     1
102
RTVSPropertyOp51
 70
     0
102
RTVSPropertyOp52
 70
     0
102
RTVSPropertyOp53
 70
     1
102
RTVSPropertyOp54
 70
     1
102
RTVSPropertyOp55
 70
     1
102
RTVSPropertyOp56
 70
     1
102
RTVSPropertyOp57
 70
     1
102
RTVSPropertyOp58
 70
     1
102
RTVSPropertyOp59
 70
     1
102
RTVSPropertyOp60
 70
     1
102
RTVSPropertyOp61
 70
     1
102
RTVSPropertyOp62
 70
     1
  0
XRECORD
  5
26F6
102
{ACAD_REACTORS
330
26F5
102
}
330
26F5
100
AcDbXrecord
280
     1
102
RTVSPost2010Prop28
280
     0
102
RTVSPost2010PropOp28
 70
     1
102
RTVSPost2010Prop29
280
     1
102
RTVSPost2010PropOp29
 70
     1
102
RTVSPost2010Prop30
280
     1
102
RTVSPost2010PropOp30
 70
     1
102
RTVSPost2010Prop31
280
     0
102
RTVSPost2010PropOp31
 70
     1
102
RTVSPost2010Prop32
280
     0
102
RTVSPost2010PropOp32
 70
     1
102
RTVSPost2010Prop33
280
     0
102
RTVSPost2010PropOp33
 70
     1
102
RTVSPost2010Prop34
280
     0
102
RTVSPost2010PropOp34
 70
     1
102
RTVSPost2010Prop35
280
     0
102
RTVSPost2010PropOp35
 70
     1
102
RTVSPost2010Prop36
280
     0
102
RTVSPost2010PropOp36
 70
     1
102
RTVSPost2010Prop37
 90
       50
102
RTVSPost2010PropOp37
 70
     1
102
RTVSPost2010Prop38
140
0.0
102
RTVSPost2010PropOp38
 70
     1
102
RTVSPost2010Prop39
140
1.0
102
RTVSPost2010PropOp39
 70
     1
102
RTVSPost2010Prop40
 90
        0
102
RTVSPost2010PropOp40
 70
     1
102
RTVSPost2010Prop41ColorIndex
 90
       18
102
RTVSPost2010Prop41ColorRGB
 90
        0
102
RTVSPost2010PropOp41
 70
     1
102
RTVSPost2010Prop42
 90
       50
102
RTVSPost2010PropOp42
 70
     1
102
RTVSPost2010Prop43
 90
        3
102
RTVSPost2010PropOp43
 70
     1
102
RTVSPost2010Prop44ColorIndex
 90
        5
102
RTVSPost2010Prop44ColorRGB
 90
      255
102
RTVSPost2010PropOp44
 70
     1
102
RTVSPost2010Prop45
280
     0
102
RTVSPost2010PropOp45
 70
     1
102
RTVSPost2010Prop46
 90
       50
102
RTVSPost2010PropOp46
 70
     1
102
RTVSPost2010Prop47
 90
       50
102
RTVSPost2010PropOp47
 70
     1
102
RTVSPost2010Prop48
 90
       50
102
RTVSPost2010PropOp48
 70
     1
102
RTVSPost2010Prop49
280
     0
102
RTVSPost2010PropOp49
 70
     1
102
RTVSPost2010Prop50
 90
       50
102
RTVSPost2010PropOp50
 70
     1
102
RTVSPost2010Prop51ColorIndex
 90
      256
102
RTVSPost2010Prop51ColorRGB
 90
-16777216
102
RTVSPost2010PropOp51
 70
     0
102
RTVSPost2010Prop52
140
1.0
102
RTVSPost2010PropOp52
 70
     0
102
RTVSPost2010Prop53
 90
        2
102
RTVSPost2010PropOp53
 70
     1
102
RTVSPost2010Prop54
  1
strokes_ogs.tif
102
RTVSPost2010PropOp54
 70
     1
102
RTVSPost2010Prop55
280
     0
102
RTVSPost2010PropOp55
 70
     1
102
RTVSPost2010Prop56
140
1.0
102
RTVSPost2010PropOp56
 70
     1
102
RTVSPost2010Prop57
140
1.0
102
RTVSPost2010PropOp57
 70
     1
102
RTVSPropertyOp0
 70
     1
102
RTVSPropertyOp1
 70
     1
102
RTVSPropertyOp2
 70
     1
102
RTVSPropertyOp3
 70
     1
102
RTVSPropertyOp4
 70
     1
102
RTVSPropertyOp5
 70
     1
102
RTVSPropertyOp6
 70
     1
102
RTVSPropertyOp7
 70
     1
102
RTVSPropertyOp8
 70
     1
102
RTVSPropertyOp9
 70
     1
102
RTVSPropertyOp10
 70
     1
102
RTVSPropertyOp11
 70
     1
102
RTVSPropertyOp12
 70
     1
102
RTVSPropertyOp13
 70
     1
102
RTVSPropertyOp14
 70
     1
102
RTVSPropertyOp15
 70
     1
102
RTVSPropertyOp16
 70
     1
102
RTVSPropertyOp17
 70
     1
102
RTVSPropertyOp18
 70
     1
102
RTVSPropertyOp19
 70
     1
102
RTVSPropertyOp20
 70
     1
102
RTVSPropertyOp21
 70
     1
102
RTVSPropertyOp22
 70
     1
102
RTVSPropertyOp23
 70
     1
102
RTVSPropertyOp24
 70
     1
102
RTVSPropertyOp25
 70
     1
102
RTVSPropertyOp26
 70
     1
102
RTVSPropertyOp27
 70
     1
102
RTVSPropertyOp28
 70
     1
102
RTVSPropertyOp29
 70
     1
102
RTVSPropertyOp30
 70
     1
102
RTVSPropertyOp31
 70
     1
102
RTVSPropertyOp32
 70
     1
102
RTVSPropertyOp33
 70
     1
102
RTVSPropertyOp34
 70
     1
102
RTVSPropertyOp35
 70
     1
102
RTVSPropertyOp36
 70
     1
102
RTVSPropertyOp37
 70
     1
102
RTVSPropertyOp38
 70
     1
102
RTVSPropertyOp39
 70
     1
102
RTVSPropertyOp40
 70
     1
102
RTVSPropertyOp41
 70
     1
102
RTVSPropertyOp42
 70
     1
102
RTVSPropertyOp43
 70
     1
102
RTVSPropertyOp44
 70
     1
102
RTVSPropertyOp45
 70
     1
102
RTVSPropertyOp46
 70
     1
102
RTVSPropertyOp47
 70
     1
102
RTVSPropertyOp48
 70
     1
102
RTVSPropertyOp49
 70
     1
102
RTVSPropertyOp50
 70
     1
102
RTVSPropertyOp51
 70
     0
102
RTVSPropertyOp52
 70
     0
102
RTVSPropertyOp53
 70
     1
102
RTVSPropertyOp54
 70
     1
102
RTVSPropertyOp55
 70
     1
102
RTVSPropertyOp56
 70
     1
102
RTVSPropertyOp57
 70
     1
102
RTVSPropertyOp58
 70
     1
102
RTVSPropertyOp59
 70
     1
102
RTVSPropertyOp60
 70
     1
102
RTVSPropertyOp61
 70
     1
102
RTVSPropertyOp62
 70
     1
  0
XRECORD
  5
26E8
102
{ACAD_REACTORS
330
26E7
102
}
330
26E7
100
AcDbXrecord
280
     1
102
RTVSPost2010Prop28
280
     0
102
RTVSPost2010PropOp28
 70
     1
102
RTVSPost2010Prop29
280
     1
102
RTVSPost2010PropOp29
 70
     1
102
RTVSPost2010Prop30
280
     1
102
RTVSPost2010PropOp30
 70
     1
102
RTVSPost2010Prop31
280
     0
102
RTVSPost2010PropOp31
 70
     1
102
RTVSPost2010Prop32
280
     0
102
RTVSPost2010PropOp32
 70
     1
102
RTVSPost2010Prop33
280
     0
102
RTVSPost2010PropOp33
 70
     1
102
RTVSPost2010Prop34
280
     0
102
RTVSPost2010PropOp34
 70
     1
102
RTVSPost2010Prop35
280
     0
102
RTVSPost2010PropOp35
 70
     1
102
RTVSPost2010Prop36
280
     0
102
RTVSPost2010PropOp36
 70
     1
102
RTVSPost2010Prop37
 90
       50
102
RTVSPost2010PropOp37
 70
     1
102
RTVSPost2010Prop38
140
0.0
102
RTVSPost2010PropOp38
 70
     1
102
RTVSPost2010Prop39
140
1.0
102
RTVSPost2010PropOp39
 70
     1
102
RTVSPost2010Prop40
 90
        0
102
RTVSPost2010PropOp40
 70
     1
102
RTVSPost2010Prop41ColorIndex
 90
       18
102
RTVSPost2010Prop41ColorRGB
 90
        0
102
RTVSPost2010PropOp41
 70
     1
102
RTVSPost2010Prop42
 90
       50
102
RTVSPost2010PropOp42
 70
     1
102
RTVSPost2010Prop43
 90
        3
102
RTVSPost2010PropOp43
 70
     1
102
RTVSPost2010Prop44ColorIndex
 90
        5
102
RTVSPost2010Prop44ColorRGB
 90
      255
102
RTVSPost2010PropOp44
 70
     1
102
RTVSPost2010Prop45
280
     0
102
RTVSPost2010PropOp45
 70
     1
102
RTVSPost2010Prop46
 90
       50
102
RTVSPost2010PropOp46
 70
     1
102
RTVSPost2010Prop47
 90
       50
102
RTVSPost2010PropOp47
 70
     1
102
RTVSPost2010Prop48
 90
       50
102
RTVSPost2010PropOp48
 70
     1
102
RTVSPost2010Prop49
280
     0
102
RTVSPost2010PropOp49
 70
     1
102
RTVSPost2010Prop50
 90
       50
102
RTVSPost2010PropOp50
 70
     1
102
RTVSPost2010Prop51ColorIndex
 90
      256
102
RTVSPost2010Prop51ColorRGB
 90
-16777216
102
RTVSPost2010PropOp51
 70
     0
102
RTVSPost2010Prop52
140
1.0
102
RTVSPost2010PropOp52
 70
     0
102
RTVSPost2010Prop53
 90
        2
102
RTVSPost2010PropOp53
 70
     1
102
RTVSPost2010Prop54
  1
strokes_ogs.tif
102
RTVSPost2010PropOp54
 70
     1
102
RTVSPost2010Prop55
280
     0
102
RTVSPost2010PropOp55
 70
     1
102
RTVSPost2010Prop56
140
1.0
102
RTVSPost2010PropOp56
 70
     1
102
RTVSPost2010Prop57
140
1.0
102
RTVSPost2010PropOp57
 70
     1
102
RTVSPropertyOp0
 70
     1
102
RTVSPropertyOp1
 70
     1
102
RTVSPropertyOp2
 70
     1
102
RTVSPropertyOp3
 70
     1
102
RTVSPropertyOp4
 70
     1
102
RTVSPropertyOp5
 70
     1
102
RTVSPropertyOp6
 70
     1
102
RTVSPropertyOp7
 70
     1
102
RTVSPropertyOp8
 70
     1
102
RTVSPropertyOp9
 70
     1
102
RTVSPropertyOp10
 70
     1
102
RTVSPropertyOp11
 70
     1
102
RTVSPropertyOp12
 70
     1
102
RTVSPropertyOp13
 70
     1
102
RTVSPropertyOp14
 70
     1
102
RTVSPropertyOp15
 70
     1
102
RTVSPropertyOp16
 70
     1
102
RTVSPropertyOp17
 70
     1
102
RTVSPropertyOp18
 70
     1
102
RTVSPropertyOp19
 70
     1
102
RTVSPropertyOp20
 70
     1
102
RTVSPropertyOp21
 70
     1
102
RTVSPropertyOp22
 70
     1
102
RTVSPropertyOp23
 70
     1
102
RTVSPropertyOp24
 70
     1
102
RTVSPropertyOp25
 70
     1
102
RTVSPropertyOp26
 70
     1
102
RTVSPropertyOp27
 70
     1
102
RTVSPropertyOp28
 70
     1
102
RTVSPropertyOp29
 70
     1
102
RTVSPropertyOp30
 70
     1
102
RTVSPropertyOp31
 70
     1
102
RTVSPropertyOp32
 70
     1
102
RTVSPropertyOp33
 70
     1
102
RTVSPropertyOp34
 70
     1
102
RTVSPropertyOp35
 70
     1
102
RTVSPropertyOp36
 70
     1
102
RTVSPropertyOp37
 70
     1
102
RTVSPropertyOp38
 70
     1
102
RTVSPropertyOp39
 70
     1
102
RTVSPropertyOp40
 70
     1
102
RTVSPropertyOp41
 70
     1
102
RTVSPropertyOp42
 70
     1
102
RTVSPropertyOp43
 70
     1
102
RTVSPropertyOp44
 70
     1
102
RTVSPropertyOp45
 70
     1
102
RTVSPropertyOp46
 70
     1
102
RTVSPropertyOp47
 70
     1
102
RTVSPropertyOp48
 70
     1
102
RTVSPropertyOp49
 70
     1
102
RTVSPropertyOp50
 70
     1
102
RTVSPropertyOp51
 70
     0
102
RTVSPropertyOp52
 70
     0
102
RTVSPropertyOp53
 70
     1
102
RTVSPropertyOp54
 70
     1
102
RTVSPropertyOp55
 70
     1
102
RTVSPropertyOp56
 70
     1
102
RTVSPropertyOp57
 70
     1
102
RTVSPropertyOp58
 70
     1
102
RTVSPropertyOp59
 70
     1
102
RTVSPropertyOp60
 70
     1
102
RTVSPropertyOp61
 70
     1
102
RTVSPropertyOp62
 70
     1
  0
XRECORD
  5
26EC
102
{ACAD_REACTORS
330
26EB
102
}
330
26EB
100
AcDbXrecord
280
     1
102
RTVSPost2010Prop28
280
     0
102
RTVSPost2010PropOp28
 70
     1
102
RTVSPost2010Prop29
280
     1
102
RTVSPost2010PropOp29
 70
     1
102
RTVSPost2010Prop30
280
     1
102
RTVSPost2010PropOp30
 70
     1
102
RTVSPost2010Prop31
280
     0
102
RTVSPost2010PropOp31
 70
     1
102
RTVSPost2010Prop32
280
     0
102
RTVSPost2010PropOp32
 70
     1
102
RTVSPost2010Prop33
280
     0
102
RTVSPost2010PropOp33
 70
     1
102
RTVSPost2010Prop34
280
     0
102
RTVSPost2010PropOp34
 70
     1
102
RTVSPost2010Prop35
280
     0
102
RTVSPost2010PropOp35
 70
     1
102
RTVSPost2010Prop36
280
     0
102
RTVSPost2010PropOp36
 70
     1
102
RTVSPost2010Prop37
 90
       50
102
RTVSPost2010PropOp37
 70
     1
102
RTVSPost2010Prop38
140
0.0
102
RTVSPost2010PropOp38
 70
     1
102
RTVSPost2010Prop39
140
1.0
102
RTVSPost2010PropOp39
 70
     1
102
RTVSPost2010Prop40
 90
        0
102
RTVSPost2010PropOp40
 70
     1
102
RTVSPost2010Prop41ColorIndex
 90
       18
102
RTVSPost2010Prop41ColorRGB
 90
        0
102
RTVSPost2010PropOp41
 70
     1
102
RTVSPost2010Prop42
 90
       50
102
RTVSPost2010PropOp42
 70
     1
102
RTVSPost2010Prop43
 90
        3
102
RTVSPost2010PropOp43
 70
     1
102
RTVSPost2010Prop44ColorIndex
 90
        5
102
RTVSPost2010Prop44ColorRGB
 90
      255
102
RTVSPost2010PropOp44
 70
     1
102
RTVSPost2010Prop45
280
     0
102
RTVSPost2010PropOp45
 70
     1
102
RTVSPost2010Prop46
 90
       50
102
RTVSPost2010PropOp46
 70
     1
102
RTVSPost2010Prop47
 90
       50
102
RTVSPost2010PropOp47
 70
     1
102
RTVSPost2010Prop48
 90
       50
102
RTVSPost2010PropOp48
 70
     1
102
RTVSPost2010Prop49
280
     0
102
RTVSPost2010PropOp49
 70
     1
102
RTVSPost2010Prop50
 90
       50
102
RTVSPost2010PropOp50
 70
     1
102
RTVSPost2010Prop51ColorIndex
 90
      256
102
RTVSPost2010Prop51ColorRGB
 90
-16777216
102
RTVSPost2010PropOp51
 70
     0
102
RTVSPost2010Prop52
140
1.0
102
RTVSPost2010PropOp52
 70
     0
102
RTVSPost2010Prop53
 90
        2
102
RTVSPost2010PropOp53
 70
     1
102
RTVSPost2010Prop54
  1
strokes_ogs.tif
102
RTVSPost2010PropOp54
 70
     1
102
RTVSPost2010Prop55
280
     0
102
RTVSPost2010PropOp55
 70
     1
102
RTVSPost2010Prop56
140
1.0
102
RTVSPost2010PropOp56
 70
     1
102
RTVSPost2010Prop57
140
1.0
102
RTVSPost2010PropOp57
 70
     1
102
RTVSPropertyOp0
 70
     1
102
RTVSPropertyOp1
 70
     1
102
RTVSPropertyOp2
 70
     1
102
RTVSPropertyOp3
 70
     1
102
RTVSPropertyOp4
 70
     1
102
RTVSPropertyOp5
 70
     1
102
RTVSPropertyOp6
 70
     1
102
RTVSPropertyOp7
 70
     1
102
RTVSPropertyOp8
 70
     1
102
RTVSPropertyOp9
 70
     1
102
RTVSPropertyOp10
 70
     1
102
RTVSPropertyOp11
 70
     1
102
RTVSPropertyOp12
 70
     1
102
RTVSPropertyOp13
 70
     1
102
RTVSPropertyOp14
 70
     1
102
RTVSPropertyOp15
 70
     1
102
RTVSPropertyOp16
 70
     1
102
RTVSPropertyOp17
 70
     1
102
RTVSPropertyOp18
 70
     1
102
RTVSPropertyOp19
 70
     1
102
RTVSPropertyOp20
 70
     1
102
RTVSPropertyOp21
 70
     1
102
RTVSPropertyOp22
 70
     1
102
RTVSPropertyOp23
 70
     1
102
RTVSPropertyOp24
 70
     1
102
RTVSPropertyOp25
 70
     1
102
RTVSPropertyOp26
 70
     1
102
RTVSPropertyOp27
 70
     1
102
RTVSPropertyOp28
 70
     1
102
RTVSPropertyOp29
 70
     1
102
RTVSPropertyOp30
 70
     1
102
RTVSPropertyOp31
 70
     1
102
RTVSPropertyOp32
 70
     1
102
RTVSPropertyOp33
 70
     1
102
RTVSPropertyOp34
 70
     1
102
RTVSPropertyOp35
 70
     1
102
RTVSPropertyOp36
 70
     1
102
RTVSPropertyOp37
 70
     1
102
RTVSPropertyOp38
 70
     1
102
RTVSPropertyOp39
 70
     1
102
RTVSPropertyOp40
 70
     1
102
RTVSPropertyOp41
 70
     1
102
RTVSPropertyOp42
 70
     1
102
RTVSPropertyOp43
 70
     1
102
RTVSPropertyOp44
 70
     1
102
RTVSPropertyOp45
 70
     1
102
RTVSPropertyOp46
 70
     1
102
RTVSPropertyOp47
 70
     1
102
RTVSPropertyOp48
 70
     1
102
RTVSPropertyOp49
 70
     1
102
RTVSPropertyOp50
 70
     1
102
RTVSPropertyOp51
 70
     0
102
RTVSPropertyOp52
 70
     0
102
RTVSPropertyOp53
 70
     1
102
RTVSPropertyOp54
 70
     1
102
RTVSPropertyOp55
 70
     1
102
RTVSPropertyOp56
 70
     1
102
RTVSPropertyOp57
 70
     1
102
RTVSPropertyOp58
 70
     1
102
RTVSPropertyOp59
 70
     1
102
RTVSPropertyOp60
 70
     1
102
RTVSPropertyOp61
 70
     1
102
RTVSPropertyOp62
 70
     1
  0
XRECORD
  5
26FE
102
{ACAD_REACTORS
330
26FD
102
}
330
26FD
100
AcDbXrecord
280
     1
102
RTVSPost2010Prop28
280
     0
102
RTVSPost2010PropOp28
 70
     1
102
RTVSPost2010Prop29
280
     1
102
RTVSPost2010PropOp29
 70
     1
102
RTVSPost2010Prop30
280
     1
102
RTVSPost2010PropOp30
 70
     1
102
RTVSPost2010Prop31
280
     0
102
RTVSPost2010PropOp31
 70
     1
102
RTVSPost2010Prop32
280
     0
102
RTVSPost2010PropOp32
 70
     1
102
RTVSPost2010Prop33
280
     0
102
RTVSPost2010PropOp33
 70
     1
102
RTVSPost2010Prop34
280
     0
102
RTVSPost2010PropOp34
 70
     1
102
RTVSPost2010Prop35
280
     0
102
RTVSPost2010PropOp35
 70
     1
102
RTVSPost2010Prop36
280
     0
102
RTVSPost2010PropOp36
 70
     1
102
RTVSPost2010Prop37
 90
       50
102
RTVSPost2010PropOp37
 70
     1
102
RTVSPost2010Prop38
140
0.0
102
RTVSPost2010PropOp38
 70
     1
102
RTVSPost2010Prop39
140
1.0
102
RTVSPost2010PropOp39
 70
     1
102
RTVSPost2010Prop40
 90
        0
102
RTVSPost2010PropOp40
 70
     1
102
RTVSPost2010Prop41ColorIndex
 90
       18
102
RTVSPost2010Prop41ColorRGB
 90
        0
102
RTVSPost2010PropOp41
 70
     1
102
RTVSPost2010Prop42
 90
       50
102
RTVSPost2010PropOp42
 70
     1
102
RTVSPost2010Prop43
 90
        3
102
RTVSPost2010PropOp43
 70
     1
102
RTVSPost2010Prop44ColorIndex
 90
        5
102
RTVSPost2010Prop44ColorRGB
 90
      255
102
RTVSPost2010PropOp44
 70
     1
102
RTVSPost2010Prop45
280
     0
102
RTVSPost2010PropOp45
 70
     1
102
RTVSPost2010Prop46
 90
       50
102
RTVSPost2010PropOp46
 70
     1
102
RTVSPost2010Prop47
 90
       50
102
RTVSPost2010PropOp47
 70
     1
102
RTVSPost2010Prop48
 90
       50
102
RTVSPost2010PropOp48
 70
     1
102
RTVSPost2010Prop49
280
     0
102
RTVSPost2010PropOp49
 70
     1
102
RTVSPost2010Prop50
 90
       50
102
RTVSPost2010PropOp50
 70
     1
102
RTVSPost2010Prop51ColorIndex
 90
      256
102
RTVSPost2010Prop51ColorRGB
 90
-16777216
102
RTVSPost2010PropOp51
 70
     0
102
RTVSPost2010Prop52
140
1.0
102
RTVSPost2010PropOp52
 70
     0
102
RTVSPost2010Prop53
 90
        2
102
RTVSPost2010PropOp53
 70
     1
102
RTVSPost2010Prop54
  1
strokes_ogs.tif
102
RTVSPost2010PropOp54
 70
     1
102
RTVSPost2010Prop55
280
     0
102
RTVSPost2010PropOp55
 70
     1
102
RTVSPost2010Prop56
140
1.0
102
RTVSPost2010PropOp56
 70
     1
102
RTVSPost2010Prop57
140
1.0
102
RTVSPost2010PropOp57
 70
     1
102
RTVSPropertyOp0
 70
     0
102
RTVSPropertyOp1
 70
     0
102
RTVSPropertyOp2
 70
     0
102
RTVSPropertyOp3
 70
     0
102
RTVSPropertyOp4
 70
     0
102
RTVSPropertyOp5
 70
     0
102
RTVSPropertyOp6
 70
     0
102
RTVSPropertyOp7
 70
     0
102
RTVSPropertyOp8
 70
     0
102
RTVSPropertyOp9
 70
     0
102
RTVSPropertyOp10
 70
     0
102
RTVSPropertyOp11
 70
     0
102
RTVSPropertyOp12
 70
     0
102
RTVSPropertyOp13
 70
     0
102
RTVSPropertyOp14
 70
     2
102
RTVSPropertyOp15
 70
     0
102
RTVSPropertyOp16
 70
     0
102
RTVSPropertyOp17
 70
     0
102
RTVSPropertyOp18
 70
     0
102
RTVSPropertyOp19
 70
     0
102
RTVSPropertyOp20
 70
     0
102
RTVSPropertyOp21
 70
     0
102
RTVSPropertyOp22
 70
     0
102
RTVSPropertyOp23
 70
     0
102
RTVSPropertyOp24
 70
     0
102
RTVSPropertyOp25
 70
     0
102
RTVSPropertyOp26
 70
     0
102
RTVSPropertyOp27
 70
     0
102
RTVSPropertyOp28
 70
     1
102
RTVSPropertyOp29
 70
     1
102
RTVSPropertyOp30
 70
     1
102
RTVSPropertyOp31
 70
     1
102
RTVSPropertyOp32
 70
     1
102
RTVSPropertyOp33
 70
     1
102
RTVSPropertyOp34
 70
     1
102
RTVSPropertyOp35
 70
     1
102
RTVSPropertyOp36
 70
     1
102
RTVSPropertyOp37
 70
     1
102
RTVSPropertyOp38
 70
     1
102
RTVSPropertyOp39
 70
     1
102
RTVSPropertyOp40
 70
     1
102
RTVSPropertyOp41
 70
     1
102
RTVSPropertyOp42
 70
     1
102
RTVSPropertyOp43
 70
     1
102
RTVSPropertyOp44
 70
     1
102
RTVSPropertyOp45
 70
     1
102
RTVSPropertyOp46
 70
     1
102
RTVSPropertyOp47
 70
     1
102
RTVSPropertyOp48
 70
     1
102
RTVSPropertyOp49
 70
     1
102
RTVSPropertyOp50
 70
     1
102
RTVSPropertyOp51
 70
     0
102
RTVSPropertyOp52
 70
     0
102
RTVSPropertyOp53
 70
     1
102
RTVSPropertyOp54
 70
     1
102
RTVSPropertyOp55
 70
     1
102
RTVSPropertyOp56
 70
     1
102
RTVSPropertyOp57
 70
     1
102
RTVSPropertyOp58
 70
     1
102
RTVSPropertyOp59
 70
     1
102
RTVSPropertyOp60
 70
     1
102
RTVSPropertyOp61
 70
     1
102
RTVSPropertyOp62
 70
     1
  0
XRECORD
  5
26F4
102
{ACAD_REACTORS
330
26F3
102
}
330
26F3
100
AcDbXrecord
280
     1
102
RTVSPost2010Prop28
280
     0
102
RTVSPost2010PropOp28
 70
     1
102
RTVSPost2010Prop29
280
     1
102
RTVSPost2010PropOp29
 70
     1
102
RTVSPost2010Prop30
280
     1
102
RTVSPost2010PropOp30
 70
     1
102
RTVSPost2010Prop31
280
     0
102
RTVSPost2010PropOp31
 70
     1
102
RTVSPost2010Prop32
280
     0
102
RTVSPost2010PropOp32
 70
     1
102
RTVSPost2010Prop33
280
     0
102
RTVSPost2010PropOp33
 70
     1
102
RTVSPost2010Prop34
280
     0
102
RTVSPost2010PropOp34
 70
     1
102
RTVSPost2010Prop35
280
     0
102
RTVSPost2010PropOp35
 70
     1
102
RTVSPost2010Prop36
280
     0
102
RTVSPost2010PropOp36
 70
     1
102
RTVSPost2010Prop37
 90
       50
102
RTVSPost2010PropOp37
 70
     1
102
RTVSPost2010Prop38
140
0.0
102
RTVSPost2010PropOp38
 70
     1
102
RTVSPost2010Prop39
140
1.0
102
RTVSPost2010PropOp39
 70
     1
102
RTVSPost2010Prop40
 90
        0
102
RTVSPost2010PropOp40
 70
     1
102
RTVSPost2010Prop41ColorIndex
 90
       18
102
RTVSPost2010Prop41ColorRGB
 90
        0
102
RTVSPost2010PropOp41
 70
     1
102
RTVSPost2010Prop42
 90
       50
102
RTVSPost2010PropOp42
 70
     1
102
RTVSPost2010Prop43
 90
        3
102
RTVSPost2010PropOp43
 70
     1
102
RTVSPost2010Prop44ColorIndex
 90
        5
102
RTVSPost2010Prop44ColorRGB
 90
      255
102
RTVSPost2010PropOp44
 70
     1
102
RTVSPost2010Prop45
280
     0
102
RTVSPost2010PropOp45
 70
     1
102
RTVSPost2010Prop46
 90
       50
102
RTVSPost2010PropOp46
 70
     1
102
RTVSPost2010Prop47
 90
       50
102
RTVSPost2010PropOp47
 70
     1
102
RTVSPost2010Prop48
 90
       50
102
RTVSPost2010PropOp48
 70
     1
102
RTVSPost2010Prop49
280
     0
102
RTVSPost2010PropOp49
 70
     1
102
RTVSPost2010Prop50
 90
       50
102
RTVSPost2010PropOp50
 70
     1
102
RTVSPost2010Prop51ColorIndex
 90
      256
102
RTVSPost2010Prop51ColorRGB
 90
-16777216
102
RTVSPost2010PropOp51
 70
     0
102
RTVSPost2010Prop52
140
1.0
102
RTVSPost2010PropOp52
 70
     0
102
RTVSPost2010Prop53
 90
        2
102
RTVSPost2010PropOp53
 70
     1
102
RTVSPost2010Prop54
  1
strokes_ogs.tif
102
RTVSPost2010PropOp54
 70
     1
102
RTVSPost2010Prop55
280
     0
102
RTVSPost2010PropOp55
 70
     1
102
RTVSPost2010Prop56
140
1.0
102
RTVSPost2010PropOp56
 70
     1
102
RTVSPost2010Prop57
140
1.0
102
RTVSPost2010PropOp57
 70
     1
102
RTVSPropertyOp0
 70
     1
102
RTVSPropertyOp1
 70
     1
102
RTVSPropertyOp2
 70
     1
102
RTVSPropertyOp3
 70
     1
102
RTVSPropertyOp4
 70
     1
102
RTVSPropertyOp5
 70
     1
102
RTVSPropertyOp6
 70
     1
102
RTVSPropertyOp7
 70
     1
102
RTVSPropertyOp8
 70
     1
102
RTVSPropertyOp9
 70
     1
102
RTVSPropertyOp10
 70
     1
102
RTVSPropertyOp11
 70
     1
102
RTVSPropertyOp12
 70
     1
102
RTVSPropertyOp13
 70
     1
102
RTVSPropertyOp14
 70
     1
102
RTVSPropertyOp15
 70
     1
102
RTVSPropertyOp16
 70
     1
102
RTVSPropertyOp17
 70
     1
102
RTVSPropertyOp18
 70
     1
102
RTVSPropertyOp19
 70
     1
102
RTVSPropertyOp20
 70
     1
102
RTVSPropertyOp21
 70
     1
102
RTVSPropertyOp22
 70
     1
102
RTVSPropertyOp23
 70
     1
102
RTVSPropertyOp24
 70
     1
102
RTVSPropertyOp25
 70
     1
102
RTVSPropertyOp26
 70
     1
102
RTVSPropertyOp27
 70
     1
102
RTVSPropertyOp28
 70
     1
102
RTVSPropertyOp29
 70
     1
102
RTVSPropertyOp30
 70
     1
102
RTVSPropertyOp31
 70
     1
102
RTVSPropertyOp32
 70
     1
102
RTVSPropertyOp33
 70
     1
102
RTVSPropertyOp34
 70
     1
102
RTVSPropertyOp35
 70
     1
102
RTVSPropertyOp36
 70
     1
102
RTVSPropertyOp37
 70
     1
102
RTVSPropertyOp38
 70
     1
102
RTVSPropertyOp39
 70
     1
102
RTVSPropertyOp40
 70
     1
102
RTVSPropertyOp41
 70
     1
102
RTVSPropertyOp42
 70
     1
102
RTVSPropertyOp43
 70
     1
102
RTVSPropertyOp44
 70
     1
102
RTVSPropertyOp45
 70
     1
102
RTVSPropertyOp46
 70
     1
102
RTVSPropertyOp47
 70
     1
102
RTVSPropertyOp48
 70
     1
102
RTVSPropertyOp49
 70
     1
102
RTVSPropertyOp50
 70
     1
102
RTVSPropertyOp51
 70
     0
102
RTVSPropertyOp52
 70
     0
102
RTVSPropertyOp53
 70
     1
102
RTVSPropertyOp54
 70
     1
102
RTVSPropertyOp55
 70
     1
102
RTVSPropertyOp56
 70
     1
102
RTVSPropertyOp57
 70
     1
102
RTVSPropertyOp58
 70
     1
102
RTVSPropertyOp59
 70
     1
102
RTVSPropertyOp60
 70
     1
102
RTVSPropertyOp61
 70
     1
102
RTVSPropertyOp62
 70
     1
  0
XRECORD
  5
26D8
102
{ACAD_REACTORS
330
26D7
102
}
330
26D7
100
AcDbXrecord
280
     1
102
RTVSPost2010Prop28
280
     0
102
RTVSPost2010PropOp28
 70
     1
102
RTVSPost2010Prop29
280
     1
102
RTVSPost2010PropOp29
 70
     1
102
RTVSPost2010Prop30
280
     1
102
RTVSPost2010PropOp30
 70
     1
102
RTVSPost2010Prop31
280
     0
102
RTVSPost2010PropOp31
 70
     1
102
RTVSPost2010Prop32
280
     0
102
RTVSPost2010PropOp32
 70
     1
102
RTVSPost2010Prop33
280
     0
102
RTVSPost2010PropOp33
 70
     1
102
RTVSPost2010Prop34
280
     0
102
RTVSPost2010PropOp34
 70
     1
102
RTVSPost2010Prop35
280
     0
102
RTVSPost2010PropOp35
 70
     1
102
RTVSPost2010Prop36
280
     0
102
RTVSPost2010PropOp36
 70
     1
102
RTVSPost2010Prop37
 90
       50
102
RTVSPost2010PropOp37
 70
     1
102
RTVSPost2010Prop38
140
0.0
102
RTVSPost2010PropOp38
 70
     1
102
RTVSPost2010Prop39
140
1.0
102
RTVSPost2010PropOp39
 70
     1
102
RTVSPost2010Prop40
 90
        0
102
RTVSPost2010PropOp40
 70
     1
102
RTVSPost2010Prop41ColorIndex
 90
       18
102
RTVSPost2010Prop41ColorRGB
 90
        0
102
RTVSPost2010PropOp41
 70
     1
102
RTVSPost2010Prop42
 90
       50
102
RTVSPost2010PropOp42
 70
     1
102
RTVSPost2010Prop43
 90
        3
102
RTVSPost2010PropOp43
 70
     1
102
RTVSPost2010Prop44ColorIndex
 90
        5
102
RTVSPost2010Prop44ColorRGB
 90
      255
102
RTVSPost2010PropOp44
 70
     1
102
RTVSPost2010Prop45
280
     0
102
RTVSPost2010PropOp45
 70
     1
102
RTVSPost2010Prop46
 90
       50
102
RTVSPost2010PropOp46
 70
     1
102
RTVSPost2010Prop47
 90
       50
102
RTVSPost2010PropOp47
 70
     1
102
RTVSPost2010Prop48
 90
       50
102
RTVSPost2010PropOp48
 70
     1
102
RTVSPost2010Prop49
280
     0
102
RTVSPost2010PropOp49
 70
     1
102
RTVSPost2010Prop50
 90
       50
102
RTVSPost2010PropOp50
 70
     1
102
RTVSPost2010Prop51ColorIndex
 90
      256
102
RTVSPost2010Prop51ColorRGB
 90
-16777216
102
RTVSPost2010PropOp51
 70
     0
102
RTVSPost2010Prop52
140
1.0
102
RTVSPost2010PropOp52
 70
     0
102
RTVSPost2010Prop53
 90
        2
102
RTVSPost2010PropOp53
 70
     1
102
RTVSPost2010Prop54
  1
strokes_ogs.tif
102
RTVSPost2010PropOp54
 70
     1
102
RTVSPost2010Prop55
280
     0
102
RTVSPost2010PropOp55
 70
     1
102
RTVSPost2010Prop56
140
1.0
102
RTVSPost2010PropOp56
 70
     1
102
RTVSPost2010Prop57
140
1.0
102
RTVSPost2010PropOp57
 70
     1
102
RTVSPropertyOp0
 70
     1
102
RTVSPropertyOp1
 70
     1
102
RTVSPropertyOp2
 70
     1
102
RTVSPropertyOp3
 70
     1
102
RTVSPropertyOp4
 70
     1
102
RTVSPropertyOp5
 70
     1
102
RTVSPropertyOp6
 70
     1
102
RTVSPropertyOp7
 70
     1
102
RTVSPropertyOp8
 70
     1
102
RTVSPropertyOp9
 70
     1
102
RTVSPropertyOp10
 70
     1
102
RTVSPropertyOp11
 70
     1
102
RTVSPropertyOp12
 70
     1
102
RTVSPropertyOp13
 70
     1
102
RTVSPropertyOp14
 70
     1
102
RTVSPropertyOp15
 70
     1
102
RTVSPropertyOp16
 70
     1
102
RTVSPropertyOp17
 70
     1
102
RTVSPropertyOp18
 70
     1
102
RTVSPropertyOp19
 70
     1
102
RTVSPropertyOp20
 70
     1
102
RTVSPropertyOp21
 70
     1
102
RTVSPropertyOp22
 70
     1
102
RTVSPropertyOp23
 70
     1
102
RTVSPropertyOp24
 70
     1
102
RTVSPropertyOp25
 70
     1
102
RTVSPropertyOp26
 70
     1
102
RTVSPropertyOp27
 70
     1
102
RTVSPropertyOp28
 70
     1
102
RTVSPropertyOp29
 70
     1
102
RTVSPropertyOp30
 70
     1
102
RTVSPropertyOp31
 70
     1
102
RTVSPropertyOp32
 70
     1
102
RTVSPropertyOp33
 70
     1
102
RTVSPropertyOp34
 70
     1
102
RTVSPropertyOp35
 70
     1
102
RTVSPropertyOp36
 70
     1
102
RTVSPropertyOp37
 70
     1
102
RTVSPropertyOp38
 70
     1
102
RTVSPropertyOp39
 70
     1
102
RTVSPropertyOp40
 70
     1
102
RTVSPropertyOp41
 70
     1
102
RTVSPropertyOp42
 70
     1
102
RTVSPropertyOp43
 70
     1
102
RTVSPropertyOp44
 70
     1
102
RTVSPropertyOp45
 70
     1
102
RTVSPropertyOp46
 70
     1
102
RTVSPropertyOp47
 70
     1
102
RTVSPropertyOp48
 70
     1
102
RTVSPropertyOp49
 70
     1
102
RTVSPropertyOp50
 70
     1
102
RTVSPropertyOp51
 70
     0
102
RTVSPropertyOp52
 70
     0
102
RTVSPropertyOp53
 70
     1
102
RTVSPropertyOp54
 70
     1
102
RTVSPropertyOp55
 70
     1
102
RTVSPropertyOp56
 70
     1
102
RTVSPropertyOp57
 70
     1
102
RTVSPropertyOp58
 70
     1
102
RTVSPropertyOp59
 70
     1
102
RTVSPropertyOp60
 70
     1
102
RTVSPropertyOp61
 70
     1
102
RTVSPropertyOp62
 70
     1
  0
XRECORD
  5
26DA
102
{ACAD_REACTORS
330
26D9
102
}
330
26D9
100
AcDbXrecord
280
     1
102
RTVSPost2010Prop28
280
     0
102
RTVSPost2010PropOp28
 70
     1
102
RTVSPost2010Prop29
280
     1
102
RTVSPost2010PropOp29
 70
     1
102
RTVSPost2010Prop30
280
     1
102
RTVSPost2010PropOp30
 70
     1
102
RTVSPost2010Prop31
280
     0
102
RTVSPost2010PropOp31
 70
     1
102
RTVSPost2010Prop32
280
     0
102
RTVSPost2010PropOp32
 70
     1
102
RTVSPost2010Prop33
280
     0
102
RTVSPost2010PropOp33
 70
     1
102
RTVSPost2010Prop34
280
     0
102
RTVSPost2010PropOp34
 70
     1
102
RTVSPost2010Prop35
280
     0
102
RTVSPost2010PropOp35
 70
     1
102
RTVSPost2010Prop36
280
     0
102
RTVSPost2010PropOp36
 70
     1
102
RTVSPost2010Prop37
 90
       50
102
RTVSPost2010PropOp37
 70
     1
102
RTVSPost2010Prop38
140
0.0
102
RTVSPost2010PropOp38
 70
     1
102
RTVSPost2010Prop39
140
1.0
102
RTVSPost2010PropOp39
 70
     1
102
RTVSPost2010Prop40
 90
        0
102
RTVSPost2010PropOp40
 70
     1
102
RTVSPost2010Prop41ColorIndex
 90
       18
102
RTVSPost2010Prop41ColorRGB
 90
        0
102
RTVSPost2010PropOp41
 70
     1
102
RTVSPost2010Prop42
 90
       50
102
RTVSPost2010PropOp42
 70
     1
102
RTVSPost2010Prop43
 90
        3
102
RTVSPost2010PropOp43
 70
     1
102
RTVSPost2010Prop44ColorIndex
 90
        5
102
RTVSPost2010Prop44ColorRGB
 90
      255
102
RTVSPost2010PropOp44
 70
     1
102
RTVSPost2010Prop45
280
     0
102
RTVSPost2010PropOp45
 70
     1
102
RTVSPost2010Prop46
 90
       50
102
RTVSPost2010PropOp46
 70
     1
102
RTVSPost2010Prop47
 90
       50
102
RTVSPost2010PropOp47
 70
     1
102
RTVSPost2010Prop48
 90
       50
102
RTVSPost2010PropOp48
 70
     1
102
RTVSPost2010Prop49
280
     0
102
RTVSPost2010PropOp49
 70
     1
102
RTVSPost2010Prop50
 90
       50
102
RTVSPost2010PropOp50
 70
     1
102
RTVSPost2010Prop51ColorIndex
 90
      256
102
RTVSPost2010Prop51ColorRGB
 90
-16777216
102
RTVSPost2010PropOp51
 70
     0
102
RTVSPost2010Prop52
140
1.0
102
RTVSPost2010PropOp52
 70
     0
102
RTVSPost2010Prop53
 90
        2
102
RTVSPost2010PropOp53
 70
     1
102
RTVSPost2010Prop54
  1
strokes_ogs.tif
102
RTVSPost2010PropOp54
 70
     1
102
RTVSPost2010Prop55
280
     0
102
RTVSPost2010PropOp55
 70
     1
102
RTVSPost2010Prop56
140
1.0
102
RTVSPost2010PropOp56
 70
     1
102
RTVSPost2010Prop57
140
1.0
102
RTVSPost2010PropOp57
 70
     1
102
RTVSPropertyOp0
 70
     1
102
RTVSPropertyOp1
 70
     1
102
RTVSPropertyOp2
 70
     1
102
RTVSPropertyOp3
 70
     1
102
RTVSPropertyOp4
 70
     1
102
RTVSPropertyOp5
 70
     1
102
RTVSPropertyOp6
 70
     1
102
RTVSPropertyOp7
 70
     1
102
RTVSPropertyOp8
 70
     1
102
RTVSPropertyOp9
 70
     1
102
RTVSPropertyOp10
 70
     1
102
RTVSPropertyOp11
 70
     1
102
RTVSPropertyOp12
 70
     1
102
RTVSPropertyOp13
 70
     1
102
RTVSPropertyOp14
 70
     1
102
RTVSPropertyOp15
 70
     1
102
RTVSPropertyOp16
 70
     1
102
RTVSPropertyOp17
 70
     1
102
RTVSPropertyOp18
 70
     1
102
RTVSPropertyOp19
 70
     1
102
RTVSPropertyOp20
 70
     1
102
RTVSPropertyOp21
 70
     1
102
RTVSPropertyOp22
 70
     1
102
RTVSPropertyOp23
 70
     1
102
RTVSPropertyOp24
 70
     1
102
RTVSPropertyOp25
 70
     1
102
RTVSPropertyOp26
 70
     1
102
RTVSPropertyOp27
 70
     1
102
RTVSPropertyOp28
 70
     1
102
RTVSPropertyOp29
 70
     1
102
RTVSPropertyOp30
 70
     1
102
RTVSPropertyOp31
 70
     1
102
RTVSPropertyOp32
 70
     1
102
RTVSPropertyOp33
 70
     1
102
RTVSPropertyOp34
 70
     1
102
RTVSPropertyOp35
 70
     1
102
RTVSPropertyOp36
 70
     1
102
RTVSPropertyOp37
 70
     1
102
RTVSPropertyOp38
 70
     1
102
RTVSPropertyOp39
 70
     1
102
RTVSPropertyOp40
 70
     1
102
RTVSPropertyOp41
 70
     1
102
RTVSPropertyOp42
 70
     1
102
RTVSPropertyOp43
 70
     1
102
RTVSPropertyOp44
 70
     1
102
RTVSPropertyOp45
 70
     1
102
RTVSPropertyOp46
 70
     1
102
RTVSPropertyOp47
 70
     1
102
RTVSPropertyOp48
 70
     1
102
RTVSPropertyOp49
 70
     1
102
RTVSPropertyOp50
 70
     1
102
RTVSPropertyOp51
 70
     0
102
RTVSPropertyOp52
 70
     0
102
RTVSPropertyOp53
 70
     1
102
RTVSPropertyOp54
 70
     1
102
RTVSPropertyOp55
 70
     1
102
RTVSPropertyOp56
 70
     1
102
RTVSPropertyOp57
 70
     1
102
RTVSPropertyOp58
 70
     1
102
RTVSPropertyOp59
 70
     1
102
RTVSPropertyOp60
 70
     1
102
RTVSPropertyOp61
 70
     1
102
RTVSPropertyOp62
 70
     1
  0
XRECORD
  5
26DC
102
{ACAD_REACTORS
330
26DB
102
}
330
26DB
100
AcDbXrecord
280
     1
102
RTVSPost2010Prop28
280
     0
102
RTVSPost2010PropOp28
 70
     1
102
RTVSPost2010Prop29
280
     1
102
RTVSPost2010PropOp29
 70
     1
102
RTVSPost2010Prop30
280
     1
102
RTVSPost2010PropOp30
 70
     1
102
RTVSPost2010Prop31
280
     0
102
RTVSPost2010PropOp31
 70
     1
102
RTVSPost2010Prop32
280
     0
102
RTVSPost2010PropOp32
 70
     1
102
RTVSPost2010Prop33
280
     0
102
RTVSPost2010PropOp33
 70
     1
102
RTVSPost2010Prop34
280
     0
102
RTVSPost2010PropOp34
 70
     1
102
RTVSPost2010Prop35
280
     0
102
RTVSPost2010PropOp35
 70
     1
102
RTVSPost2010Prop36
280
     0
102
RTVSPost2010PropOp36
 70
     1
102
RTVSPost2010Prop37
 90
       50
102
RTVSPost2010PropOp37
 70
     1
102
RTVSPost2010Prop38
140
0.0
102
RTVSPost2010PropOp38
 70
     1
102
RTVSPost2010Prop39
140
1.0
102
RTVSPost2010PropOp39
 70
     1
102
RTVSPost2010Prop40
 90
        0
102
RTVSPost2010PropOp40
 70
     1
102
RTVSPost2010Prop41ColorIndex
 90
       18
102
RTVSPost2010Prop41ColorRGB
 90
        0
102
RTVSPost2010PropOp41
 70
     1
102
RTVSPost2010Prop42
 90
       50
102
RTVSPost2010PropOp42
 70
     1
102
RTVSPost2010Prop43
 90
        3
102
RTVSPost2010PropOp43
 70
     1
102
RTVSPost2010Prop44ColorIndex
 90
        5
102
RTVSPost2010Prop44ColorRGB
 90
      255
102
RTVSPost2010PropOp44
 70
     1
102
RTVSPost2010Prop45
280
     0
102
RTVSPost2010PropOp45
 70
     1
102
RTVSPost2010Prop46
 90
       50
102
RTVSPost2010PropOp46
 70
     1
102
RTVSPost2010Prop47
 90
       50
102
RTVSPost2010PropOp47
 70
     1
102
RTVSPost2010Prop48
 90
       50
102
RTVSPost2010PropOp48
 70
     1
102
RTVSPost2010Prop49
280
     0
102
RTVSPost2010PropOp49
 70
     1
102
RTVSPost2010Prop50
 90
       50
102
RTVSPost2010PropOp50
 70
     1
102
RTVSPost2010Prop51ColorIndex
 90
      256
102
RTVSPost2010Prop51ColorRGB
 90
-16777216
102
RTVSPost2010PropOp51
 70
     0
102
RTVSPost2010Prop52
140
1.0
102
RTVSPost2010PropOp52
 70
     0
102
RTVSPost2010Prop53
 90
        2
102
RTVSPost2010PropOp53
 70
     1
102
RTVSPost2010Prop54
  1
strokes_ogs.tif
102
RTVSPost2010PropOp54
 70
     1
102
RTVSPost2010Prop55
280
     0
102
RTVSPost2010PropOp55
 70
     1
102
RTVSPost2010Prop56
140
1.0
102
RTVSPost2010PropOp56
 70
     1
102
RTVSPost2010Prop57
140
1.0
102
RTVSPost2010PropOp57
 70
     1
102
RTVSPropertyOp0
 70
     1
102
RTVSPropertyOp1
 70
     1
102
RTVSPropertyOp2
 70
     1
102
RTVSPropertyOp3
 70
     1
102
RTVSPropertyOp4
 70
     1
102
RTVSPropertyOp5
 70
     1
102
RTVSPropertyOp6
 70
     1
102
RTVSPropertyOp7
 70
     1
102
RTVSPropertyOp8
 70
     1
102
RTVSPropertyOp9
 70
     1
102
RTVSPropertyOp10
 70
     1
102
RTVSPropertyOp11
 70
     1
102
RTVSPropertyOp12
 70
     1
102
RTVSPropertyOp13
 70
     1
102
RTVSPropertyOp14
 70
     1
102
RTVSPropertyOp15
 70
     1
102
RTVSPropertyOp16
 70
     1
102
RTVSPropertyOp17
 70
     1
102
RTVSPropertyOp18
 70
     1
102
RTVSPropertyOp19
 70
     1
102
RTVSPropertyOp20
 70
     1
102
RTVSPropertyOp21
 70
     1
102
RTVSPropertyOp22
 70
     1
102
RTVSPropertyOp23
 70
     1
102
RTVSPropertyOp24
 70
     1
102
RTVSPropertyOp25
 70
     1
102
RTVSPropertyOp26
 70
     1
102
RTVSPropertyOp27
 70
     1
102
RTVSPropertyOp28
 70
     1
102
RTVSPropertyOp29
 70
     1
102
RTVSPropertyOp30
 70
     1
102
RTVSPropertyOp31
 70
     1
102
RTVSPropertyOp32
 70
     1
102
RTVSPropertyOp33
 70
     1
102
RTVSPropertyOp34
 70
     1
102
RTVSPropertyOp35
 70
     1
102
RTVSPropertyOp36
 70
     1
102
RTVSPropertyOp37
 70
     1
102
RTVSPropertyOp38
 70
     1
102
RTVSPropertyOp39
 70
     1
102
RTVSPropertyOp40
 70
     1
102
RTVSPropertyOp41
 70
     1
102
RTVSPropertyOp42
 70
     1
102
RTVSPropertyOp43
 70
     1
102
RTVSPropertyOp44
 70
     1
102
RTVSPropertyOp45
 70
     1
102
RTVSPropertyOp46
 70
     1
102
RTVSPropertyOp47
 70
     1
102
RTVSPropertyOp48
 70
     1
102
RTVSPropertyOp49
 70
     1
102
RTVSPropertyOp50
 70
     1
102
RTVSPropertyOp51
 70
     0
102
RTVSPropertyOp52
 70
     0
102
RTVSPropertyOp53
 70
     1
102
RTVSPropertyOp54
 70
     1
102
RTVSPropertyOp55
 70
     1
102
RTVSPropertyOp56
 70
     1
102
RTVSPropertyOp57
 70
     1
102
RTVSPropertyOp58
 70
     1
102
RTVSPropertyOp59
 70
     1
102
RTVSPropertyOp60
 70
     1
102
RTVSPropertyOp61
 70
     1
102
RTVSPropertyOp62
 70
     1
  0
XRECORD
  5
26DE
102
{ACAD_REACTORS
330
26DD
102
}
330
26DD
100
AcDbXrecord
280
     1
102
RTVSPost2010Prop28
280
     0
102
RTVSPost2010PropOp28
 70
     1
102
RTVSPost2010Prop29
280
     1
102
RTVSPost2010PropOp29
 70
     1
102
RTVSPost2010Prop30
280
     1
102
RTVSPost2010PropOp30
 70
     1
102
RTVSPost2010Prop31
280
     0
102
RTVSPost2010PropOp31
 70
     1
102
RTVSPost2010Prop32
280
     0
102
RTVSPost2010PropOp32
 70
     1
102
RTVSPost2010Prop33
280
     0
102
RTVSPost2010PropOp33
 70
     1
102
RTVSPost2010Prop34
280
     0
102
RTVSPost2010PropOp34
 70
     1
102
RTVSPost2010Prop35
280
     0
102
RTVSPost2010PropOp35
 70
     1
102
RTVSPost2010Prop36
280
     0
102
RTVSPost2010PropOp36
 70
     1
102
RTVSPost2010Prop37
 90
       50
102
RTVSPost2010PropOp37
 70
     1
102
RTVSPost2010Prop38
140
0.0
102
RTVSPost2010PropOp38
 70
     1
102
RTVSPost2010Prop39
140
1.0
102
RTVSPost2010PropOp39
 70
     1
102
RTVSPost2010Prop40
 90
        0
102
RTVSPost2010PropOp40
 70
     1
102
RTVSPost2010Prop41ColorIndex
 90
       18
102
RTVSPost2010Prop41ColorRGB
 90
        0
102
RTVSPost2010PropOp41
 70
     1
102
RTVSPost2010Prop42
 90
       50
102
RTVSPost2010PropOp42
 70
     1
102
RTVSPost2010Prop43
 90
        3
102
RTVSPost2010PropOp43
 70
     1
102
RTVSPost2010Prop44ColorIndex
 90
        5
102
RTVSPost2010Prop44ColorRGB
 90
      255
102
RTVSPost2010PropOp44
 70
     1
102
RTVSPost2010Prop45
280
     0
102
RTVSPost2010PropOp45
 70
     1
102
RTVSPost2010Prop46
 90
       50
102
RTVSPost2010PropOp46
 70
     1
102
RTVSPost2010Prop47
 90
       50
102
RTVSPost2010PropOp47
 70
     1
102
RTVSPost2010Prop48
 90
       50
102
RTVSPost2010PropOp48
 70
     1
102
RTVSPost2010Prop49
280
     0
102
RTVSPost2010PropOp49
 70
     1
102
RTVSPost2010Prop50
 90
       50
102
RTVSPost2010PropOp50
 70
     1
102
RTVSPost2010Prop51ColorIndex
 90
      256
102
RTVSPost2010Prop51ColorRGB
 90
-16777216
102
RTVSPost2010PropOp51
 70
     0
102
RTVSPost2010Prop52
140
1.0
102
RTVSPost2010PropOp52
 70
     0
102
RTVSPost2010Prop53
 90
        2
102
RTVSPost2010PropOp53
 70
     1
102
RTVSPost2010Prop54
  1
strokes_ogs.tif
102
RTVSPost2010PropOp54
 70
     1
102
RTVSPost2010Prop55
280
     0
102
RTVSPost2010PropOp55
 70
     1
102
RTVSPost2010Prop56
140
1.0
102
RTVSPost2010PropOp56
 70
     1
102
RTVSPost2010Prop57
140
1.0
102
RTVSPost2010PropOp57
 70
     1
102
RTVSPropertyOp0
 70
     1
102
RTVSPropertyOp1
 70
     1
102
RTVSPropertyOp2
 70
     1
102
RTVSPropertyOp3
 70
     1
102
RTVSPropertyOp4
 70
     1
102
RTVSPropertyOp5
 70
     1
102
RTVSPropertyOp6
 70
     1
102
RTVSPropertyOp7
 70
     1
102
RTVSPropertyOp8
 70
     1
102
RTVSPropertyOp9
 70
     1
102
RTVSPropertyOp10
 70
     1
102
RTVSPropertyOp11
 70
     1
102
RTVSPropertyOp12
 70
     1
102
RTVSPropertyOp13
 70
     1
102
RTVSPropertyOp14
 70
     1
102
RTVSPropertyOp15
 70
     1
102
RTVSPropertyOp16
 70
     1
102
RTVSPropertyOp17
 70
     1
102
RTVSPropertyOp18
 70
     1
102
RTVSPropertyOp19
 70
     1
102
RTVSPropertyOp20
 70
     1
102
RTVSPropertyOp21
 70
     1
102
RTVSPropertyOp22
 70
     1
102
RTVSPropertyOp23
 70
     1
102
RTVSPropertyOp24
 70
     1
102
RTVSPropertyOp25
 70
     1
102
RTVSPropertyOp26
 70
     1
102
RTVSPropertyOp27
 70
     1
102
RTVSPropertyOp28
 70
     1
102
RTVSPropertyOp29
 70
     1
102
RTVSPropertyOp30
 70
     1
102
RTVSPropertyOp31
 70
     1
102
RTVSPropertyOp32
 70
     1
102
RTVSPropertyOp33
 70
     1
102
RTVSPropertyOp34
 70
     1
102
RTVSPropertyOp35
 70
     1
102
RTVSPropertyOp36
 70
     1
102
RTVSPropertyOp37
 70
     1
102
RTVSPropertyOp38
 70
     1
102
RTVSPropertyOp39
 70
     1
102
RTVSPropertyOp40
 70
     1
102
RTVSPropertyOp41
 70
     1
102
RTVSPropertyOp42
 70
     1
102
RTVSPropertyOp43
 70
     1
102
RTVSPropertyOp44
 70
     1
102
RTVSPropertyOp45
 70
     1
102
RTVSPropertyOp46
 70
     1
102
RTVSPropertyOp47
 70
     1
102
RTVSPropertyOp48
 70
     1
102
RTVSPropertyOp49
 70
     1
102
RTVSPropertyOp50
 70
     1
102
RTVSPropertyOp51
 70
     0
102
RTVSPropertyOp52
 70
     0
102
RTVSPropertyOp53
 70
     1
102
RTVSPropertyOp54
 70
     1
102
RTVSPropertyOp55
 70
     1
102
RTVSPropertyOp56
 70
     1
102
RTVSPropertyOp57
 70
     1
102
RTVSPropertyOp58
 70
     1
102
RTVSPropertyOp59
 70
     1
102
RTVSPropertyOp60
 70
     1
102
RTVSPropertyOp61
 70
     1
102
RTVSPropertyOp62
 70
     1
  0
XRECORD
  5
26E6
102
{ACAD_REACTORS
330
26E5
102
}
330
26E5
100
AcDbXrecord
280
     1
102
RTVSPost2010Prop28
280
     0
102
RTVSPost2010PropOp28
 70
     1
102
RTVSPost2010Prop29
280
     1
102
RTVSPost2010PropOp29
 70
     1
102
RTVSPost2010Prop30
280
     1
102
RTVSPost2010PropOp30
 70
     1
102
RTVSPost2010Prop31
280
     0
102
RTVSPost2010PropOp31
 70
     1
102
RTVSPost2010Prop32
280
     0
102
RTVSPost2010PropOp32
 70
     1
102
RTVSPost2010Prop33
280
     0
102
RTVSPost2010PropOp33
 70
     1
102
RTVSPost2010Prop34
280
     0
102
RTVSPost2010PropOp34
 70
     1
102
RTVSPost2010Prop35
280
     0
102
RTVSPost2010PropOp35
 70
     1
102
RTVSPost2010Prop36
280
     0
102
RTVSPost2010PropOp36
 70
     1
102
RTVSPost2010Prop37
 90
       50
102
RTVSPost2010PropOp37
 70
     1
102
RTVSPost2010Prop38
140
0.0
102
RTVSPost2010PropOp38
 70
     1
102
RTVSPost2010Prop39
140
1.0
102
RTVSPost2010PropOp39
 70
     1
102
RTVSPost2010Prop40
 90
        0
102
RTVSPost2010PropOp40
 70
     1
102
RTVSPost2010Prop41ColorIndex
 90
       18
102
RTVSPost2010Prop41ColorRGB
 90
        0
102
RTVSPost2010PropOp41
 70
     1
102
RTVSPost2010Prop42
 90
       50
102
RTVSPost2010PropOp42
 70
     1
102
RTVSPost2010Prop43
 90
        3
102
RTVSPost2010PropOp43
 70
     1
102
RTVSPost2010Prop44ColorIndex
 90
        5
102
RTVSPost2010Prop44ColorRGB
 90
      255
102
RTVSPost2010PropOp44
 70
     1
102
RTVSPost2010Prop45
280
     0
102
RTVSPost2010PropOp45
 70
     1
102
RTVSPost2010Prop46
 90
       50
102
RTVSPost2010PropOp46
 70
     1
102
RTVSPost2010Prop47
 90
       50
102
RTVSPost2010PropOp47
 70
     1
102
RTVSPost2010Prop48
 90
       50
102
RTVSPost2010PropOp48
 70
     1
102
RTVSPost2010Prop49
280
     0
102
RTVSPost2010PropOp49
 70
     1
102
RTVSPost2010Prop50
 90
       50
102
RTVSPost2010PropOp50
 70
     1
102
RTVSPost2010Prop51ColorIndex
 90
      256
102
RTVSPost2010Prop51ColorRGB
 90
-16777216
102
RTVSPost2010PropOp51
 70
     0
102
RTVSPost2010Prop52
140
1.0
102
RTVSPost2010PropOp52
 70
     0
102
RTVSPost2010Prop53
 90
        2
102
RTVSPost2010PropOp53
 70
     1
102
RTVSPost2010Prop54
  1
strokes_ogs.tif
102
RTVSPost2010PropOp54
 70
     1
102
RTVSPost2010Prop55
280
     0
102
RTVSPost2010PropOp55
 70
     1
102
RTVSPost2010Prop56
140
1.0
102
RTVSPost2010PropOp56
 70
     1
102
RTVSPost2010Prop57
140
1.0
102
RTVSPost2010PropOp57
 70
     1
102
RTVSPropertyOp0
 70
     1
102
RTVSPropertyOp1
 70
     1
102
RTVSPropertyOp2
 70
     1
102
RTVSPropertyOp3
 70
     1
102
RTVSPropertyOp4
 70
     1
102
RTVSPropertyOp5
 70
     1
102
RTVSPropertyOp6
 70
     1
102
RTVSPropertyOp7
 70
     1
102
RTVSPropertyOp8
 70
     1
102
RTVSPropertyOp9
 70
     1
102
RTVSPropertyOp10
 70
     1
102
RTVSPropertyOp11
 70
     1
102
RTVSPropertyOp12
 70
     1
102
RTVSPropertyOp13
 70
     1
102
RTVSPropertyOp14
 70
     1
102
RTVSPropertyOp15
 70
     1
102
RTVSPropertyOp16
 70
     1
102
RTVSPropertyOp17
 70
     1
102
RTVSPropertyOp18
 70
     1
102
RTVSPropertyOp19
 70
     1
102
RTVSPropertyOp20
 70
     1
102
RTVSPropertyOp21
 70
     1
102
RTVSPropertyOp22
 70
     1
102
RTVSPropertyOp23
 70
     1
102
RTVSPropertyOp24
 70
     1
102
RTVSPropertyOp25
 70
     1
102
RTVSPropertyOp26
 70
     1
102
RTVSPropertyOp27
 70
     1
102
RTVSPropertyOp28
 70
     1
102
RTVSPropertyOp29
 70
     1
102
RTVSPropertyOp30
 70
     1
102
RTVSPropertyOp31
 70
     1
102
RTVSPropertyOp32
 70
     1
102
RTVSPropertyOp33
 70
     1
102
RTVSPropertyOp34
 70
     1
102
RTVSPropertyOp35
 70
     1
102
RTVSPropertyOp36
 70
     1
102
RTVSPropertyOp37
 70
     1
102
RTVSPropertyOp38
 70
     1
102
RTVSPropertyOp39
 70
     1
102
RTVSPropertyOp40
 70
     1
102
RTVSPropertyOp41
 70
     1
102
RTVSPropertyOp42
 70
     1
102
RTVSPropertyOp43
 70
     1
102
RTVSPropertyOp44
 70
     1
102
RTVSPropertyOp45
 70
     1
102
RTVSPropertyOp46
 70
     1
102
RTVSPropertyOp47
 70
     1
102
RTVSPropertyOp48
 70
     1
102
RTVSPropertyOp49
 70
     1
102
RTVSPropertyOp50
 70
     1
102
RTVSPropertyOp51
 70
     0
102
RTVSPropertyOp52
 70
     0
102
RTVSPropertyOp53
 70
     1
102
RTVSPropertyOp54
 70
     1
102
RTVSPropertyOp55
 70
     1
102
RTVSPropertyOp56
 70
     1
102
RTVSPropertyOp57
 70
     1
102
RTVSPropertyOp58
 70
     1
102
RTVSPropertyOp59
 70
     1
102
RTVSPropertyOp60
 70
     1
102
RTVSPropertyOp61
 70
     1
102
RTVSPropertyOp62
 70
     1
  0
XRECORD
  5
26FA
102
{ACAD_REACTORS
330
26F9
102
}
330
26F9
100
AcDbXrecord
280
     1
102
RTVSPost2010Prop28
280
     0
102
RTVSPost2010PropOp28
 70
     1
102
RTVSPost2010Prop29
280
     1
102
RTVSPost2010PropOp29
 70
     1
102
RTVSPost2010Prop30
280
     1
102
RTVSPost2010PropOp30
 70
     1
102
RTVSPost2010Prop31
280
     0
102
RTVSPost2010PropOp31
 70
     1
102
RTVSPost2010Prop32
280
     0
102
RTVSPost2010PropOp32
 70
     1
102
RTVSPost2010Prop33
280
     0
102
RTVSPost2010PropOp33
 70
     1
102
RTVSPost2010Prop34
280
     0
102
RTVSPost2010PropOp34
 70
     1
102
RTVSPost2010Prop35
280
     0
102
RTVSPost2010PropOp35
 70
     1
102
RTVSPost2010Prop36
280
     0
102
RTVSPost2010PropOp36
 70
     1
102
RTVSPost2010Prop37
 90
       50
102
RTVSPost2010PropOp37
 70
     1
102
RTVSPost2010Prop38
140
0.0
102
RTVSPost2010PropOp38
 70
     1
102
RTVSPost2010Prop39
140
1.0
102
RTVSPost2010PropOp39
 70
     1
102
RTVSPost2010Prop40
 90
        0
102
RTVSPost2010PropOp40
 70
     1
102
RTVSPost2010Prop41ColorIndex
 90
       18
102
RTVSPost2010Prop41ColorRGB
 90
        0
102
RTVSPost2010PropOp41
 70
     1
102
RTVSPost2010Prop42
 90
       50
102
RTVSPost2010PropOp42
 70
     1
102
RTVSPost2010Prop43
 90
        3
102
RTVSPost2010PropOp43
 70
     1
102
RTVSPost2010Prop44ColorIndex
 90
        5
102
RTVSPost2010Prop44ColorRGB
 90
      255
102
RTVSPost2010PropOp44
 70
     1
102
RTVSPost2010Prop45
280
     0
102
RTVSPost2010PropOp45
 70
     1
102
RTVSPost2010Prop46
 90
       50
102
RTVSPost2010PropOp46
 70
     1
102
RTVSPost2010Prop47
 90
       50
102
RTVSPost2010PropOp47
 70
     1
102
RTVSPost2010Prop48
 90
       50
102
RTVSPost2010PropOp48
 70
     1
102
RTVSPost2010Prop49
280
     0
102
RTVSPost2010PropOp49
 70
     1
102
RTVSPost2010Prop50
 90
       50
102
RTVSPost2010PropOp50
 70
     1
102
RTVSPost2010Prop51ColorIndex
 90
      256
102
RTVSPost2010Prop51ColorRGB
 90
-16777216
102
RTVSPost2010PropOp51
 70
     0
102
RTVSPost2010Prop52
140
1.0
102
RTVSPost2010PropOp52
 70
     0
102
RTVSPost2010Prop53
 90
        2
102
RTVSPost2010PropOp53
 70
     1
102
RTVSPost2010Prop54
  1
strokes_ogs.tif
102
RTVSPost2010PropOp54
 70
     1
102
RTVSPost2010Prop55
280
     0
102
RTVSPost2010PropOp55
 70
     1
102
RTVSPost2010Prop56
140
1.0
102
RTVSPost2010PropOp56
 70
     1
102
RTVSPost2010Prop57
140
1.0
102
RTVSPost2010PropOp57
 70
     1
102
RTVSPropertyOp0
 70
     0
102
RTVSPropertyOp1
 70
     0
102
RTVSPropertyOp2
 70
     0
102
RTVSPropertyOp3
 70
     0
102
RTVSPropertyOp4
 70
     0
102
RTVSPropertyOp5
 70
     0
102
RTVSPropertyOp6
 70
     0
102
RTVSPropertyOp7
 70
     0
102
RTVSPropertyOp8
 70
     0
102
RTVSPropertyOp9
 70
     0
102
RTVSPropertyOp10
 70
     0
102
RTVSPropertyOp11
 70
     0
102
RTVSPropertyOp12
 70
     0
102
RTVSPropertyOp13
 70
     0
102
RTVSPropertyOp14
 70
     2
102
RTVSPropertyOp15
 70
     0
102
RTVSPropertyOp16
 70
     0
102
RTVSPropertyOp17
 70
     0
102
RTVSPropertyOp18
 70
     0
102
RTVSPropertyOp19
 70
     0
102
RTVSPropertyOp20
 70
     0
102
RTVSPropertyOp21
 70
     0
102
RTVSPropertyOp22
 70
     0
102
RTVSPropertyOp23
 70
     0
102
RTVSPropertyOp24
 70
     0
102
RTVSPropertyOp25
 70
     0
102
RTVSPropertyOp26
 70
     0
102
RTVSPropertyOp27
 70
     0
102
RTVSPropertyOp28
 70
     1
102
RTVSPropertyOp29
 70
     1
102
RTVSPropertyOp30
 70
     1
102
RTVSPropertyOp31
 70
     1
102
RTVSPropertyOp32
 70
     1
102
RTVSPropertyOp33
 70
     1
102
RTVSPropertyOp34
 70
     1
102
RTVSPropertyOp35
 70
     1
102
RTVSPropertyOp36
 70
     1
102
RTVSPropertyOp37
 70
     1
102
RTVSPropertyOp38
 70
     1
102
RTVSPropertyOp39
 70
     1
102
RTVSPropertyOp40
 70
     1
102
RTVSPropertyOp41
 70
     1
102
RTVSPropertyOp42
 70
     1
102
RTVSPropertyOp43
 70
     1
102
RTVSPropertyOp44
 70
     1
102
RTVSPropertyOp45
 70
     1
102
RTVSPropertyOp46
 70
     1
102
RTVSPropertyOp47
 70
     1
102
RTVSPropertyOp48
 70
     1
102
RTVSPropertyOp49
 70
     1
102
RTVSPropertyOp50
 70
     1
102
RTVSPropertyOp51
 70
     0
102
RTVSPropertyOp52
 70
     0
102
RTVSPropertyOp53
 70
     1
102
RTVSPropertyOp54
 70
     1
102
RTVSPropertyOp55
 70
     1
102
RTVSPropertyOp56
 70
     1
102
RTVSPropertyOp57
 70
     1
102
RTVSPropertyOp58
 70
     1
102
RTVSPropertyOp59
 70
     1
102
RTVSPropertyOp60
 70
     1
102
RTVSPropertyOp61
 70
     1
102
RTVSPropertyOp62
 70
     1
  0
XRECORD
  5
26F2
102
{ACAD_REACTORS
330
26F1
102
}
330
26F1
100
AcDbXrecord
280
     1
102
RTVSPost2010Prop28
280
     0
102
RTVSPost2010PropOp28
 70
     1
102
RTVSPost2010Prop29
280
     1
102
RTVSPost2010PropOp29
 70
     1
102
RTVSPost2010Prop30
280
     1
102
RTVSPost2010PropOp30
 70
     1
102
RTVSPost2010Prop31
280
     0
102
RTVSPost2010PropOp31
 70
     1
102
RTVSPost2010Prop32
280
     0
102
RTVSPost2010PropOp32
 70
     1
102
RTVSPost2010Prop33
280
     0
102
RTVSPost2010PropOp33
 70
     1
102
RTVSPost2010Prop34
280
     0
102
RTVSPost2010PropOp34
 70
     1
102
RTVSPost2010Prop35
280
     0
102
RTVSPost2010PropOp35
 70
     1
102
RTVSPost2010Prop36
280
     0
102
RTVSPost2010PropOp36
 70
     1
102
RTVSPost2010Prop37
 90
       50
102
RTVSPost2010PropOp37
 70
     1
102
RTVSPost2010Prop38
140
0.0
102
RTVSPost2010PropOp38
 70
     1
102
RTVSPost2010Prop39
140
1.0
102
RTVSPost2010PropOp39
 70
     1
102
RTVSPost2010Prop40
 90
        0
102
RTVSPost2010PropOp40
 70
     1
102
RTVSPost2010Prop41ColorIndex
 90
       18
102
RTVSPost2010Prop41ColorRGB
 90
        0
102
RTVSPost2010PropOp41
 70
     1
102
RTVSPost2010Prop42
 90
       50
102
RTVSPost2010PropOp42
 70
     1
102
RTVSPost2010Prop43
 90
        3
102
RTVSPost2010PropOp43
 70
     1
102
RTVSPost2010Prop44ColorIndex
 90
        5
102
RTVSPost2010Prop44ColorRGB
 90
      255
102
RTVSPost2010PropOp44
 70
     1
102
RTVSPost2010Prop45
280
     0
102
RTVSPost2010PropOp45
 70
     1
102
RTVSPost2010Prop46
 90
       50
102
RTVSPost2010PropOp46
 70
     1
102
RTVSPost2010Prop47
 90
       50
102
RTVSPost2010PropOp47
 70
     1
102
RTVSPost2010Prop48
 90
       50
102
RTVSPost2010PropOp48
 70
     1
102
RTVSPost2010Prop49
280
     0
102
RTVSPost2010PropOp49
 70
     1
102
RTVSPost2010Prop50
 90
       50
102
RTVSPost2010PropOp50
 70
     1
102
RTVSPost2010Prop51ColorIndex
 90
      256
102
RTVSPost2010Prop51ColorRGB
 90
-16777216
102
RTVSPost2010PropOp51
 70
     0
102
RTVSPost2010Prop52
140
1.0
102
RTVSPost2010PropOp52
 70
     0
102
RTVSPost2010Prop53
 90
        2
102
RTVSPost2010PropOp53
 70
     1
102
RTVSPost2010Prop54
  1
strokes_ogs.tif
102
RTVSPost2010PropOp54
 70
     1
102
RTVSPost2010Prop55
280
     0
102
RTVSPost2010PropOp55
 70
     1
102
RTVSPost2010Prop56
140
1.0
102
RTVSPost2010PropOp56
 70
     1
102
RTVSPost2010Prop57
140
1.0
102
RTVSPost2010PropOp57
 70
     1
102
RTVSPropertyOp0
 70
     1
102
RTVSPropertyOp1
 70
     1
102
RTVSPropertyOp2
 70
     1
102
RTVSPropertyOp3
 70
     1
102
RTVSPropertyOp4
 70
     1
102
RTVSPropertyOp5
 70
     1
102
RTVSPropertyOp6
 70
     1
102
RTVSPropertyOp7
 70
     1
102
RTVSPropertyOp8
 70
     1
102
RTVSPropertyOp9
 70
     1
102
RTVSPropertyOp10
 70
     1
102
RTVSPropertyOp11
 70
     1
102
RTVSPropertyOp12
 70
     1
102
RTVSPropertyOp13
 70
     1
102
RTVSPropertyOp14
 70
     1
102
RTVSPropertyOp15
 70
     1
102
RTVSPropertyOp16
 70
     1
102
RTVSPropertyOp17
 70
     1
102
RTVSPropertyOp18
 70
     1
102
RTVSPropertyOp19
 70
     1
102
RTVSPropertyOp20
 70
     1
102
RTVSPropertyOp21
 70
     1
102
RTVSPropertyOp22
 70
     1
102
RTVSPropertyOp23
 70
     1
102
RTVSPropertyOp24
 70
     1
102
RTVSPropertyOp25
 70
     1
102
RTVSPropertyOp26
 70
     1
102
RTVSPropertyOp27
 70
     1
102
RTVSPropertyOp28
 70
     1
102
RTVSPropertyOp29
 70
     1
102
RTVSPropertyOp30
 70
     1
102
RTVSPropertyOp31
 70
     1
102
RTVSPropertyOp32
 70
     1
102
RTVSPropertyOp33
 70
     1
102
RTVSPropertyOp34
 70
     1
102
RTVSPropertyOp35
 70
     1
102
RTVSPropertyOp36
 70
     1
102
RTVSPropertyOp37
 70
     1
102
RTVSPropertyOp38
 70
     1
102
RTVSPropertyOp39
 70
     1
102
RTVSPropertyOp40
 70
     1
102
RTVSPropertyOp41
 70
     1
102
RTVSPropertyOp42
 70
     1
102
RTVSPropertyOp43
 70
     1
102
RTVSPropertyOp44
 70
     1
102
RTVSPropertyOp45
 70
     1
102
RTVSPropertyOp46
 70
     1
102
RTVSPropertyOp47
 70
     1
102
RTVSPropertyOp48
 70
     1
102
RTVSPropertyOp49
 70
     1
102
RTVSPropertyOp50
 70
     1
102
RTVSPropertyOp51
 70
     0
102
RTVSPropertyOp52
 70
     0
102
RTVSPropertyOp53
 70
     1
102
RTVSPropertyOp54
 70
     1
102
RTVSPropertyOp55
 70
     1
102
RTVSPropertyOp56
 70
     1
102
RTVSPropertyOp57
 70
     1
102
RTVSPropertyOp58
 70
     1
102
RTVSPropertyOp59
 70
     1
102
RTVSPropertyOp60
 70
     1
102
RTVSPropertyOp61
 70
     1
102
RTVSPropertyOp62
 70
     1
  0
XRECORD
  5
26FC
102
{ACAD_REACTORS
330
26FB
102
}
330
26FB
100
AcDbXrecord
280
     1
102
RTVSPost2010Prop28
280
     0
102
RTVSPost2010PropOp28
 70
     1
102
RTVSPost2010Prop29
280
     1
102
RTVSPost2010PropOp29
 70
     1
102
RTVSPost2010Prop30
280
     1
102
RTVSPost2010PropOp30
 70
     1
102
RTVSPost2010Prop31
280
     0
102
RTVSPost2010PropOp31
 70
     1
102
RTVSPost2010Prop32
280
     0
102
RTVSPost2010PropOp32
 70
     1
102
RTVSPost2010Prop33
280
     0
102
RTVSPost2010PropOp33
 70
     1
102
RTVSPost2010Prop34
280
     0
102
RTVSPost2010PropOp34
 70
     1
102
RTVSPost2010Prop35
280
     0
102
RTVSPost2010PropOp35
 70
     1
102
RTVSPost2010Prop36
280
     0
102
RTVSPost2010PropOp36
 70
     1
102
RTVSPost2010Prop37
 90
       50
102
RTVSPost2010PropOp37
 70
     1
102
RTVSPost2010Prop38
140
0.0
102
RTVSPost2010PropOp38
 70
     1
102
RTVSPost2010Prop39
140
1.0
102
RTVSPost2010PropOp39
 70
     1
102
RTVSPost2010Prop40
 90
        0
102
RTVSPost2010PropOp40
 70
     1
102
RTVSPost2010Prop41ColorIndex
 90
       18
102
RTVSPost2010Prop41ColorRGB
 90
        0
102
RTVSPost2010PropOp41
 70
     1
102
RTVSPost2010Prop42
 90
       50
102
RTVSPost2010PropOp42
 70
     1
102
RTVSPost2010Prop43
 90
        3
102
RTVSPost2010PropOp43
 70
     1
102
RTVSPost2010Prop44ColorIndex
 90
        5
102
RTVSPost2010Prop44ColorRGB
 90
      255
102
RTVSPost2010PropOp44
 70
     1
102
RTVSPost2010Prop45
280
     0
102
RTVSPost2010PropOp45
 70
     1
102
RTVSPost2010Prop46
 90
       50
102
RTVSPost2010PropOp46
 70
     1
102
RTVSPost2010Prop47
 90
       50
102
RTVSPost2010PropOp47
 70
     1
102
RTVSPost2010Prop48
 90
       50
102
RTVSPost2010PropOp48
 70
     1
102
RTVSPost2010Prop49
280
     0
102
RTVSPost2010PropOp49
 70
     1
102
RTVSPost2010Prop50
 90
       50
102
RTVSPost2010PropOp50
 70
     1
102
RTVSPost2010Prop51ColorIndex
 90
      256
102
RTVSPost2010Prop51ColorRGB
 90
-16777216
102
RTVSPost2010PropOp51
 70
     0
102
RTVSPost2010Prop52
140
1.0
102
RTVSPost2010PropOp52
 70
     0
102
RTVSPost2010Prop53
 90
        2
102
RTVSPost2010PropOp53
 70
     1
102
RTVSPost2010Prop54
  1
strokes_ogs.tif
102
RTVSPost2010PropOp54
 70
     1
102
RTVSPost2010Prop55
280
     0
102
RTVSPost2010PropOp55
 70
     1
102
RTVSPost2010Prop56
140
1.0
102
RTVSPost2010PropOp56
 70
     1
102
RTVSPost2010Prop57
140
1.0
102
RTVSPost2010PropOp57
 70
     1
102
RTVSPropertyOp0
 70
     0
102
RTVSPropertyOp1
 70
     0
102
RTVSPropertyOp2
 70
     0
102
RTVSPropertyOp3
 70
     0
102
RTVSPropertyOp4
 70
     0
102
RTVSPropertyOp5
 70
     0
102
RTVSPropertyOp6
 70
     0
102
RTVSPropertyOp7
 70
     0
102
RTVSPropertyOp8
 70
     0
102
RTVSPropertyOp9
 70
     0
102
RTVSPropertyOp10
 70
     0
102
RTVSPropertyOp11
 70
     0
102
RTVSPropertyOp12
 70
     0
102
RTVSPropertyOp13
 70
     0
102
RTVSPropertyOp14
 70
     2
102
RTVSPropertyOp15
 70
     0
102
RTVSPropertyOp16
 70
     0
102
RTVSPropertyOp17
 70
     0
102
RTVSPropertyOp18
 70
     0
102
RTVSPropertyOp19
 70
     0
102
RTVSPropertyOp20
 70
     0
102
RTVSPropertyOp21
 70
     0
102
RTVSPropertyOp22
 70
     0
102
RTVSPropertyOp23
 70
     0
102
RTVSPropertyOp24
 70
     0
102
RTVSPropertyOp25
 70
     0
102
RTVSPropertyOp26
 70
     0
102
RTVSPropertyOp27
 70
     0
102
RTVSPropertyOp28
 70
     1
102
RTVSPropertyOp29
 70
     1
102
RTVSPropertyOp30
 70
     1
102
RTVSPropertyOp31
 70
     1
102
RTVSPropertyOp32
 70
     1
102
RTVSPropertyOp33
 70
     1
102
RTVSPropertyOp34
 70
     1
102
RTVSPropertyOp35
 70
     1
102
RTVSPropertyOp36
 70
     1
102
RTVSPropertyOp37
 70
     1
102
RTVSPropertyOp38
 70
     1
102
RTVSPropertyOp39
 70
     1
102
RTVSPropertyOp40
 70
     1
102
RTVSPropertyOp41
 70
     1
102
RTVSPropertyOp42
 70
     1
102
RTVSPropertyOp43
 70
     1
102
RTVSPropertyOp44
 70
     1
102
RTVSPropertyOp45
 70
     1
102
RTVSPropertyOp46
 70
     1
102
RTVSPropertyOp47
 70
     1
102
RTVSPropertyOp48
 70
     1
102
RTVSPropertyOp49
 70
     1
102
RTVSPropertyOp50
 70
     1
102
RTVSPropertyOp51
 70
     0
102
RTVSPropertyOp52
 70
     0
102
RTVSPropertyOp53
 70
     1
102
RTVSPropertyOp54
 70
     1
102
RTVSPropertyOp55
 70
     1
102
RTVSPropertyOp56
 70
     1
102
RTVSPropertyOp57
 70
     1
102
RTVSPropertyOp58
 70
     1
102
RTVSPropertyOp59
 70
     1
102
RTVSPropertyOp60
 70
     1
102
RTVSPropertyOp61
 70
     1
102
RTVSPropertyOp62
 70
     1
  0
XRECORD
  5
26EA
102
{ACAD_REACTORS
330
26E9
102
}
330
26E9
100
AcDbXrecord
280
     1
102
RTVSPost2010Prop28
280
     0
102
RTVSPost2010PropOp28
 70
     1
102
RTVSPost2010Prop29
280
     1
102
RTVSPost2010PropOp29
 70
     1
102
RTVSPost2010Prop30
280
     1
102
RTVSPost2010PropOp30
 70
     1
102
RTVSPost2010Prop31
280
     0
102
RTVSPost2010PropOp31
 70
     1
102
RTVSPost2010Prop32
280
     0
102
RTVSPost2010PropOp32
 70
     1
102
RTVSPost2010Prop33
280
     0
102
RTVSPost2010PropOp33
 70
     1
102
RTVSPost2010Prop34
280
     0
102
RTVSPost2010PropOp34
 70
     1
102
RTVSPost2010Prop35
280
     0
102
RTVSPost2010PropOp35
 70
     1
102
RTVSPost2010Prop36
280
     0
102
RTVSPost2010PropOp36
 70
     1
102
RTVSPost2010Prop37
 90
       50
102
RTVSPost2010PropOp37
 70
     1
102
RTVSPost2010Prop38
140
0.0
102
RTVSPost2010PropOp38
 70
     1
102
RTVSPost2010Prop39
140
1.0
102
RTVSPost2010PropOp39
 70
     1
102
RTVSPost2010Prop40
 90
        0
102
RTVSPost2010PropOp40
 70
     1
102
RTVSPost2010Prop41ColorIndex
 90
       18
102
RTVSPost2010Prop41ColorRGB
 90
        0
102
RTVSPost2010PropOp41
 70
     1
102
RTVSPost2010Prop42
 90
       50
102
RTVSPost2010PropOp42
 70
     1
102
RTVSPost2010Prop43
 90
        3
102
RTVSPost2010PropOp43
 70
     1
102
RTVSPost2010Prop44ColorIndex
 90
        5
102
RTVSPost2010Prop44ColorRGB
 90
      255
102
RTVSPost2010PropOp44
 70
     1
102
RTVSPost2010Prop45
280
     0
102
RTVSPost2010PropOp45
 70
     1
102
RTVSPost2010Prop46
 90
       50
102
RTVSPost2010PropOp46
 70
     1
102
RTVSPost2010Prop47
 90
       50
102
RTVSPost2010PropOp47
 70
     1
102
RTVSPost2010Prop48
 90
       50
102
RTVSPost2010PropOp48
 70
     1
102
RTVSPost2010Prop49
280
     0
102
RTVSPost2010PropOp49
 70
     1
102
RTVSPost2010Prop50
 90
       50
102
RTVSPost2010PropOp50
 70
     1
102
RTVSPost2010Prop51ColorIndex
 90
      256
102
RTVSPost2010Prop51ColorRGB
 90
-16777216
102
RTVSPost2010PropOp51
 70
     0
102
RTVSPost2010Prop52
140
1.0
102
RTVSPost2010PropOp52
 70
     0
102
RTVSPost2010Prop53
 90
        2
102
RTVSPost2010PropOp53
 70
     1
102
RTVSPost2010Prop54
  1
strokes_ogs.tif
102
RTVSPost2010PropOp54
 70
     1
102
RTVSPost2010Prop55
280
     0
102
RTVSPost2010PropOp55
 70
     1
102
RTVSPost2010Prop56
140
1.0
102
RTVSPost2010PropOp56
 70
     1
102
RTVSPost2010Prop57
140
1.0
102
RTVSPost2010PropOp57
 70
     1
102
RTVSPropertyOp0
 70
     1
102
RTVSPropertyOp1
 70
     1
102
RTVSPropertyOp2
 70
     1
102
RTVSPropertyOp3
 70
     1
102
RTVSPropertyOp4
 70
     1
102
RTVSPropertyOp5
 70
     1
102
RTVSPropertyOp6
 70
     1
102
RTVSPropertyOp7
 70
     1
102
RTVSPropertyOp8
 70
     1
102
RTVSPropertyOp9
 70
     1
102
RTVSPropertyOp10
 70
     1
102
RTVSPropertyOp11
 70
     1
102
RTVSPropertyOp12
 70
     1
102
RTVSPropertyOp13
 70
     1
102
RTVSPropertyOp14
 70
     1
102
RTVSPropertyOp15
 70
     1
102
RTVSPropertyOp16
 70
     1
102
RTVSPropertyOp17
 70
     1
102
RTVSPropertyOp18
 70
     1
102
RTVSPropertyOp19
 70
     1
102
RTVSPropertyOp20
 70
     1
102
RTVSPropertyOp21
 70
     1
102
RTVSPropertyOp22
 70
     1
102
RTVSPropertyOp23
 70
     1
102
RTVSPropertyOp24
 70
     1
102
RTVSPropertyOp25
 70
     1
102
RTVSPropertyOp26
 70
     1
102
RTVSPropertyOp27
 70
     1
102
RTVSPropertyOp28
 70
     1
102
RTVSPropertyOp29
 70
     1
102
RTVSPropertyOp30
 70
     1
102
RTVSPropertyOp31
 70
     1
102
RTVSPropertyOp32
 70
     1
102
RTVSPropertyOp33
 70
     1
102
RTVSPropertyOp34
 70
     1
102
RTVSPropertyOp35
 70
     1
102
RTVSPropertyOp36
 70
     1
102
RTVSPropertyOp37
 70
     1
102
RTVSPropertyOp38
 70
     1
102
RTVSPropertyOp39
 70
     1
102
RTVSPropertyOp40
 70
     1
102
RTVSPropertyOp41
 70
     1
102
RTVSPropertyOp42
 70
     1
102
RTVSPropertyOp43
 70
     1
102
RTVSPropertyOp44
 70
     1
102
RTVSPropertyOp45
 70
     1
102
RTVSPropertyOp46
 70
     1
102
RTVSPropertyOp47
 70
     1
102
RTVSPropertyOp48
 70
     1
102
RTVSPropertyOp49
 70
     1
102
RTVSPropertyOp50
 70
     1
102
RTVSPropertyOp51
 70
     0
102
RTVSPropertyOp52
 70
     0
102
RTVSPropertyOp53
 70
     1
102
RTVSPropertyOp54
 70
     1
102
RTVSPropertyOp55
 70
     1
102
RTVSPropertyOp56
 70
     1
102
RTVSPropertyOp57
 70
     1
102
RTVSPropertyOp58
 70
     1
102
RTVSPropertyOp59
 70
     1
102
RTVSPropertyOp60
 70
     1
102
RTVSPropertyOp61
 70
     1
102
RTVSPropertyOp62
 70
     1
  0
XRECORD
  5
2708
102
{ACAD_REACTORS
330
2707
102
}
330
2707
100
AcDbXrecord
280
     1
102
RTVSPost2010Prop28
280
     0
102
RTVSPost2010PropOp28
 70
     1
102
RTVSPost2010Prop29
280
     1
102
RTVSPost2010PropOp29
 70
     1
102
RTVSPost2010Prop30
280
     1
102
RTVSPost2010PropOp30
 70
     1
102
RTVSPost2010Prop31
280
     0
102
RTVSPost2010PropOp31
 70
     1
102
RTVSPost2010Prop32
280
     0
102
RTVSPost2010PropOp32
 70
     1
102
RTVSPost2010Prop33
280
     0
102
RTVSPost2010PropOp33
 70
     1
102
RTVSPost2010Prop34
280
     0
102
RTVSPost2010PropOp34
 70
     1
102
RTVSPost2010Prop35
280
     0
102
RTVSPost2010PropOp35
 70
     1
102
RTVSPost2010Prop36
280
     0
102
RTVSPost2010PropOp36
 70
     1
102
RTVSPost2010Prop37
 90
       50
102
RTVSPost2010PropOp37
 70
     1
102
RTVSPost2010Prop38
140
0.0
102
RTVSPost2010PropOp38
 70
     1
102
RTVSPost2010Prop39
140
1.0
102
RTVSPost2010PropOp39
 70
     1
102
RTVSPost2010Prop40
 90
        0
102
RTVSPost2010PropOp40
 70
     1
102
RTVSPost2010Prop41ColorIndex
 90
       18
102
RTVSPost2010Prop41ColorRGB
 90
        0
102
RTVSPost2010PropOp41
 70
     1
102
RTVSPost2010Prop42
 90
       50
102
RTVSPost2010PropOp42
 70
     1
102
RTVSPost2010Prop43
 90
        3
102
RTVSPost2010PropOp43
 70
     1
102
RTVSPost2010Prop44ColorIndex
 90
        5
102
RTVSPost2010Prop44ColorRGB
 90
      255
102
RTVSPost2010PropOp44
 70
     1
102
RTVSPost2010Prop45
280
     0
102
RTVSPost2010PropOp45
 70
     1
102
RTVSPost2010Prop46
 90
       50
102
RTVSPost2010PropOp46
 70
     1
102
RTVSPost2010Prop47
 90
       50
102
RTVSPost2010PropOp47
 70
     1
102
RTVSPost2010Prop48
 90
       50
102
RTVSPost2010PropOp48
 70
     1
102
RTVSPost2010Prop49
280
     0
102
RTVSPost2010PropOp49
 70
     1
102
RTVSPost2010Prop50
 90
       50
102
RTVSPost2010PropOp50
 70
     1
102
RTVSPost2010Prop51ColorIndex
 90
      256
102
RTVSPost2010Prop51ColorRGB
 90
-16777216
102
RTVSPost2010PropOp51
 70
     0
102
RTVSPost2010Prop52
140
1.0
102
RTVSPost2010PropOp52
 70
     0
102
RTVSPost2010Prop53
 90
        2
102
RTVSPost2010PropOp53
 70
     1
102
RTVSPost2010Prop54
  1
strokes_ogs.tif
102
RTVSPost2010PropOp54
 70
     1
102
RTVSPost2010Prop55
280
     0
102
RTVSPost2010PropOp55
 70
     1
102
RTVSPost2010Prop56
140
1.0
102
RTVSPost2010PropOp56
 70
     1
102
RTVSPost2010Prop57
140
1.0
102
RTVSPost2010PropOp57
 70
     1
102
RTVSPropertyOp0
 70
     1
102
RTVSPropertyOp1
 70
     1
102
RTVSPropertyOp2
 70
     1
102
RTVSPropertyOp3
 70
     1
102
RTVSPropertyOp4
 70
     1
102
RTVSPropertyOp5
 70
     1
102
RTVSPropertyOp6
 70
     1
102
RTVSPropertyOp7
 70
     1
102
RTVSPropertyOp8
 70
     1
102
RTVSPropertyOp9
 70
     1
102
RTVSPropertyOp10
 70
     1
102
RTVSPropertyOp11
 70
     1
102
RTVSPropertyOp12
 70
     1
102
RTVSPropertyOp13
 70
     1
102
RTVSPropertyOp14
 70
     1
102
RTVSPropertyOp15
 70
     1
102
RTVSPropertyOp16
 70
     1
102
RTVSPropertyOp17
 70
     1
102
RTVSPropertyOp18
 70
     1
102
RTVSPropertyOp19
 70
     1
102
RTVSPropertyOp20
 70
     1
102
RTVSPropertyOp21
 70
     1
102
RTVSPropertyOp22
 70
     1
102
RTVSPropertyOp23
 70
     1
102
RTVSPropertyOp24
 70
     1
102
RTVSPropertyOp25
 70
     1
102
RTVSPropertyOp26
 70
     1
102
RTVSPropertyOp27
 70
     1
102
RTVSPropertyOp28
 70
     1
102
RTVSPropertyOp29
 70
     1
102
RTVSPropertyOp30
 70
     1
102
RTVSPropertyOp31
 70
     1
102
RTVSPropertyOp32
 70
     1
102
RTVSPropertyOp33
 70
     1
102
RTVSPropertyOp34
 70
     1
102
RTVSPropertyOp35
 70
     1
102
RTVSPropertyOp36
 70
     1
102
RTVSPropertyOp37
 70
     1
102
RTVSPropertyOp38
 70
     1
102
RTVSPropertyOp39
 70
     1
102
RTVSPropertyOp40
 70
     1
102
RTVSPropertyOp41
 70
     1
102
RTVSPropertyOp42
 70
     1
102
RTVSPropertyOp43
 70
     1
102
RTVSPropertyOp44
 70
     1
102
RTVSPropertyOp45
 70
     1
102
RTVSPropertyOp46
 70
     1
102
RTVSPropertyOp47
 70
     1
102
RTVSPropertyOp48
 70
     1
102
RTVSPropertyOp49
 70
     1
102
RTVSPropertyOp50
 70
     1
102
RTVSPropertyOp51
 70
     0
102
RTVSPropertyOp52
 70
     0
102
RTVSPropertyOp53
 70
     1
102
RTVSPropertyOp54
 70
     1
102
RTVSPropertyOp55
 70
     1
102
RTVSPropertyOp56
 70
     1
102
RTVSPropertyOp57
 70
     1
102
RTVSPropertyOp58
 70
     1
102
RTVSPropertyOp59
 70
     1
102
RTVSPropertyOp60
 70
     1
102
RTVSPropertyOp61
 70
     1
102
RTVSPropertyOp62
 70
     1
  0
XRECORD
  5
2706
102
{ACAD_REACTORS
330
2705
102
}
330
2705
100
AcDbXrecord
280
     1
102
RTVSPost2010Prop28
280
     0
102
RTVSPost2010PropOp28
 70
     1
102
RTVSPost2010Prop29
280
     1
102
RTVSPost2010PropOp29
 70
     1
102
RTVSPost2010Prop30
280
     1
102
RTVSPost2010PropOp30
 70
     1
102
RTVSPost2010Prop31
280
     0
102
RTVSPost2010PropOp31
 70
     1
102
RTVSPost2010Prop32
280
     0
102
RTVSPost2010PropOp32
 70
     1
102
RTVSPost2010Prop33
280
     0
102
RTVSPost2010PropOp33
 70
     1
102
RTVSPost2010Prop34
280
     0
102
RTVSPost2010PropOp34
 70
     1
102
RTVSPost2010Prop35
280
     0
102
RTVSPost2010PropOp35
 70
     1
102
RTVSPost2010Prop36
280
     0
102
RTVSPost2010PropOp36
 70
     1
102
RTVSPost2010Prop37
 90
       50
102
RTVSPost2010PropOp37
 70
     1
102
RTVSPost2010Prop38
140
0.0
102
RTVSPost2010PropOp38
 70
     1
102
RTVSPost2010Prop39
140
1.0
102
RTVSPost2010PropOp39
 70
     1
102
RTVSPost2010Prop40
 90
        0
102
RTVSPost2010PropOp40
 70
     1
102
RTVSPost2010Prop41ColorIndex
 90
       18
102
RTVSPost2010Prop41ColorRGB
 90
        0
102
RTVSPost2010PropOp41
 70
     1
102
RTVSPost2010Prop42
 90
       50
102
RTVSPost2010PropOp42
 70
     1
102
RTVSPost2010Prop43
 90
        3
102
RTVSPost2010PropOp43
 70
     1
102
RTVSPost2010Prop44ColorIndex
 90
        5
102
RTVSPost2010Prop44ColorRGB
 90
      255
102
RTVSPost2010PropOp44
 70
     1
102
RTVSPost2010Prop45
280
     0
102
RTVSPost2010PropOp45
 70
     1
102
RTVSPost2010Prop46
 90
       50
102
RTVSPost2010PropOp46
 70
     1
102
RTVSPost2010Prop47
 90
       50
102
RTVSPost2010PropOp47
 70
     1
102
RTVSPost2010Prop48
 90
       50
102
RTVSPost2010PropOp48
 70
     1
102
RTVSPost2010Prop49
280
     0
102
RTVSPost2010PropOp49
 70
     1
102
RTVSPost2010Prop50
 90
       50
102
RTVSPost2010PropOp50
 70
     1
102
RTVSPost2010Prop51ColorIndex
 90
      256
102
RTVSPost2010Prop51ColorRGB
 90
-16777216
102
RTVSPost2010PropOp51
 70
     0
102
RTVSPost2010Prop52
140
1.0
102
RTVSPost2010PropOp52
 70
     0
102
RTVSPost2010Prop53
 90
        2
102
RTVSPost2010PropOp53
 70
     1
102
RTVSPost2010Prop54
  1
strokes_ogs.tif
102
RTVSPost2010PropOp54
 70
     1
102
RTVSPost2010Prop55
280
     0
102
RTVSPost2010PropOp55
 70
     1
102
RTVSPost2010Prop56
140
1.0
102
RTVSPost2010PropOp56
 70
     1
102
RTVSPost2010Prop57
140
1.0
102
RTVSPost2010PropOp57
 70
     1
102
RTVSPropertyOp0
 70
     1
102
RTVSPropertyOp1
 70
     1
102
RTVSPropertyOp2
 70
     1
102
RTVSPropertyOp3
 70
     1
102
RTVSPropertyOp4
 70
     1
102
RTVSPropertyOp5
 70
     1
102
RTVSPropertyOp6
 70
     1
102
RTVSPropertyOp7
 70
     1
102
RTVSPropertyOp8
 70
     1
102
RTVSPropertyOp9
 70
     1
102
RTVSPropertyOp10
 70
     1
102
RTVSPropertyOp11
 70
     1
102
RTVSPropertyOp12
 70
     1
102
RTVSPropertyOp13
 70
     1
102
RTVSPropertyOp14
 70
     1
102
RTVSPropertyOp15
 70
     1
102
RTVSPropertyOp16
 70
     1
102
RTVSPropertyOp17
 70
     1
102
RTVSPropertyOp18
 70
     1
102
RTVSPropertyOp19
 70
     1
102
RTVSPropertyOp20
 70
     1
102
RTVSPropertyOp21
 70
     1
102
RTVSPropertyOp22
 70
     1
102
RTVSPropertyOp23
 70
     1
102
RTVSPropertyOp24
 70
     1
102
RTVSPropertyOp25
 70
     1
102
RTVSPropertyOp26
 70
     1
102
RTVSPropertyOp27
 70
     1
102
RTVSPropertyOp28
 70
     1
102
RTVSPropertyOp29
 70
     1
102
RTVSPropertyOp30
 70
     1
102
RTVSPropertyOp31
 70
     1
102
RTVSPropertyOp32
 70
     1
102
RTVSPropertyOp33
 70
     1
102
RTVSPropertyOp34
 70
     1
102
RTVSPropertyOp35
 70
     1
102
RTVSPropertyOp36
 70
     1
102
RTVSPropertyOp37
 70
     1
102
RTVSPropertyOp38
 70
     1
102
RTVSPropertyOp39
 70
     1
102
RTVSPropertyOp40
 70
     1
102
RTVSPropertyOp41
 70
     1
102
RTVSPropertyOp42
 70
     1
102
RTVSPropertyOp43
 70
     1
102
RTVSPropertyOp44
 70
     1
102
RTVSPropertyOp45
 70
     1
102
RTVSPropertyOp46
 70
     1
102
RTVSPropertyOp47
 70
     1
102
RTVSPropertyOp48
 70
     1
102
RTVSPropertyOp49
 70
     1
102
RTVSPropertyOp50
 70
     1
102
RTVSPropertyOp51
 70
     0
102
RTVSPropertyOp52
 70
     0
102
RTVSPropertyOp53
 70
     1
102
RTVSPropertyOp54
 70
     1
102
RTVSPropertyOp55
 70
     1
102
RTVSPropertyOp56
 70
     1
102
RTVSPropertyOp57
 70
     1
102
RTVSPropertyOp58
 70
     1
102
RTVSPropertyOp59
 70
     1
102
RTVSPropertyOp60
 70
     1
102
RTVSPropertyOp61
 70
     1
102
RTVSPropertyOp62
 70
     1
  0
XRECORD
  5
2700
102
{ACAD_REACTORS
330
26FF
102
}
330
26FF
100
AcDbXrecord
280
     1
102
RTVSPost2010Prop28
280
     0
102
RTVSPost2010PropOp28
 70
     1
102
RTVSPost2010Prop29
280
     1
102
RTVSPost2010PropOp29
 70
     1
102
RTVSPost2010Prop30
280
     1
102
RTVSPost2010PropOp30
 70
     1
102
RTVSPost2010Prop31
280
     0
102
RTVSPost2010PropOp31
 70
     1
102
RTVSPost2010Prop32
280
     0
102
RTVSPost2010PropOp32
 70
     1
102
RTVSPost2010Prop33
280
     0
102
RTVSPost2010PropOp33
 70
     1
102
RTVSPost2010Prop34
280
     0
102
RTVSPost2010PropOp34
 70
     1
102
RTVSPost2010Prop35
280
     0
102
RTVSPost2010PropOp35
 70
     1
102
RTVSPost2010Prop36
280
     0
102
RTVSPost2010PropOp36
 70
     1
102
RTVSPost2010Prop37
 90
       50
102
RTVSPost2010PropOp37
 70
     1
102
RTVSPost2010Prop38
140
0.0
102
RTVSPost2010PropOp38
 70
     1
102
RTVSPost2010Prop39
140
1.0
102
RTVSPost2010PropOp39
 70
     1
102
RTVSPost2010Prop40
 90
        0
102
RTVSPost2010PropOp40
 70
     1
102
RTVSPost2010Prop41ColorIndex
 90
       18
102
RTVSPost2010Prop41ColorRGB
 90
        0
102
RTVSPost2010PropOp41
 70
     1
102
RTVSPost2010Prop42
 90
       50
102
RTVSPost2010PropOp42
 70
     1
102
RTVSPost2010Prop43
 90
        3
102
RTVSPost2010PropOp43
 70
     1
102
RTVSPost2010Prop44ColorIndex
 90
        5
102
RTVSPost2010Prop44ColorRGB
 90
      255
102
RTVSPost2010PropOp44
 70
     1
102
RTVSPost2010Prop45
280
     0
102
RTVSPost2010PropOp45
 70
     1
102
RTVSPost2010Prop46
 90
       50
102
RTVSPost2010PropOp46
 70
     1
102
RTVSPost2010Prop47
 90
       50
102
RTVSPost2010PropOp47
 70
     1
102
RTVSPost2010Prop48
 90
       50
102
RTVSPost2010PropOp48
 70
     1
102
RTVSPost2010Prop49
280
     0
102
RTVSPost2010PropOp49
 70
     1
102
RTVSPost2010Prop50
 90
       50
102
RTVSPost2010PropOp50
 70
     1
102
RTVSPost2010Prop51ColorIndex
 90
      256
102
RTVSPost2010Prop51ColorRGB
 90
-16777216
102
RTVSPost2010PropOp51
 70
     0
102
RTVSPost2010Prop52
140
1.0
102
RTVSPost2010PropOp52
 70
     0
102
RTVSPost2010Prop53
 90
        2
102
RTVSPost2010PropOp53
 70
     1
102
RTVSPost2010Prop54
  1
strokes_ogs.tif
102
RTVSPost2010PropOp54
 70
     1
102
RTVSPost2010Prop55
280
     0
102
RTVSPost2010PropOp55
 70
     1
102
RTVSPost2010Prop56
140
1.0
102
RTVSPost2010PropOp56
 70
     1
102
RTVSPost2010Prop57
140
1.0
102
RTVSPost2010PropOp57
 70
     1
102
RTVSPropertyOp0
 70
     1
102
RTVSPropertyOp1
 70
     1
102
RTVSPropertyOp2
 70
     1
102
RTVSPropertyOp3
 70
     1
102
RTVSPropertyOp4
 70
     1
102
RTVSPropertyOp5
 70
     1
102
RTVSPropertyOp6
 70
     1
102
RTVSPropertyOp7
 70
     1
102
RTVSPropertyOp8
 70
     1
102
RTVSPropertyOp9
 70
     1
102
RTVSPropertyOp10
 70
     1
102
RTVSPropertyOp11
 70
     1
102
RTVSPropertyOp12
 70
     1
102
RTVSPropertyOp13
 70
     1
102
RTVSPropertyOp14
 70
     1
102
RTVSPropertyOp15
 70
     1
102
RTVSPropertyOp16
 70
     1
102
RTVSPropertyOp17
 70
     1
102
RTVSPropertyOp18
 70
     1
102
RTVSPropertyOp19
 70
     1
102
RTVSPropertyOp20
 70
     1
102
RTVSPropertyOp21
 70
     1
102
RTVSPropertyOp22
 70
     1
102
RTVSPropertyOp23
 70
     1
102
RTVSPropertyOp24
 70
     1
102
RTVSPropertyOp25
 70
     1
102
RTVSPropertyOp26
 70
     1
102
RTVSPropertyOp27
 70
     1
102
RTVSPropertyOp28
 70
     1
102
RTVSPropertyOp29
 70
     1
102
RTVSPropertyOp30
 70
     1
102
RTVSPropertyOp31
 70
     1
102
RTVSPropertyOp32
 70
     1
102
RTVSPropertyOp33
 70
     1
102
RTVSPropertyOp34
 70
     1
102
RTVSPropertyOp35
 70
     1
102
RTVSPropertyOp36
 70
     1
102
RTVSPropertyOp37
 70
     1
102
RTVSPropertyOp38
 70
     1
102
RTVSPropertyOp39
 70
     1
102
RTVSPropertyOp40
 70
     1
102
RTVSPropertyOp41
 70
     1
102
RTVSPropertyOp42
 70
     1
102
RTVSPropertyOp43
 70
     1
102
RTVSPropertyOp44
 70
     1
102
RTVSPropertyOp45
 70
     1
102
RTVSPropertyOp46
 70
     1
102
RTVSPropertyOp47
 70
     1
102
RTVSPropertyOp48
 70
     1
102
RTVSPropertyOp49
 70
     1
102
RTVSPropertyOp50
 70
     1
102
RTVSPropertyOp51
 70
     0
102
RTVSPropertyOp52
 70
     0
102
RTVSPropertyOp53
 70
     1
102
RTVSPropertyOp54
 70
     1
102
RTVSPropertyOp55
 70
     1
102
RTVSPropertyOp56
 70
     1
102
RTVSPropertyOp57
 70
     1
102
RTVSPropertyOp58
 70
     1
102
RTVSPropertyOp59
 70
     1
102
RTVSPropertyOp60
 70
     1
102
RTVSPropertyOp61
 70
     1
102
RTVSPropertyOp62
 70
     1
  0
XRECORD
  5
2702
102
{ACAD_REACTORS
330
2701
102
}
330
2701
100
AcDbXrecord
280
     1
102
RTVSPost2010Prop28
280
     0
102
RTVSPost2010PropOp28
 70
     1
102
RTVSPost2010Prop29
280
     1
102
RTVSPost2010PropOp29
 70
     1
102
RTVSPost2010Prop30
280
     1
102
RTVSPost2010PropOp30
 70
     1
102
RTVSPost2010Prop31
280
     0
102
RTVSPost2010PropOp31
 70
     1
102
RTVSPost2010Prop32
280
     0
102
RTVSPost2010PropOp32
 70
     1
102
RTVSPost2010Prop33
280
     0
102
RTVSPost2010PropOp33
 70
     1
102
RTVSPost2010Prop34
280
     0
102
RTVSPost2010PropOp34
 70
     1
102
RTVSPost2010Prop35
280
     0
102
RTVSPost2010PropOp35
 70
     1
102
RTVSPost2010Prop36
280
     0
102
RTVSPost2010PropOp36
 70
     1
102
RTVSPost2010Prop37
 90
       50
102
RTVSPost2010PropOp37
 70
     1
102
RTVSPost2010Prop38
140
0.0
102
RTVSPost2010PropOp38
 70
     1
102
RTVSPost2010Prop39
140
1.0
102
RTVSPost2010PropOp39
 70
     1
102
RTVSPost2010Prop40
 90
        0
102
RTVSPost2010PropOp40
 70
     1
102
RTVSPost2010Prop41ColorIndex
 90
       18
102
RTVSPost2010Prop41ColorRGB
 90
        0
102
RTVSPost2010PropOp41
 70
     1
102
RTVSPost2010Prop42
 90
       50
102
RTVSPost2010PropOp42
 70
     1
102
RTVSPost2010Prop43
 90
        3
102
RTVSPost2010PropOp43
 70
     1
102
RTVSPost2010Prop44ColorIndex
 90
        5
102
RTVSPost2010Prop44ColorRGB
 90
      255
102
RTVSPost2010PropOp44
 70
     1
102
RTVSPost2010Prop45
280
     0
102
RTVSPost2010PropOp45
 70
     1
102
RTVSPost2010Prop46
 90
       50
102
RTVSPost2010PropOp46
 70
     1
102
RTVSPost2010Prop47
 90
       50
102
RTVSPost2010PropOp47
 70
     1
102
RTVSPost2010Prop48
 90
       50
102
RTVSPost2010PropOp48
 70
     1
102
RTVSPost2010Prop49
280
     0
102
RTVSPost2010PropOp49
 70
     1
102
RTVSPost2010Prop50
 90
       50
102
RTVSPost2010PropOp50
 70
     1
102
RTVSPost2010Prop51ColorIndex
 90
      256
102
RTVSPost2010Prop51ColorRGB
 90
-16777216
102
RTVSPost2010PropOp51
 70
     0
102
RTVSPost2010Prop52
140
1.0
102
RTVSPost2010PropOp52
 70
     0
102
RTVSPost2010Prop53
 90
        2
102
RTVSPost2010PropOp53
 70
     1
102
RTVSPost2010Prop54
  1
strokes_ogs.tif
102
RTVSPost2010PropOp54
 70
     1
102
RTVSPost2010Prop55
280
     0
102
RTVSPost2010PropOp55
 70
     1
102
RTVSPost2010Prop56
140
1.0
102
RTVSPost2010PropOp56
 70
     1
102
RTVSPost2010Prop57
140
1.0
102
RTVSPost2010PropOp57
 70
     1
102
RTVSPropertyOp0
 70
     1
102
RTVSPropertyOp1
 70
     1
102
RTVSPropertyOp2
 70
     1
102
RTVSPropertyOp3
 70
     1
102
RTVSPropertyOp4
 70
     1
102
RTVSPropertyOp5
 70
     1
102
RTVSPropertyOp6
 70
     1
102
RTVSPropertyOp7
 70
     1
102
RTVSPropertyOp8
 70
     1
102
RTVSPropertyOp9
 70
     1
102
RTVSPropertyOp10
 70
     1
102
RTVSPropertyOp11
 70
     1
102
RTVSPropertyOp12
 70
     1
102
RTVSPropertyOp13
 70
     1
102
RTVSPropertyOp14
 70
     1
102
RTVSPropertyOp15
 70
     1
102
RTVSPropertyOp16
 70
     1
102
RTVSPropertyOp17
 70
     1
102
RTVSPropertyOp18
 70
     1
102
RTVSPropertyOp19
 70
     1
102
RTVSPropertyOp20
 70
     1
102
RTVSPropertyOp21
 70
     1
102
RTVSPropertyOp22
 70
     1
102
RTVSPropertyOp23
 70
     1
102
RTVSPropertyOp24
 70
     1
102
RTVSPropertyOp25
 70
     1
102
RTVSPropertyOp26
 70
     1
102
RTVSPropertyOp27
 70
     1
102
RTVSPropertyOp28
 70
     1
102
RTVSPropertyOp29
 70
     1
102
RTVSPropertyOp30
 70
     1
102
RTVSPropertyOp31
 70
     1
102
RTVSPropertyOp32
 70
     1
102
RTVSPropertyOp33
 70
     1
102
RTVSPropertyOp34
 70
     1
102
RTVSPropertyOp35
 70
     1
102
RTVSPropertyOp36
 70
     1
102
RTVSPropertyOp37
 70
     1
102
RTVSPropertyOp38
 70
     1
102
RTVSPropertyOp39
 70
     1
102
RTVSPropertyOp40
 70
     1
102
RTVSPropertyOp41
 70
     1
102
RTVSPropertyOp42
 70
     1
102
RTVSPropertyOp43
 70
     1
102
RTVSPropertyOp44
 70
     1
102
RTVSPropertyOp45
 70
     1
102
RTVSPropertyOp46
 70
     1
102
RTVSPropertyOp47
 70
     1
102
RTVSPropertyOp48
 70
     1
102
RTVSPropertyOp49
 70
     1
102
RTVSPropertyOp50
 70
     1
102
RTVSPropertyOp51
 70
     0
102
RTVSPropertyOp52
 70
     0
102
RTVSPropertyOp53
 70
     1
102
RTVSPropertyOp54
 70
     1
102
RTVSPropertyOp55
 70
     1
102
RTVSPropertyOp56
 70
     1
102
RTVSPropertyOp57
 70
     1
102
RTVSPropertyOp58
 70
     1
102
RTVSPropertyOp59
 70
     1
102
RTVSPropertyOp60
 70
     1
102
RTVSPropertyOp61
 70
     1
102
RTVSPropertyOp62
 70
     1
  0
XRECORD
  5
26F0
102
{ACAD_REACTORS
330
26EF
102
}
330
26EF
100
AcDbXrecord
280
     1
102
RTVSPost2010Prop28
280
     0
102
RTVSPost2010PropOp28
 70
     1
102
RTVSPost2010Prop29
280
     1
102
RTVSPost2010PropOp29
 70
     1
102
RTVSPost2010Prop30
280
     1
102
RTVSPost2010PropOp30
 70
     1
102
RTVSPost2010Prop31
280
     0
102
RTVSPost2010PropOp31
 70
     1
102
RTVSPost2010Prop32
280
     0
102
RTVSPost2010PropOp32
 70
     1
102
RTVSPost2010Prop33
280
     0
102
RTVSPost2010PropOp33
 70
     1
102
RTVSPost2010Prop34
280
     0
102
RTVSPost2010PropOp34
 70
     1
102
RTVSPost2010Prop35
280
     0
102
RTVSPost2010PropOp35
 70
     1
102
RTVSPost2010Prop36
280
     0
102
RTVSPost2010PropOp36
 70
     1
102
RTVSPost2010Prop37
 90
       50
102
RTVSPost2010PropOp37
 70
     1
102
RTVSPost2010Prop38
140
0.0
102
RTVSPost2010PropOp38
 70
     1
102
RTVSPost2010Prop39
140
1.0
102
RTVSPost2010PropOp39
 70
     1
102
RTVSPost2010Prop40
 90
        0
102
RTVSPost2010PropOp40
 70
     1
102
RTVSPost2010Prop41ColorIndex
 90
       18
102
RTVSPost2010Prop41ColorRGB
 90
        0
102
RTVSPost2010PropOp41
 70
     1
102
RTVSPost2010Prop42
 90
       50
102
RTVSPost2010PropOp42
 70
     1
102
RTVSPost2010Prop43
 90
        3
102
RTVSPost2010PropOp43
 70
     1
102
RTVSPost2010Prop44ColorIndex
 90
        5
102
RTVSPost2010Prop44ColorRGB
 90
      255
102
RTVSPost2010PropOp44
 70
     1
102
RTVSPost2010Prop45
280
     0
102
RTVSPost2010PropOp45
 70
     1
102
RTVSPost2010Prop46
 90
       50
102
RTVSPost2010PropOp46
 70
     1
102
RTVSPost2010Prop47
 90
       50
102
RTVSPost2010PropOp47
 70
     1
102
RTVSPost2010Prop48
 90
       50
102
RTVSPost2010PropOp48
 70
     1
102
RTVSPost2010Prop49
280
     0
102
RTVSPost2010PropOp49
 70
     1
102
RTVSPost2010Prop50
 90
       50
102
RTVSPost2010PropOp50
 70
     1
102
RTVSPost2010Prop51ColorIndex
 90
      256
102
RTVSPost2010Prop51ColorRGB
 90
-16777216
102
RTVSPost2010PropOp51
 70
     0
102
RTVSPost2010Prop52
140
1.0
102
RTVSPost2010PropOp52
 70
     0
102
RTVSPost2010Prop53
 90
        2
102
RTVSPost2010PropOp53
 70
     1
102
RTVSPost2010Prop54
  1
strokes_ogs.tif
102
RTVSPost2010PropOp54
 70
     1
102
RTVSPost2010Prop55
280
     0
102
RTVSPost2010PropOp55
 70
     1
102
RTVSPost2010Prop56
140
1.0
102
RTVSPost2010PropOp56
 70
     1
102
RTVSPost2010Prop57
140
1.0
102
RTVSPost2010PropOp57
 70
     1
102
RTVSPropertyOp0
 70
     1
102
RTVSPropertyOp1
 70
     1
102
RTVSPropertyOp2
 70
     1
102
RTVSPropertyOp3
 70
     1
102
RTVSPropertyOp4
 70
     1
102
RTVSPropertyOp5
 70
     1
102
RTVSPropertyOp6
 70
     1
102
RTVSPropertyOp7
 70
     1
102
RTVSPropertyOp8
 70
     1
102
RTVSPropertyOp9
 70
     1
102
RTVSPropertyOp10
 70
     1
102
RTVSPropertyOp11
 70
     1
102
RTVSPropertyOp12
 70
     1
102
RTVSPropertyOp13
 70
     1
102
RTVSPropertyOp14
 70
     1
102
RTVSPropertyOp15
 70
     1
102
RTVSPropertyOp16
 70
     1
102
RTVSPropertyOp17
 70
     1
102
RTVSPropertyOp18
 70
     1
102
RTVSPropertyOp19
 70
     1
102
RTVSPropertyOp20
 70
     1
102
RTVSPropertyOp21
 70
     1
102
RTVSPropertyOp22
 70
     1
102
RTVSPropertyOp23
 70
     1
102
RTVSPropertyOp24
 70
     1
102
RTVSPropertyOp25
 70
     1
102
RTVSPropertyOp26
 70
     1
102
RTVSPropertyOp27
 70
     1
102
RTVSPropertyOp28
 70
     1
102
RTVSPropertyOp29
 70
     1
102
RTVSPropertyOp30
 70
     1
102
RTVSPropertyOp31
 70
     1
102
RTVSPropertyOp32
 70
     1
102
RTVSPropertyOp33
 70
     1
102
RTVSPropertyOp34
 70
     1
102
RTVSPropertyOp35
 70
     1
102
RTVSPropertyOp36
 70
     1
102
RTVSPropertyOp37
 70
     1
102
RTVSPropertyOp38
 70
     1
102
RTVSPropertyOp39
 70
     1
102
RTVSPropertyOp40
 70
     1
102
RTVSPropertyOp41
 70
     1
102
RTVSPropertyOp42
 70
     1
102
RTVSPropertyOp43
 70
     1
102
RTVSPropertyOp44
 70
     1
102
RTVSPropertyOp45
 70
     1
102
RTVSPropertyOp46
 70
     1
102
RTVSPropertyOp47
 70
     1
102
RTVSPropertyOp48
 70
     1
102
RTVSPropertyOp49
 70
     1
102
RTVSPropertyOp50
 70
     1
102
RTVSPropertyOp51
 70
     0
102
RTVSPropertyOp52
 70
     0
102
RTVSPropertyOp53
 70
     1
102
RTVSPropertyOp54
 70
     1
102
RTVSPropertyOp55
 70
     1
102
RTVSPropertyOp56
 70
     1
102
RTVSPropertyOp57
 70
     1
102
RTVSPropertyOp58
 70
     1
102
RTVSPropertyOp59
 70
     1
102
RTVSPropertyOp60
 70
     1
102
RTVSPropertyOp61
 70
     1
102
RTVSPropertyOp62
 70
     1
  0
XRECORD
  5
26E4
102
{ACAD_REACTORS
330
26E3
102
}
330
26E3
100
AcDbXrecord
280
     1
102
RTVSPost2010Prop28
280
     0
102
RTVSPost2010PropOp28
 70
     1
102
RTVSPost2010Prop29
280
     1
102
RTVSPost2010PropOp29
 70
     1
102
RTVSPost2010Prop30
280
     1
102
RTVSPost2010PropOp30
 70
     1
102
RTVSPost2010Prop31
280
     0
102
RTVSPost2010PropOp31
 70
     1
102
RTVSPost2010Prop32
280
     0
102
RTVSPost2010PropOp32
 70
     1
102
RTVSPost2010Prop33
280
     0
102
RTVSPost2010PropOp33
 70
     1
102
RTVSPost2010Prop34
280
     0
102
RTVSPost2010PropOp34
 70
     1
102
RTVSPost2010Prop35
280
     0
102
RTVSPost2010PropOp35
 70
     1
102
RTVSPost2010Prop36
280
     0
102
RTVSPost2010PropOp36
 70
     1
102
RTVSPost2010Prop37
 90
       50
102
RTVSPost2010PropOp37
 70
     1
102
RTVSPost2010Prop38
140
0.0
102
RTVSPost2010PropOp38
 70
     1
102
RTVSPost2010Prop39
140
1.0
102
RTVSPost2010PropOp39
 70
     1
102
RTVSPost2010Prop40
 90
        0
102
RTVSPost2010PropOp40
 70
     1
102
RTVSPost2010Prop41ColorIndex
 90
       18
102
RTVSPost2010Prop41ColorRGB
 90
        0
102
RTVSPost2010PropOp41
 70
     1
102
RTVSPost2010Prop42
 90
       50
102
RTVSPost2010PropOp42
 70
     1
102
RTVSPost2010Prop43
 90
        3
102
RTVSPost2010PropOp43
 70
     1
102
RTVSPost2010Prop44ColorIndex
 90
        5
102
RTVSPost2010Prop44ColorRGB
 90
      255
102
RTVSPost2010PropOp44
 70
     1
102
RTVSPost2010Prop45
280
     0
102
RTVSPost2010PropOp45
 70
     1
102
RTVSPost2010Prop46
 90
       50
102
RTVSPost2010PropOp46
 70
     1
102
RTVSPost2010Prop47
 90
       50
102
RTVSPost2010PropOp47
 70
     1
102
RTVSPost2010Prop48
 90
       50
102
RTVSPost2010PropOp48
 70
     1
102
RTVSPost2010Prop49
280
     0
102
RTVSPost2010PropOp49
 70
     1
102
RTVSPost2010Prop50
 90
       50
102
RTVSPost2010PropOp50
 70
     1
102
RTVSPost2010Prop51ColorIndex
 90
      256
102
RTVSPost2010Prop51ColorRGB
 90
-16777216
102
RTVSPost2010PropOp51
 70
     0
102
RTVSPost2010Prop52
140
1.0
102
RTVSPost2010PropOp52
 70
     0
102
RTVSPost2010Prop53
 90
        2
102
RTVSPost2010PropOp53
 70
     1
102
RTVSPost2010Prop54
  1
strokes_ogs.tif
102
RTVSPost2010PropOp54
 70
     1
102
RTVSPost2010Prop55
280
     0
102
RTVSPost2010PropOp55
 70
     1
102
RTVSPost2010Prop56
140
1.0
102
RTVSPost2010PropOp56
 70
     1
102
RTVSPost2010Prop57
140
1.0
102
RTVSPost2010PropOp57
 70
     1
102
RTVSPropertyOp0
 70
     1
102
RTVSPropertyOp1
 70
     1
102
RTVSPropertyOp2
 70
     1
102
RTVSPropertyOp3
 70
     1
102
RTVSPropertyOp4
 70
     1
102
RTVSPropertyOp5
 70
     1
102
RTVSPropertyOp6
 70
     1
102
RTVSPropertyOp7
 70
     1
102
RTVSPropertyOp8
 70
     1
102
RTVSPropertyOp9
 70
     1
102
RTVSPropertyOp10
 70
     1
102
RTVSPropertyOp11
 70
     1
102
RTVSPropertyOp12
 70
     1
102
RTVSPropertyOp13
 70
     1
102
RTVSPropertyOp14
 70
     1
102
RTVSPropertyOp15
 70
     1
102
RTVSPropertyOp16
 70
     1
102
RTVSPropertyOp17
 70
     1
102
RTVSPropertyOp18
 70
     1
102
RTVSPropertyOp19
 70
     1
102
RTVSPropertyOp20
 70
     1
102
RTVSPropertyOp21
 70
     1
102
RTVSPropertyOp22
 70
     1
102
RTVSPropertyOp23
 70
     1
102
RTVSPropertyOp24
 70
     1
102
RTVSPropertyOp25
 70
     1
102
RTVSPropertyOp26
 70
     1
102
RTVSPropertyOp27
 70
     1
102
RTVSPropertyOp28
 70
     1
102
RTVSPropertyOp29
 70
     1
102
RTVSPropertyOp30
 70
     1
102
RTVSPropertyOp31
 70
     1
102
RTVSPropertyOp32
 70
     1
102
RTVSPropertyOp33
 70
     1
102
RTVSPropertyOp34
 70
     1
102
RTVSPropertyOp35
 70
     1
102
RTVSPropertyOp36
 70
     1
102
RTVSPropertyOp37
 70
     1
102
RTVSPropertyOp38
 70
     1
102
RTVSPropertyOp39
 70
     1
102
RTVSPropertyOp40
 70
     1
102
RTVSPropertyOp41
 70
     1
102
RTVSPropertyOp42
 70
     1
102
RTVSPropertyOp43
 70
     1
102
RTVSPropertyOp44
 70
     1
102
RTVSPropertyOp45
 70
     1
102
RTVSPropertyOp46
 70
     1
102
RTVSPropertyOp47
 70
     1
102
RTVSPropertyOp48
 70
     1
102
RTVSPropertyOp49
 70
     1
102
RTVSPropertyOp50
 70
     1
102
RTVSPropertyOp51
 70
     0
102
RTVSPropertyOp52
 70
     0
102
RTVSPropertyOp53
 70
     1
102
RTVSPropertyOp54
 70
     1
102
RTVSPropertyOp55
 70
     1
102
RTVSPropertyOp56
 70
     1
102
RTVSPropertyOp57
 70
     1
102
RTVSPropertyOp58
 70
     1
102
RTVSPropertyOp59
 70
     1
102
RTVSPropertyOp60
 70
     1
102
RTVSPropertyOp61
 70
     1
102
RTVSPropertyOp62
 70
     1
  0
XRECORD
  5
2704
102
{ACAD_REACTORS
330
2703
102
}
330
2703
100
AcDbXrecord
280
     1
102
RTVSPost2010Prop28
280
     0
102
RTVSPost2010PropOp28
 70
     1
102
RTVSPost2010Prop29
280
     1
102
RTVSPost2010PropOp29
 70
     1
102
RTVSPost2010Prop30
280
     1
102
RTVSPost2010PropOp30
 70
     1
102
RTVSPost2010Prop31
280
     0
102
RTVSPost2010PropOp31
 70
     1
102
RTVSPost2010Prop32
280
     0
102
RTVSPost2010PropOp32
 70
     1
102
RTVSPost2010Prop33
280
     0
102
RTVSPost2010PropOp33
 70
     1
102
RTVSPost2010Prop34
280
     0
102
RTVSPost2010PropOp34
 70
     1
102
RTVSPost2010Prop35
280
     0
102
RTVSPost2010PropOp35
 70
     1
102
RTVSPost2010Prop36
280
     0
102
RTVSPost2010PropOp36
 70
     1
102
RTVSPost2010Prop37
 90
       50
102
RTVSPost2010PropOp37
 70
     1
102
RTVSPost2010Prop38
140
0.0
102
RTVSPost2010PropOp38
 70
     1
102
RTVSPost2010Prop39
140
1.0
102
RTVSPost2010PropOp39
 70
     1
102
RTVSPost2010Prop40
 90
        0
102
RTVSPost2010PropOp40
 70
     1
102
RTVSPost2010Prop41ColorIndex
 90
       18
102
RTVSPost2010Prop41ColorRGB
 90
        0
102
RTVSPost2010PropOp41
 70
     1
102
RTVSPost2010Prop42
 90
       50
102
RTVSPost2010PropOp42
 70
     1
102
RTVSPost2010Prop43
 90
        3
102
RTVSPost2010PropOp43
 70
     1
102
RTVSPost2010Prop44ColorIndex
 90
        5
102
RTVSPost2010Prop44ColorRGB
 90
      255
102
RTVSPost2010PropOp44
 70
     1
102
RTVSPost2010Prop45
280
     0
102
RTVSPost2010PropOp45
 70
     1
102
RTVSPost2010Prop46
 90
       50
102
RTVSPost2010PropOp46
 70
     1
102
RTVSPost2010Prop47
 90
       50
102
RTVSPost2010PropOp47
 70
     1
102
RTVSPost2010Prop48
 90
       50
102
RTVSPost2010PropOp48
 70
     1
102
RTVSPost2010Prop49
280
     0
102
RTVSPost2010PropOp49
 70
     1
102
RTVSPost2010Prop50
 90
       50
102
RTVSPost2010PropOp50
 70
     1
102
RTVSPost2010Prop51ColorIndex
 90
      256
102
RTVSPost2010Prop51ColorRGB
 90
-16777216
102
RTVSPost2010PropOp51
 70
     0
102
RTVSPost2010Prop52
140
1.0
102
RTVSPost2010PropOp52
 70
     0
102
RTVSPost2010Prop53
 90
        2
102
RTVSPost2010PropOp53
 70
     1
102
RTVSPost2010Prop54
  1
strokes_ogs.tif
102
RTVSPost2010PropOp54
 70
     1
102
RTVSPost2010Prop55
280
     0
102
RTVSPost2010PropOp55
 70
     1
102
RTVSPost2010Prop56
140
1.0
102
RTVSPost2010PropOp56
 70
     1
102
RTVSPost2010Prop57
140
1.0
102
RTVSPost2010PropOp57
 70
     1
102
RTVSPropertyOp0
 70
     1
102
RTVSPropertyOp1
 70
     1
102
RTVSPropertyOp2
 70
     1
102
RTVSPropertyOp3
 70
     1
102
RTVSPropertyOp4
 70
     1
102
RTVSPropertyOp5
 70
     1
102
RTVSPropertyOp6
 70
     1
102
RTVSPropertyOp7
 70
     1
102
RTVSPropertyOp8
 70
     1
102
RTVSPropertyOp9
 70
     1
102
RTVSPropertyOp10
 70
     1
102
RTVSPropertyOp11
 70
     1
102
RTVSPropertyOp12
 70
     1
102
RTVSPropertyOp13
 70
     1
102
RTVSPropertyOp14
 70
     1
102
RTVSPropertyOp15
 70
     1
102
RTVSPropertyOp16
 70
     1
102
RTVSPropertyOp17
 70
     1
102
RTVSPropertyOp18
 70
     1
102
RTVSPropertyOp19
 70
     1
102
RTVSPropertyOp20
 70
     1
102
RTVSPropertyOp21
 70
     1
102
RTVSPropertyOp22
 70
     1
102
RTVSPropertyOp23
 70
     1
102
RTVSPropertyOp24
 70
     1
102
RTVSPropertyOp25
 70
     1
102
RTVSPropertyOp26
 70
     1
102
RTVSPropertyOp27
 70
     1
102
RTVSPropertyOp28
 70
     1
102
RTVSPropertyOp29
 70
     1
102
RTVSPropertyOp30
 70
     1
102
RTVSPropertyOp31
 70
     1
102
RTVSPropertyOp32
 70
     1
102
RTVSPropertyOp33
 70
     1
102
RTVSPropertyOp34
 70
     1
102
RTVSPropertyOp35
 70
     1
102
RTVSPropertyOp36
 70
     1
102
RTVSPropertyOp37
 70
     1
102
RTVSPropertyOp38
 70
     1
102
RTVSPropertyOp39
 70
     1
102
RTVSPropertyOp40
 70
     1
102
RTVSPropertyOp41
 70
     1
102
RTVSPropertyOp42
 70
     1
102
RTVSPropertyOp43
 70
     1
102
RTVSPropertyOp44
 70
     1
102
RTVSPropertyOp45
 70
     1
102
RTVSPropertyOp46
 70
     1
102
RTVSPropertyOp47
 70
     1
102
RTVSPropertyOp48
 70
     1
102
RTVSPropertyOp49
 70
     1
102
RTVSPropertyOp50
 70
     1
102
RTVSPropertyOp51
 70
     0
102
RTVSPropertyOp52
 70
     0
102
RTVSPropertyOp53
 70
     1
102
RTVSPropertyOp54
 70
     1
102
RTVSPropertyOp55
 70
     1
102
RTVSPropertyOp56
 70
     1
102
RTVSPropertyOp57
 70
     1
102
RTVSPropertyOp58
 70
     1
102
RTVSPropertyOp59
 70
     1
102
RTVSPropertyOp60
 70
     1
102
RTVSPropertyOp61
 70
     1
102
RTVSPropertyOp62
 70
     1
  0
ENDSEC
  0
EOF
