  0
SECTION
  2
HEADER
  9
$ACADVER
  1
AC1015
  9
$ACADMAINTVER
 70
    18
  9
$DWGCODEPAGE
  3
ANSI_1252
  9
$INSBASE
 10
0.0
 20
0.0
 30
0.0
  9
$EXTMIN
 10
-181.5069572412257
 20
-188.6930689861684
 30
-0.0015258207003583
  9
$EXTMAX
 10
207.3403937967266
 20
241.5164343427359
 30
0.0000000349246037
  9
$LIMMIN
 10
0.0
 20
0.0
  9
$LIMMAX
 10
420.0
 20
297.0
  9
$ORTHOMODE
 70
     0
  9
$REGENMODE
 70
     1
  9
$FILLMODE
 70
     1
  9
$QTEXTMODE
 70
     0
  9
$MIRRTEXT
 70
     0
  9
$LTSCALE
 40
1.0
  9
$ATTMODE
 70
     1
  9
$TEXTSIZE
 40
2.5
  9
$TRACEWID
 40
1.0
  9
$TEXTSTYLE
  7
Standard
  9
$CLAYER
  8
0
  9
$CELTYPE
  6
ByLayer
  9
$CECOLOR
 62
   256
  9
$CELTSCALE
 40
1.0
  9
$DISPSILH
 70
     0
  9
$DIMSCALE
 40
1.0
  9
$DIMASZ
 40
2.5
  9
$DIMEXO
 40
0.625
  9
$DIMDLI
 40
3.75
  9
$DIMRND
 40
0.0
  9
$DIMDLE
 40
0.0
  9
$DIMEXE
 40
1.25
  9
$DIMTP
 40
0.0
  9
$DIMTM
 40
0.0
  9
$DIMTXT
 40
2.5
  9
$DIMCEN
 40
2.5
  9
$DIMTSZ
 40
0.0
  9
$DIMTOL
 70
     0
  9
$DIMLIM
 70
     0
  9
$DIMTIH
 70
     0
  9
$DIMTOH
 70
     0
  9
$DIMSE1
 70
     0
  9
$DIMSE2
 70
     0
  9
$DIMTAD
 70
     1
  9
$DIMZIN
 70
     8
  9
$DIMBLK
  1

  9
$DIMASO
 70
     1
  9
$DIMSHO
 70
     1
  9
$DIMPOST
  1

  9
$DIMAPOST
  1

  9
$DIMALT
 70
     0
  9
$DIMALTD
 70
     3
  9
$DIMALTF
 40
0.03937007874016
  9
$DIMLFAC
 40
1.0
  9
$DIMTOFL
 70
     1
  9
$DIMTVP
 40
0.0
  9
$DIMTIX
 70
     0
  9
$DIMSOXD
 70
     0
  9
$DIMSAH
 70
     0
  9
$DIMBLK1
  1

  9
$DIMBLK2
  1

  9
$DIMSTYLE
  2
ISO-25
  9
$DIMCLRD
 70
     0
  9
$DIMCLRE
 70
     0
  9
$DIMCLRT
 70
     0
  9
$DIMTFAC
 40
1.0
  9
$DIMGAP
 40
0.625
  9
$DIMJUST
 70
     0
  9
$DIMSD1
 70
     0
  9
$DIMSD2
 70
     0
  9
$DIMTOLJ
 70
     0
  9
$DIMTZIN
 70
     8
  9
$DIMALTZ
 70
     0
  9
$DIMALTTZ
 70
     0
  9
$DIMUPT
 70
     0
  9
$DIMDEC
 70
     2
  9
$DIMTDEC
 70
     2
  9
$DIMALTU
 70
     2
  9
$DIMALTTD
 70
     3
  9
$DIMTXSTY
  7
Standard
  9
$DIMAUNIT
 70
     0
  9
$DIMADEC
 70
     0
  9
$DIMALTRND
 40
0.0
  9
$DIMAZIN
 70
     0
  9
$DIMDSEP
 70
    44
  9
$DIMATFIT
 70
     3
  9
$DIMFRAC
 70
     0
  9
$DIMLDRBLK
  1

  9
$DIMLUNIT
 70
     2
  9
$DIMLWD
 70
    -2
  9
$DIMLWE
 70
    -2
  9
$DIMTMOVE
 70
     0
  9
$LUNITS
 70
     2
  9
$LUPREC
 70
     4
  9
$SKETCHINC
 40
1.0
  9
$FILLETRAD
 40
0.0
  9
$AUNITS
 70
     0
  9
$AUPREC
 70
     0
  9
$MENU
  1
.
  9
$ELEVATION
 40
0.0
  9
$PELEVATION
 40
0.0
  9
$THICKNESS
 40
0.0
  9
$LIMCHECK
 70
     0
  9
$CHAMFERA
 40
0.0
  9
$CHAMFERB
 40
0.0
  9
$CHAMFERC
 40
0.0
  9
$CHAMFERD
 40
0.0
  9
$SKPOLY
 70
     0
  9
$TDCREATE
 40
2460367.705740741
  9
$TDUCREATE
 40
2460367.414074074
  9
$TDUPDATE
 40
2460367.710717592
  9
$TDUUPDATE
 40
2460367.419050926
  9
$TDINDWG
 40
0.0034606481
  9
$TDUSRTIMER
 40
0.0034606481
  9
$USRTIMER
 70
     1
  9
$ANGBASE
 50
0.0
  9
$ANGDIR
 70
     0
  9
$PDMODE
 70
     0
  9
$PDSIZE
 40
0.0
  9
$PLINEWID
 40
0.0
  9
$SPLFRAME
 70
     0
  9
$SPLINETYPE
 70
     6
  9
$SPLINESEGS
 70
     8
  9
$HANDSEED
  5
16BD
  9
$SURFTAB1
 70
     6
  9
$SURFTAB2
 70
     6
  9
$SURFTYPE
 70
     6
  9
$SURFU
 70
     6
  9
$SURFV
 70
     6
  9
$UCSBASE
  2

  9
$UCSNAME
  2

  9
$UCSORG
 10
0.0
 20
0.0
 30
0.0
  9
$UCSXDIR
 10
1.0
 20
0.0
 30
0.0
  9
$UCSYDIR
 10
0.0
 20
1.0
 30
0.0
  9
$UCSORTHOREF
  2

  9
$UCSORTHOVIEW
 70
     0
  9
$UCSORGTOP
 10
0.0
 20
0.0
 30
0.0
  9
$UCSORGBOTTOM
 10
0.0
 20
0.0
 30
0.0
  9
$UCSORGLEFT
 10
0.0
 20
0.0
 30
0.0
  9
$UCSORGRIGHT
 10
0.0
 20
0.0
 30
0.0
  9
$UCSORGFRONT
 10
0.0
 20
0.0
 30
0.0
  9
$UCSORGBACK
 10
0.0
 20
0.0
 30
0.0
  9
$PUCSBASE
  2

  9
$PUCSNAME
  2

  9
$PUCSORG
 10
0.0
 20
0.0
 30
0.0
  9
$PUCSXDIR
 10
1.0
 20
0.0
 30
0.0
  9
$PUCSYDIR
 10
0.0
 20
1.0
 30
0.0
  9
$PUCSORTHOREF
  2

  9
$PUCSORTHOVIEW
 70
     0
  9
$PUCSORGTOP
 10
0.0
 20
0.0
 30
0.0
  9
$PUCSORGBOTTOM
 10
0.0
 20
0.0
 30
0.0
  9
$PUCSORGLEFT
 10
0.0
 20
0.0
 30
0.0
  9
$PUCSORGRIGHT
 10
0.0
 20
0.0
 30
0.0
  9
$PUCSORGFRONT
 10
0.0
 20
0.0
 30
0.0
  9
$PUCSORGBACK
 10
0.0
 20
0.0
 30
0.0
  9
$USERI1
 70
     0
  9
$USERI2
 70
     0
  9
$USERI3
 70
     0
  9
$USERI4
 70
     0
  9
$USERI5
 70
     0
  9
$USERR1
 40
0.0
  9
$USERR2
 40
0.0
  9
$USERR3
 40
0.0
  9
$USERR4
 40
0.0
  9
$USERR5
 40
0.0
  9
$WORLDVIEW
 70
     1
  9
$SHADEDGE
 70
     3
  9
$SHADEDIF
 70
    70
  9
$TILEMODE
 70
     1
  9
$MAXACTVP
 70
    48
  9
$PINSBASE
 10
0.0
 20
0.0
 30
0.0
  9
$PLIMCHECK
 70
     0
  9
$PEXTMIN
 10
0.0
 20
0.0
 30
0.0
  9
$PEXTMAX
 10
0.0
 20
0.0
 30
0.0
  9
$PLIMMIN
 10
0.0
 20
0.0
  9
$PLIMMAX
 10
12.0
 20
9.0
  9
$UNITMODE
 70
     0
  9
$VISRETAIN
 70
     1
  9
$PLINEGEN
 70
     0
  9
$PSLTSCALE
 70
     1
  9
$TREEDEPTH
 70
  3020
  9
$CMLSTYLE
  2
Standard
  9
$CMLJUST
 70
     0
  9
$CMLSCALE
 40
20.0
  9
$PROXYGRAPHICS
 70
     1
  9
$MEASUREMENT
 70
     1
  9
$CELWEIGHT
370
    -1
  9
$ENDCAPS
280
     0
  9
$JOINSTYLE
280
     0
  9
$LWDISPLAY
290
     0
  9
$INSUNITS
 70
     4
  9
$HYPERLINKBASE
  1

  9
$STYLESHEET
  1

  9
$XEDIT
290
     1
  9
$CEPSNTYPE
380
     0
  9
$PSTYLEMODE
290
     1
  9
$FINGERPRINTGUID
  2
{09ACAAAA-6FF3-F94C-B944-1C0D1F37C415}
  9
$VERSIONGUID
  2
{23ECC3AF-51C6-204E-8220-DA4D0B3928A0}
  9
$EXTNAMES
290
     1
  9
$PSVPSCALE
 40
0.0
  9
$OLESTARTUP
290
     0
  0
ENDSEC
  0
SECTION
  2
CLASSES
  0
CLASS
  1
ACDBDICTIONARYWDFLT
  2
AcDbDictionaryWithDefault
  3
ObjectDBX Classes
 90
        0
280
     0
281
     0
  0
CLASS
  1
ACDBPLACEHOLDER
  2
AcDbPlaceHolder
  3
ObjectDBX Classes
 90
        0
280
     0
281
     0
  0
CLASS
  1
LAYOUT
  2
AcDbLayout
  3
ObjectDBX Classes
 90
        0
280
     0
281
     0
  0
CLASS
  1
DICTIONARYVAR
  2
AcDbDictionaryVar
  3
ObjectDBX Classes
 90
        0
280
     0
281
     0
  0
CLASS
  1
TABLESTYLE
  2
AcDbTableStyle
  3
ObjectDBX Classes
 90
     4095
280
     0
281
     0
  0
CLASS
  1
MATERIAL
  2
AcDbMaterial
  3
ObjectDBX Classes
 90
     1153
280
     0
281
     0
  0
CLASS
  1
VISUALSTYLE
  2
AcDbVisualStyle
  3
ObjectDBX Classes
 90
     4095
280
     0
281
     0
  0
CLASS
  1
SCALE
  2
AcDbScale
  3
ObjectDBX Classes
 90
     1153
280
     0
281
     0
  0
CLASS
  1
MLEADERSTYLE
  2
AcDbMLeaderStyle
  3
ACDB_MLEADERSTYLE_CLASS
 90
     4095
280
     0
281
     0
  0
CLASS
  1
CELLSTYLEMAP
  2
AcDbCellStyleMap
  3
ObjectDBX Classes
 90
     1152
280
     0
281
     0
  0
CLASS
  1
EXACXREFPANELOBJECT
  2
ExAcXREFPanelObject
  3
EXAC_ESW
 90
    33793
280
     0
281
     0
  0
CLASS
  1
NPOCOLLECTION
  2
AcDbImpNonPersistentObjectsCollection
  3
ObjectDBX Classes
 90
    33921
280
     0
281
     0
  0
CLASS
  1
LAYER_INDEX
  2
AcDbLayerIndex
  3
ObjectDBX Classes
 90
    32768
280
     0
281
     0
  0
CLASS
  1
SPATIAL_INDEX
  2
AcDbSpatialIndex
  3
ObjectDBX Classes
 90
    32768
280
     0
281
     0
  0
CLASS
  1
IDBUFFER
  2
AcDbIdBuffer
  3
ObjectDBX Classes
 90
    32768
280
     0
281
     0
  0
CLASS
  1
ACDBSECTIONVIEWSTYLE
  2
AcDbSectionViewStyle
  3
ObjectDBX Classes
 90
     1025
280
     0
281
     0
  0
CLASS
  1
ACDBDETAILVIEWSTYLE
  2
AcDbDetailViewStyle
  3
ObjectDBX Classes
 90
     1025
280
     0
281
     0
  0
CLASS
  1
XRECORD
  2
AcDbXrecord
  3
ObjectDBX Classes
 90
        0
280
     0
281
     0
  0
ENDSEC
  0
SECTION
  2
TABLES
  0
TABLE
  2
VPORT
  5
8
102
{ACAD_XDICTIONARY
360
15CB
102
}
330
0
100
AcDbSymbolTable
 70
     1
  0
VPORT
  5
EA
330
8
100
AcDbSymbolTableRecord
100
AcDbViewportTableRecord
  2
*Active
 70
     0
 10
0.0
 20
0.0
 11
1.0
 21
1.0
 12
12.91671827775046
 22
26.41168267828374
 13
0.0
 23
0.0
 14
10.0
 24
10.0
 15
10.0
 25
10.0
 16
0.0
 26
0.0
 36
1.0
 17
0.0
 27
0.0
 37
0.0
 40
457.4888197785367
 41
0.9846153846153846
 42
50.0
 43
0.0
 44
0.0
 50
0.0
 51
0.0
 71
     0
 72
  1000
 73
     1
 74
     3
 75
     0
 76
     1
 77
     0
 78
     0
281
     0
 65
     1
110
0.0
120
0.0
130
0.0
111
1.0
121
0.0
131
0.0
112
0.0
122
1.0
132
0.0
 79
     0
146
0.0
1001
ACAD_NAV_VCDISPLAY
1070
     3
  0
ENDTAB
  0
TABLE
  2
LTYPE
  5
5
330
0
100
AcDbSymbolTable
 70
     1
  0
LTYPE
  5
14
330
5
100
AcDbSymbolTableRecord
100
AcDbLinetypeTableRecord
  2
ByBlock
 70
     0
  3

 72
    65
 73
     0
 40
0.0
  0
LTYPE
  5
15
330
5
100
AcDbSymbolTableRecord
100
AcDbLinetypeTableRecord
  2
ByLayer
 70
     0
  3

 72
    65
 73
     0
 40
0.0
  0
LTYPE
  5
16
330
5
100
AcDbSymbolTableRecord
100
AcDbLinetypeTableRecord
  2
Continuous
 70
     0
  3
Solid line
 72
    65
 73
     0
 40
0.0
  0
ENDTAB
  0
TABLE
  2
LAYER
  5
2
102
{ACAD_XDICTIONARY
360
1FF
102
}
330
0
100
AcDbSymbolTable
 70
     1
  0
LAYER
  5
10
102
{ACAD_XDICTIONARY
360
13C
102
}
330
2
100
AcDbSymbolTableRecord
100
AcDbLayerTableRecord
  2
0
 70
     0
 62
     7
  6
Continuous
370
    -3
390
F
  0
ENDTAB
  0
TABLE
  2
STYLE
  5
3
330
0
100
AcDbSymbolTable
 70
     1
  0
STYLE
  5
11
330
3
100
AcDbSymbolTableRecord
100
AcDbTextStyleTableRecord
  2
Standard
 70
     0
 40
0.0
 41
1.0
 50
0.0
 71
     0
 42
2.5
  3
arial.ttf
  4

1001
ACAD
1000
Arial
1071
       34
  0
ENDTAB
  0
TABLE
  2
VIEW
  5
6
330
0
100
AcDbSymbolTable
 70
     0
  0
ENDTAB
  0
TABLE
  2
UCS
  5
7
330
0
100
AcDbSymbolTable
 70
     0
  0
ENDTAB
  0
TABLE
  2
APPID
  5
9
330
0
100
AcDbSymbolTable
 70
     8
  0
APPID
  5
12
330
9
100
AcDbSymbolTableRecord
100
AcDbRegAppTableRecord
  2
ACAD
 70
     0
  0
APPID
  5
9E
330
9
100
AcDbSymbolTableRecord
100
AcDbRegAppTableRecord
  2
ACAD_PSEXT
 70
     0
  0
APPID
  5
133
330
9
100
AcDbSymbolTableRecord
100
AcDbRegAppTableRecord
  2
AcadAnnoPO
 70
     0
  0
APPID
  5
134
330
9
100
AcDbSymbolTableRecord
100
AcDbRegAppTableRecord
  2
AcadAnnotative
 70
     0
  0
APPID
  5
135
330
9
100
AcDbSymbolTableRecord
100
AcDbRegAppTableRecord
  2
ACAD_DSTYLE_DIMJAG
 70
     0
  0
APPID
  5
136
330
9
100
AcDbSymbolTableRecord
100
AcDbRegAppTableRecord
  2
ACAD_DSTYLE_DIMTALN
 70
     0
  0
APPID
  5
165
330
9
100
AcDbSymbolTableRecord
100
AcDbRegAppTableRecord
  2
ACAD_MLEADERVER
 70
     0
  0
APPID
  5
217
330
9
100
AcDbSymbolTableRecord
100
AcDbRegAppTableRecord
  2
ACAD_NAV_VCDISPLAY
 70
     0
  0
ENDTAB
  0
TABLE
  2
DIMSTYLE
  5
A
330
0
100
AcDbSymbolTable
 70
     1
100
AcDbDimStyleTable
 71
     0
  0
DIMSTYLE
105
27
330
A
100
AcDbSymbolTableRecord
100
AcDbDimStyleTableRecord
  2
ISO-25
 70
     0
 41
2.5
 42
0.625
 43
3.75
 44
1.25
 73
     0
 74
     0
 77
     1
 78
     8
140
2.5
141
2.5
143
0.03937007874016
147
0.625
171
     3
172
     1
271
     2
272
     2
274
     3
278
    44
283
     0
284
     8
340
11
  0
ENDTAB
  0
TABLE
  2
BLOCK_RECORD
  5
1
330
0
100
AcDbSymbolTable
 70
     7
  0
BLOCK_RECORD
  5
1F
102
{ACAD_XDICTIONARY
360
1CE
102
}
330
1
100
AcDbSymbolTableRecord
100
AcDbBlockTableRecord
  2
*Model_Space
340
22
  0
BLOCK_RECORD
  5
D2
102
{ACAD_XDICTIONARY
360
157E
102
}
330
1
100
AcDbSymbolTableRecord
100
AcDbBlockTableRecord
  2
*Paper_Space
340
D3
  0
BLOCK_RECORD
  5
D6
102
{ACAD_XDICTIONARY
360
1580
102
}
330
1
100
AcDbSymbolTableRecord
100
AcDbBlockTableRecord
  2
*Paper_Space0
340
D7
  0
BLOCK_RECORD
  5
13AF
330
1
100
AcDbSymbolTableRecord
100
AcDbBlockTableRecord
  2
ABR10525-Front
340
0
102
{BLKREFS
331
1574
102
}
  0
BLOCK_RECORD
  5
13DF
330
1
100
AcDbSymbolTableRecord
100
AcDbBlockTableRecord
  2
ABR10525-Left
340
0
102
{BLKREFS
331
1575
102
}
  0
BLOCK_RECORD
  5
1404
330
1
100
AcDbSymbolTableRecord
100
AcDbBlockTableRecord
  2
ABR10525-Right
340
0
102
{BLKREFS
331
1576
102
}
  0
BLOCK_RECORD
  5
142D
330
1
100
AcDbSymbolTableRecord
100
AcDbBlockTableRecord
  2
ABR10525-Top
340
0
102
{BLKREFS
331
1577
102
}
  0
BLOCK_RECORD
  5
145F
330
1
100
AcDbSymbolTableRecord
100
AcDbBlockTableRecord
  2
ABR10525-Bottom
340
0
102
{BLKREFS
331
1578
102
}
  0
BLOCK_RECORD
  5
14A2
330
1
100
AcDbSymbolTableRecord
100
AcDbBlockTableRecord
  2
ABR10525-ISO
340
0
102
{BLKREFS
331
1579
102
}
  0
ENDTAB
  0
ENDSEC
  0
SECTION
  2
BLOCKS
  0
BLOCK
  5
20
330
1F
100
AcDbEntity
  8
0
100
AcDbBlockBegin
  2
*Model_Space
 70
     0
 10
0.0
 20
0.0
 30
0.0
  3
*Model_Space
  1

  0
ENDBLK
  5
21
330
1F
100
AcDbEntity
  8
0
100
AcDbBlockEnd
  0
BLOCK
  5
D4
330
D2
100
AcDbEntity
 67
     1
  8
0
100
AcDbBlockBegin
  2
*Paper_Space
 70
     0
 10
0.0
 20
0.0
 30
0.0
  3
*Paper_Space
  1

  0
ENDBLK
  5
D5
330
D2
100
AcDbEntity
 67
     1
  8
0
100
AcDbBlockEnd
  0
BLOCK
  5
D8
330
D6
100
AcDbEntity
 67
     1
  8
0
100
AcDbBlockBegin
  2
*Paper_Space0
 70
     0
 10
0.0
 20
0.0
 30
0.0
  3
*Paper_Space0
  1

  0
ENDBLK
  5
D9
330
D6
100
AcDbEntity
 67
     1
  8
0
100
AcDbBlockEnd
  0
BLOCK
  5
13B0
330
13AF
100
AcDbEntity
  8
0
100
AcDbBlockBegin
  2
ABR10525-Front
 70
     0
 10
0.0
 20
0.0
 30
0.0
  3
ABR10525-Front
  1

  0
SPLINE
  5
13B2
330
13AF
100
AcDbEntity
  8
0
100
AcDbSpline
210
0.0
220
0.0
230
1.0
 70
     8
 71
     3
 72
    12
 73
     8
 74
     0
 42
0.000000001
 43
0.0000000001
 40
-0.4036241174808692
 40
-0.4036241174808692
 40
-0.4036241174808692
 40
-0.4036241174808692
 40
-0.1688853194199304
 40
-0.1688853194199304
 40
-0.0917288763206305
 40
-0.0917288763206305
 40
0.0
 40
0.0
 40
0.0
 40
0.0
 10
-2.655674093407991
 20
6.135958331045983
 30
0.0
 10
-2.017292467569281
 20
6.187353575504541
 30
0.0
 10
-0.7238938836554363
 20
6.658974357158673
 30
0.0
 10
0.8879496040757855
 20
6.495883534127794
 30
0.0
 10
1.265288315034577
 20
6.415264730842409
 30
0.0
 10
1.993902321633848
 20
6.249477437915212
 30
0.0
 10
2.350897304171536
 20
6.160495499651971
 30
0.0
 10
2.65567409340804
 20
6.13595833104609
 30
0.0
  0
LINE
  5
13B3
330
13AF
100
AcDbEntity
  8
0
100
AcDbLine
 10
2.655674093408028
 20
59.03062424925431
 30
0.0
 11
-2.655674093408001
 21
59.03062424925431
 31
0.0
  0
LINE
  5
13B4
330
13AF
100
AcDbEntity
  8
0
100
AcDbLine
 10
8.155711229775242
 20
6.000000000000021
 30
0.0
 11
-8.155711229775228
 21
6.000000000000021
 31
0.0
  0
ARC
  5
13B5
330
13AF
100
AcDbEntity
  8
0
100
AcDbCircle
 10
-14.49999999999998
 20
5.000000000000019
 30
0.0
 40
2.5
100
AcDbArc
 50
270.0
 51
327.769047364498
  0
ARC
  5
13B6
330
13AF
100
AcDbEntity
  8
0
100
AcDbCircle
 10
14.5
 20
5.000000000000019
 30
0.0
 40
2.5
100
AcDbArc
 50
212.230952635502
 51
270.0
  0
ARC
  5
13B7
330
13AF
100
AcDbEntity
  8
0
100
AcDbCircle
 10
-8.155711229775226
 20
1.000000000000019
 30
0.0
 40
5.0
100
AcDbArc
 50
90.00000000000003
 51
147.7690473644978
  0
ARC
  5
13B8
330
13AF
100
AcDbEntity
  8
0
100
AcDbCircle
 10
8.155711229775244
 20
1.000000000000019
 30
0.0
 40
5.0
100
AcDbArc
 50
32.23095263550221
 51
90.00000000000003
  0
LINE
  5
13B9
330
13AF
100
AcDbEntity
  8
0
100
AcDbLine
 10
-7.201325732589509
 20
7.454627647729513
 30
0.0
 11
-7.91206806884538
 21
6.000000000000023
 31
0.0
  0
LINE
  5
13BA
330
13AF
100
AcDbEntity
  8
0
100
AcDbLine
 10
7.912068068845364
 20
6.000000000000021
 30
0.0
 11
7.201325732589496
 21
7.454627647729513
 31
0.0
  0
LINE
  5
13BB
330
13AF
100
AcDbEntity
  8
0
100
AcDbLine
 10
8.593303664430107
 20
19.83396382746382
 30
0.0
 11
7.201325732589491
 21
20.23434581489976
 31
0.0
  0
ELLIPSE
  5
13BC
330
13AF
100
AcDbEntity
  8
0
100
AcDbEllipse
 10
-0.0000000000000108
 20
19.74941377130919
 30
0.0
 11
-8.000000000000005
 21
-0.0000000000000003
 31
0.0
210
0.0
220
0.0
230
1.0
 40
0.1391731009600657
 41
5.071668587327443
 42
5.832538824618937
  0
ELLIPSE
  5
13BD
330
13AF
100
AcDbEntity
  8
0
100
AcDbEllipse
 10
-0.0000000000000108
 20
19.74941377130919
 30
0.0
 11
-8.000000000000005
 21
-0.0000000000001151
 31
0.0
210
0.0
220
0.0
230
1.0
 40
0.1391731009600659
 41
3.592239136141902
 42
4.353109373437496
  0
LINE
  5
13BE
330
13AF
100
AcDbEntity
  8
0
100
AcDbLine
 10
-7.20132573258951
 20
20.23434581489976
 30
0.0
 11
-8.593304017928378
 21
19.83396372578525
 31
0.0
  0
LINE
  5
13BF
330
13AF
100
AcDbEntity
  8
0
100
AcDbLine
 10
-35.0
 20
2.499999999999993
 30
0.0
 11
-44.99999999999999
 21
2.499999999999994
 31
0.0
  0
LINE
  5
13C0
330
13AF
100
AcDbEntity
  8
0
100
AcDbLine
 10
45.0
 20
2.499999999999994
 30
0.0
 11
35.00000000000001
 21
2.499999999999993
 31
0.0
  0
LINE
  5
13C1
330
13AF
100
AcDbEntity
  8
0
100
AcDbLine
 10
34.99999999999999
 20
105.0
 30
0.0
 11
44.99999999999999
 21
95.0
 31
0.0
  0
LINE
  5
13C2
330
13AF
100
AcDbEntity
  8
0
100
AcDbLine
 10
-45.0
 20
95.0
 30
0.0
 11
-35.00000000000002
 21
105.0
 31
0.0
  0
LINE
  5
13C3
330
13AF
100
AcDbEntity
  8
0
100
AcDbLine
 10
35.00000000000001
 20
0.0
 30
0.0
 11
45.0
 21
0.0
 31
0.0
  0
LINE
  5
13C4
330
13AF
100
AcDbEntity
  8
0
100
AcDbLine
 10
-44.99999999999999
 20
0.0
 30
0.0
 11
-35.0
 21
0.0
 31
0.0
  0
LINE
  5
13C5
330
13AF
100
AcDbEntity
  8
0
100
AcDbLine
 10
-35.0
 20
0.0
 30
0.0
 11
-35.0
 21
2.499999999999993
 31
0.0
  0
LINE
  5
13C6
330
13AF
100
AcDbEntity
  8
0
100
AcDbLine
 10
35.00000000000001
 20
2.499999999999993
 30
0.0
 11
35.00000000000001
 21
0.0
 31
0.0
  0
LINE
  5
13C7
330
13AF
100
AcDbEntity
  8
0
100
AcDbLine
 10
-35.0
 20
2.499999999999993
 30
0.0
 11
35.00000000000001
 21
2.499999999999993
 31
0.0
  0
LINE
  5
13C8
330
13AF
100
AcDbEntity
  8
0
100
AcDbLine
 10
-35.00000000000002
 20
105.0
 30
0.0
 11
34.99999999999999
 21
105.0
 31
0.0
  0
LINE
  5
13C9
330
13AF
100
AcDbEntity
  8
0
100
AcDbLine
 10
-35.0
 20
0.0
 30
0.0
 11
35.00000000000001
 21
0.0
 31
0.0
  0
CIRCLE
  5
13CA
330
13AF
100
AcDbEntity
  8
0
100
AcDbCircle
 10
-0.0000000000000103
 20
88.0
 30
0.0
 40
7.0
  0
CIRCLE
  5
13CB
330
13AF
100
AcDbEntity
  8
0
100
AcDbCircle
 10
34.04850813333154
 20
47.5
 30
0.0
 40
2.5
  0
CIRCLE
  5
13CC
330
13AF
100
AcDbEntity
  8
0
100
AcDbCircle
 10
25.35784478100773
 20
85.0
 30
0.0
 40
2.5
  0
CIRCLE
  5
13CD
330
13AF
100
AcDbEntity
  8
0
100
AcDbCircle
 10
-17.53040371904951
 20
30.0
 30
0.0
 40
2.5
  0
CIRCLE
  5
13CE
330
13AF
100
AcDbEntity
  8
0
100
AcDbCircle
 10
-24.83009316593451
 20
80.0
 30
0.0
 40
2.5
  0
CIRCLE
  5
13CF
330
13AF
100
AcDbEntity
  8
0
100
AcDbCircle
 10
-33.00532608077074
 20
42.5
 30
0.0
 40
2.5
  0
CIRCLE
  5
13D0
330
13AF
100
AcDbEntity
  8
0
100
AcDbCircle
 10
-18.67021738718051
 20
60.0
 30
0.0
 40
2.5
  0
CIRCLE
  5
13D1
330
13AF
100
AcDbEntity
  8
0
100
AcDbCircle
 10
-29.50000000000001
 20
97.5
 30
0.0
 40
2.5
  0
CIRCLE
  5
13D2
330
13AF
100
AcDbEntity
  8
0
100
AcDbCircle
 10
29.49999999999999
 20
97.5
 30
0.0
 40
2.5
  0
CIRCLE
  5
13D3
330
13AF
100
AcDbEntity
  8
0
100
AcDbCircle
 10
19.62054907577864
 20
65.0
 30
0.0
 40
2.5
  0
CIRCLE
  5
13D4
330
13AF
100
AcDbEntity
  8
0
100
AcDbCircle
 10
18.48146702638899
 20
35.0
 30
0.0
 40
2.5
  0
CIRCLE
  5
13D5
330
13AF
100
AcDbEntity
  8
0
100
AcDbCircle
 10
-27.30000000000001
 20
21.5
 30
0.0
 40
5.5
  0
CIRCLE
  5
13D6
330
13AF
100
AcDbEntity
  8
0
100
AcDbCircle
 10
27.29999999999999
 20
21.5
 30
0.0
 40
5.5
  0
ARC
  5
13D7
330
13AF
100
AcDbEntity
  8
0
100
AcDbCircle
 10
-1141.113836491467
 20
94.99999999953804
 30
0.0
 40
1186.113836491467
100
AcDbArc
 50
355.6483256081564
 51
0.0
  0
LINE
  5
13D8
330
13AF
100
AcDbEntity
  8
0
100
AcDbLine
 10
-45.0
 20
95.0
 30
0.0
 11
-41.58055899559477
 21
4.99999999967942
 31
0.0
  0
SPLINE
  5
13D9
330
13AF
100
AcDbEntity
  8
0
100
AcDbSpline
210
0.0
220
0.0
230
1.0
 70
     8
 71
     3
 72
     8
 73
     4
 74
     0
 42
0.000000001
 43
0.0000000001
 40
0.0
 40
0.0
 40
0.0
 40
0.0
 40
0.2953311408323228
 40
0.2953311408323228
 40
0.2953311408323228
 40
0.2953311408323228
 10
41.58055899559464
 20
4.999999999358847
 30
0.0
 10
41.53827810505593
 20
4.228312155592124
 30
0.0
 10
41.50848407815533
 20
3.47632880068684
 30
0.0
 10
41.49117691489291
 20
2.79971822255509
 30
0.0
  0
SPLINE
  5
13DA
330
13AF
100
AcDbEntity
  8
0
100
AcDbSpline
210
0.0
220
0.0
230
1.0
 70
     8
 71
     3
 72
     8
 73
     4
 74
     0
 42
0.000000001
 43
0.0000000001
 40
0.7047917928593078
 40
0.7047917928593078
 40
0.7047917928593078
 40
0.7047917928593078
 40
1.0
 40
1.0
 40
1.0
 40
1.0
 10
-41.53587876483054
 20
2.798901479254388
 30
0.0
 10
-41.5445339399297
 20
3.475383015620628
 30
0.0
 10
-41.55942735018439
 20
4.227518277089876
 30
0.0
 10
-41.5805589955947
 20
4.99999999935884
 30
0.0
  0
SPLINE
  5
13DB
330
13AF
100
AcDbEntity
  8
0
100
AcDbSpline
210
0.0
220
0.0
230
1.0
 70
     8
 71
     3
 72
     8
 73
     4
 74
     0
 42
0.000000001
 43
0.0000000001
 40
-1.0
 40
-1.0
 40
-1.0
 40
-1.0
 40
0.0
 40
0.0
 40
0.0
 40
0.0
 10
-41.5805589955947
 20
4.999999999679428
 30
0.0
 10
-41.50897682105091
 20
3.69163237374006
 30
0.0
 10
-41.50897682105221
 20
2.499999999999999
 30
0.0
 10
-41.58055899559477
 20
2.5
 30
0.0
  0
SPLINE
  5
13DC
330
13AF
100
AcDbEntity
  8
0
100
AcDbSpline
210
0.0
220
0.0
230
1.0
 70
     8
 71
     3
 72
     8
 73
     4
 74
     0
 42
0.000000001
 43
0.0000000001
 40
-1.0
 40
-1.0
 40
-1.0
 40
-1.0
 40
0.0
 40
0.0
 40
0.0
 40
0.0
 10
41.58055899559467
 20
2.5
 30
0.0
 10
41.43739464651889
 20
2.5
 30
0.0
 10
41.4373946465201
 20
3.693521039160905
 30
0.0
 10
41.58055899559464
 20
4.999999999679423
 30
0.0
  0
LINE
  5
13DD
330
13AF
100
AcDbEntity
  8
0
100
AcDbLine
 10
45.0
 20
0.0
 30
0.0
 11
45.0
 21
2.499999999999994
 31
0.0
  0
LINE
  5
13DE
330
13AF
100
AcDbEntity
  8
0
100
AcDbLine
 10
-44.99999999999999
 20
2.499999999999994
 30
0.0
 11
-44.99999999999999
 21
0.0
 31
0.0
  0
ENDBLK
  5
13B1
330
13AF
100
AcDbEntity
  8
0
100
AcDbBlockEnd
  0
BLOCK
  5
13E0
330
13DF
100
AcDbEntity
  8
0
100
AcDbBlockBegin
  2
ABR10525-Left
 70
     0
 10
0.0
 20
0.0
 30
0.0
  3
ABR10525-Left
  1

  0
LINE
  5
13E2
330
13DF
100
AcDbEntity
  8
0
100
AcDbLine
 10
59.0306242492543
 20
6.135958331045983
 30
0.0
 11
59.0306242492544
 21
6.556012849085719
 31
0.0
  0
LINE
  5
13E3
330
13DF
100
AcDbEntity
  8
0
100
AcDbLine
 10
6.556012849085703
 20
59.03062424925439
 30
0.0
 11
6.13595833104597
 21
59.03062424925431
 31
0.0
  0
SPLINE
  5
13E4
330
13DF
100
AcDbEntity
  8
0
100
AcDbSpline
210
0.0
220
0.0
230
1.0
 70
     8
 71
     3
 72
    10
 73
     6
 74
     0
 42
0.000000001
 43
0.0000000001
 40
0.0
 40
0.0
 40
0.0
 40
0.0
 40
0.401150194809289
 40
0.401150194809289
 40
0.8021880446063082
 40
0.8021880446063082
 40
0.8021880446063082
 40
0.8021880446063082
 10
59.0306242492543
 20
6.562163338809581
 30
0.0
 10
60.36642392779384
 20
6.502811030406502
 30
0.0
 10
61.69794101953026
 20
6.366490917715591
 30
0.0
 10
64.3605163128518
 20
6.120004505451792
 30
0.0
 10
65.69639215001972
 20
6.009202208607402
 30
0.0
 10
67.03062424925429
 20
6.000000000000014
 30
0.0
  0
SPLINE
  5
13E5
330
13DF
100
AcDbEntity
  8
0
100
AcDbSpline
210
0.0
220
0.0
230
1.0
 70
     8
 71
     3
 72
    10
 73
     6
 74
     0
 42
0.000000001
 43
0.0000000001
 40
0.0
 40
0.0
 40
0.0
 40
0.0
 40
0.4010378497970193
 40
0.4010378497970193
 40
0.8021880446063054
 40
0.8021880446063054
 40
0.8021880446063054
 40
0.8021880446063054
 10
6.0
 20
67.03062424925429
 30
0.0
 10
6.009202208607389
 20
65.69639215001972
 30
0.0
 10
6.120004505451777
 20
64.36051631285181
 30
0.0
 10
6.366490917715577
 20
61.69794101953029
 30
0.0
 10
6.502811030406484
 20
60.36642392779386
 30
0.0
 10
6.562163338809564
 20
59.03062424925433
 30
0.0
  0
LINE
  5
13E6
330
13DF
100
AcDbEntity
  8
0
100
AcDbLine
 10
71.75593046842507
 20
6.000000000000015
 30
0.0
 11
67.03062424925429
 21
6.000000000000015
 31
0.0
  0
LINE
  5
13E7
330
13DF
100
AcDbEntity
  8
0
100
AcDbLine
 10
82.14707462693798
 20
6.000000000000019
 30
0.0
 11
71.75593046842507
 21
6.000000000000017
 31
0.0
  0
LINE
  5
13E8
330
13DF
100
AcDbEntity
  8
0
100
AcDbLine
 10
6.000000000000001
 20
82.14707462693798
 30
0.0
 11
6.0
 21
71.75593046842507
 31
0.0
  0
LINE
  5
13E9
330
13DF
100
AcDbEntity
  8
0
100
AcDbLine
 10
6.0
 20
71.75593046842507
 30
0.0
 11
6.0
 21
67.03062424925429
 31
0.0
  0
LINE
  5
13EA
330
13DF
100
AcDbEntity
  8
0
100
AcDbLine
 10
96.15571122977526
 20
6.000000000000023
 30
0.0
 11
82.14707462693798
 21
6.000000000000019
 31
0.0
  0
LINE
  5
13EB
330
13DF
100
AcDbEntity
  8
0
100
AcDbLine
 10
6.0
 20
96.15571122977526
 30
0.0
 11
6.000000000000001
 21
82.14707462693798
 31
0.0
  0
ARC
  5
13EC
330
13DF
100
AcDbEntity
  8
0
100
AcDbCircle
 10
102.5
 20
5.000000000000023
 30
0.0
 40
2.5
100
AcDbArc
 50
212.2309526355018
 51
270.0
  0
ARC
  5
13ED
330
13DF
100
AcDbEntity
  8
0
100
AcDbCircle
 10
96.15571122977526
 20
1.000000000000021
 30
0.0
 40
5.0
100
AcDbArc
 50
32.2309526355021
 51
90.0
  0
ARC
  5
13EE
330
13DF
100
AcDbEntity
  8
0
100
AcDbCircle
 10
5.0
 20
102.5
 30
0.0
 40
2.5
100
AcDbArc
 50
180.0
 51
237.7690473644982
  0
ARC
  5
13EF
330
13DF
100
AcDbEntity
  8
0
100
AcDbCircle
 10
1.0
 20
96.15571122977526
 30
0.0
 40
5.0
100
AcDbArc
 50
0.0
 51
57.7690473644979
  0
LINE
  5
13F0
330
13DF
100
AcDbEntity
  8
0
100
AcDbLine
 10
20.23434581489976
 20
7.454627647729513
 30
0.0
 11
19.83396372578524
 21
4.605761053459194
 31
0.0
  0
LINE
  5
13F1
330
13DF
100
AcDbEntity
  8
0
100
AcDbLine
 10
7.454627647729513
 20
20.23434581489976
 30
0.0
 11
11.42047531374628
 21
20.79170935618428
 31
0.0
  0
LINE
  5
13F2
330
13DF
100
AcDbEntity
  8
0
100
AcDbLine
 10
7.454627647729511
 20
20.23434581489976
 30
0.0
 11
4.605761053459175
 21
19.83396372578525
 31
0.0
  0
LINE
  5
13F3
330
13DF
100
AcDbEntity
  8
0
100
AcDbLine
 10
20.86279857898972
 20
11.92630141728392
 30
0.0
 11
59.03062424925392
 21
6.562163338809633
 31
0.0
  0
LINE
  5
13F4
330
13DF
100
AcDbEntity
  8
0
100
AcDbLine
 10
6.562163338809614
 20
59.03062424925395
 30
0.0
 11
11.92630141728391
 21
20.86279857898972
 31
0.0
  0
LINE
  5
13F5
330
13DF
100
AcDbEntity
  8
0
100
AcDbLine
 10
5.000000000000013
 20
2.499999999999999
 30
0.0
 11
95.00000000000001
 21
2.499999999999994
 31
0.0
  0
LINE
  5
13F6
330
13DF
100
AcDbEntity
  8
0
100
AcDbLine
 10
2.50000000000001
 20
95.0
 30
0.0
 11
2.500000000000009
 21
4.99999999967942
 31
0.0
  0
LINE
  5
13F7
330
13DF
100
AcDbEntity
  8
0
100
AcDbLine
 10
95.00000000000001
 20
0.0
 30
0.0
 11
5.000000000000017
 21
0.0
 31
0.0
  0
LINE
  5
13F8
330
13DF
100
AcDbEntity
  8
0
100
AcDbLine
 10
0.0
 20
4.999999999358845
 30
0.0
 11
0.0
 21
95.0
 31
0.0
  0
SPLINE
  5
13F9
330
13DF
100
AcDbEntity
  8
0
100
AcDbSpline
210
0.0
220
0.0
230
1.0
 70
     8
 71
     3
 72
     8
 73
     4
 74
     0
 42
0.000000001
 43
0.0000000001
 40
0.0
 40
0.0
 40
0.0
 40
0.0
 40
1.0
 40
1.0
 40
1.0
 40
1.0
 10
5.000000000000012
 20
0.0
 30
0.0
 10
2.383264748121311
 20
-0.000000000000001
 30
0.0
 10
0.0000000003355488
 20
2.38326474748012
 30
0.0
 10
0.0000000000000096
 20
4.99999999935884
 30
0.0
  0
SPLINE
  5
13FA
330
13DF
100
AcDbEntity
  8
0
100
AcDbSpline
210
0.0
220
0.0
230
1.0
 70
     8
 71
     3
 72
     8
 73
     4
 74
     0
 42
0.000000001
 43
0.0000000001
 40
-1.0
 40
-1.0
 40
-1.0
 40
-1.0
 40
0.0
 40
0.0
 40
0.0
 40
0.0
 10
2.500000000000009
 20
4.999999999679428
 30
0.0
 10
2.500000000167779
 20
3.69163237374006
 30
0.0
 10
3.691632374060659
 20
2.499999999999999
 30
0.0
 10
5.00000000000001
 20
2.5
 30
0.0
  0
LINE
  5
13FB
330
13DF
100
AcDbEntity
  8
0
100
AcDbLine
 10
0.0
 20
95.0
 30
0.0
 11
2.50000000000001
 21
95.0
 31
0.0
  0
LINE
  5
13FC
330
13DF
100
AcDbEntity
  8
0
100
AcDbLine
 10
95.00000000000001
 20
2.499999999999994
 30
0.0
 11
95.00000000000001
 21
0.0
 31
0.0
  0
LINE
  5
13FD
330
13DF
100
AcDbEntity
  8
0
100
AcDbLine
 10
105.0
 20
2.499999999999993
 30
0.0
 11
95.00000000000001
 21
2.499999999999994
 31
0.0
  0
LINE
  5
13FE
330
13DF
100
AcDbEntity
  8
0
100
AcDbLine
 10
2.50000000000001
 20
95.0
 30
0.0
 11
2.500000000000008
 21
105.0
 31
0.0
  0
LINE
  5
13FF
330
13DF
100
AcDbEntity
  8
0
100
AcDbLine
 10
95.00000000000001
 20
0.0
 30
0.0
 11
105.0
 21
0.0
 31
0.0
  0
LINE
  5
1400
330
13DF
100
AcDbEntity
  8
0
100
AcDbLine
 10
0.0
 20
105.0
 30
0.0
 11
0.0
 21
95.0
 31
0.0
  0
LINE
  5
1401
330
13DF
100
AcDbEntity
  8
0
100
AcDbLine
 10
105.0
 20
0.0
 30
0.0
 11
105.0
 21
2.499999999999993
 31
0.0
  0
LINE
  5
1402
330
13DF
100
AcDbEntity
  8
0
100
AcDbLine
 10
2.500000000000008
 20
105.0
 30
0.0
 11
0.0
 21
105.0
 31
0.0
  0
ARC
  5
1403
330
13DF
100
AcDbEntity
  8
0
100
AcDbCircle
 10
22.32411613907042
 20
22.32411613907042
 30
0.0
 40
10.50000000000001
100
AcDbArc
 50
187.9999999999999
 51
262.0
  0
ENDBLK
  5
13E1
330
13DF
100
AcDbEntity
  8
0
100
AcDbBlockEnd
  0
BLOCK
  5
1405
330
1404
100
AcDbEntity
  8
0
100
AcDbBlockBegin
  2
ABR10525-Right
 70
     0
 10
0.0
 20
0.0
 30
0.0
  3
ABR10525-Right
  1

  0
LINE
  5
1407
330
1404
100
AcDbEntity
  8
0
100
AcDbLine
 10
-59.0306242492544
 20
6.556012849085719
 30
0.0
 11
-59.0306242492543
 21
6.135958331046092
 31
0.0
  0
LINE
  5
1408
330
1404
100
AcDbEntity
  8
0
100
AcDbLine
 10
-6.135958331046076
 20
59.03062424925431
 30
0.0
 11
-6.556012849085703
 21
59.03062424925439
 31
0.0
  0
SPLINE
  5
1409
330
1404
100
AcDbEntity
  8
0
100
AcDbSpline
210
0.0
220
0.0
230
1.0
 70
     8
 71
     3
 72
    10
 73
     6
 74
     0
 42
0.000000001
 43
0.0000000001
 40
0.0
 40
0.0
 40
0.0
 40
0.0
 40
0.4010378497970193
 40
0.4010378497970193
 40
0.8021880446063082
 40
0.8021880446063082
 40
0.8021880446063082
 40
0.8021880446063082
 10
-67.03062424925429
 20
6.000000000000014
 30
0.0
 10
-65.69639215001972
 20
6.009202208607402
 30
0.0
 10
-64.3605163128518
 20
6.120004505451792
 30
0.0
 10
-61.69794101953029
 20
6.36649091771559
 30
0.0
 10
-60.36642392779384
 20
6.502811030406502
 30
0.0
 10
-59.0306242492543
 20
6.562163338809581
 30
0.0
  0
SPLINE
  5
140A
330
1404
100
AcDbEntity
  8
0
100
AcDbSpline
210
0.0
220
0.0
230
1.0
 70
     8
 71
     3
 72
    10
 73
     6
 74
     0
 42
0.000000001
 43
0.0000000001
 40
0.0
 40
0.0
 40
0.0
 40
0.0
 40
0.4011501948092863
 40
0.4011501948092863
 40
0.8021880446063054
 40
0.8021880446063054
 40
0.8021880446063054
 40
0.8021880446063054
 10
-6.562163338809564
 20
59.03062424925433
 30
0.0
 10
-6.502811030406484
 20
60.36642392779385
 30
0.0
 10
-6.366490917715576
 20
61.69794101953027
 30
0.0
 10
-6.120004505451777
 20
64.3605163128518
 30
0.0
 10
-6.009202208607389
 20
65.69639215001972
 30
0.0
 10
-6.0
 20
67.03062424925429
 30
0.0
  0
LINE
  5
140B
330
1404
100
AcDbEntity
  8
0
100
AcDbLine
 10
-71.75593046842506
 20
6.000000000000015
 30
0.0
 11
-67.03062424925429
 21
6.000000000000015
 31
0.0
  0
LINE
  5
140C
330
1404
100
AcDbEntity
  8
0
100
AcDbLine
 10
-82.14707462693798
 20
6.000000000000019
 30
0.0
 11
-71.75593046842506
 21
6.000000000000017
 31
0.0
  0
LINE
  5
140D
330
1404
100
AcDbEntity
  8
0
100
AcDbLine
 10
-6.0
 20
71.75593046842506
 30
0.0
 11
-6.0
 21
67.03062424925429
 31
0.0
  0
LINE
  5
140E
330
1404
100
AcDbEntity
  8
0
100
AcDbLine
 10
-6.0
 20
82.14707462693798
 30
0.0
 11
-6.0
 21
71.75593046842506
 31
0.0
  0
LINE
  5
140F
330
1404
100
AcDbEntity
  8
0
100
AcDbLine
 10
-82.14707462693798
 20
6.000000000000019
 30
0.0
 11
-96.15571122977526
 21
6.000000000000023
 31
0.0
  0
LINE
  5
1410
330
1404
100
AcDbEntity
  8
0
100
AcDbLine
 10
-6.0
 20
82.14707462693798
 30
0.0
 11
-6.0
 21
96.15571122977526
 31
0.0
  0
ARC
  5
1411
330
1404
100
AcDbEntity
  8
0
100
AcDbCircle
 10
-102.5
 20
5.000000000000023
 30
0.0
 40
2.5
100
AcDbArc
 50
270.0
 51
327.7690473644983
  0
ARC
  5
1412
330
1404
100
AcDbEntity
  8
0
100
AcDbCircle
 10
-96.15571122977526
 20
1.000000000000021
 30
0.0
 40
5.0
100
AcDbArc
 50
90.0
 51
147.7690473644979
  0
ARC
  5
1413
330
1404
100
AcDbEntity
  8
0
100
AcDbCircle
 10
-5.0
 20
102.5
 30
0.0
 40
2.5
100
AcDbArc
 50
302.2309526355018
 51
0.0
  0
ARC
  5
1414
330
1404
100
AcDbEntity
  8
0
100
AcDbCircle
 10
-1.0
 20
96.15571122977526
 30
0.0
 40
5.0
100
AcDbArc
 50
122.2309526355021
 51
180.0
  0
LINE
  5
1415
330
1404
100
AcDbEntity
  8
0
100
AcDbLine
 10
-19.83396382746381
 20
4.605761776939846
 30
0.0
 11
-20.23434581489976
 21
7.454627647729513
 31
0.0
  0
LINE
  5
1416
330
1404
100
AcDbEntity
  8
0
100
AcDbLine
 10
-4.605761776939822
 20
19.83396382746382
 30
0.0
 11
-7.454627647729509
 21
20.23434581489976
 31
0.0
  0
LINE
  5
1417
330
1404
100
AcDbEntity
  8
0
100
AcDbLine
 10
-11.42047531374751
 20
20.79170935618446
 30
0.0
 11
-7.454627647729507
 21
20.23434581489976
 31
0.0
  0
LINE
  5
1418
330
1404
100
AcDbEntity
  8
0
100
AcDbLine
 10
-59.03062424925392
 20
6.562163338809633
 30
0.0
 11
-20.86279857898972
 21
11.92630141728392
 31
0.0
  0
LINE
  5
1419
330
1404
100
AcDbEntity
  8
0
100
AcDbLine
 10
-11.92630141728391
 20
20.86279857898972
 30
0.0
 11
-6.562163338809613
 21
59.03062424925394
 31
0.0
  0
LINE
  5
141A
330
1404
100
AcDbEntity
  8
0
100
AcDbLine
 10
-94.99999999999998
 20
2.499999999999994
 30
0.0
 11
-105.0
 21
2.499999999999993
 31
0.0
  0
LINE
  5
141B
330
1404
100
AcDbEntity
  8
0
100
AcDbLine
 10
-2.499999999999992
 20
105.0
 30
0.0
 11
-2.499999999999989
 21
95.0
 31
0.0
  0
LINE
  5
141C
330
1404
100
AcDbEntity
  8
0
100
AcDbLine
 10
-105.0
 20
0.0
 30
0.0
 11
-94.99999999999998
 21
0.0
 31
0.0
  0
LINE
  5
141D
330
1404
100
AcDbEntity
  8
0
100
AcDbLine
 10
0.0
 20
95.0
 30
0.0
 11
0.0
 21
105.0
 31
0.0
  0
LINE
  5
141E
330
1404
100
AcDbEntity
  8
0
100
AcDbLine
 10
-105.0
 20
2.499999999999993
 30
0.0
 11
-105.0
 21
0.0
 31
0.0
  0
LINE
  5
141F
330
1404
100
AcDbEntity
  8
0
100
AcDbLine
 10
0.0
 20
105.0
 30
0.0
 11
-2.499999999999992
 21
105.0
 31
0.0
  0
LINE
  5
1420
330
1404
100
AcDbEntity
  8
0
100
AcDbLine
 10
-5.000000000000159
 20
2.500000000000005
 30
0.0
 11
-94.99999999999985
 21
2.5
 31
0.0
  0
LINE
  5
1421
330
1404
100
AcDbEntity
  8
0
100
AcDbLine
 10
-2.499999999999989
 20
94.99999999999978
 30
0.0
 11
-2.49999999999999
 21
4.99999999967871
 31
0.0
  0
LINE
  5
1422
330
1404
100
AcDbEntity
  8
0
100
AcDbLine
 10
-94.99999999999985
 20
0.0
 30
0.0
 11
-5.000000000000159
 21
0.0
 31
0.0
  0
LINE
  5
1423
330
1404
100
AcDbEntity
  8
0
100
AcDbLine
 10
0.0
 20
4.999999999359925
 30
0.0
 11
0.0
 21
94.99999999999978
 31
0.0
  0
SPLINE
  5
1424
330
1404
100
AcDbEntity
  8
0
100
AcDbSpline
210
0.0
220
0.0
230
1.0
 70
     8
 71
     3
 72
     8
 73
     4
 74
     0
 42
0.000000001
 43
0.0000000001
 40
0.0
 40
0.0
 40
0.0
 40
0.0
 40
0.9999999999999998
 40
0.9999999999999998
 40
0.9999999999999998
 40
0.9999999999999998
 10
0.0000000000000096
 20
4.999999999358847
 30
0.0
 10
-0.0000000003350512
 20
2.38704207832181
 30
0.0
 10
-2.387042078963091
 20
0.0000000000000018
 30
0.0
 10
-4.999999999999987
 20
0.0000000000000003
 30
0.0
  0
LINE
  5
1425
330
1404
100
AcDbEntity
  8
0
100
AcDbLine
 10
-2.499999999999989
 20
95.0
 30
0.0
 11
0.0
 21
95.0
 31
0.0
  0
LINE
  5
1426
330
1404
100
AcDbEntity
  8
0
100
AcDbLine
 10
-2.49999999999999
 20
4.999999999679423
 30
0.0
 11
-1.399999999982635
 21
4.99999999953837
 31
0.0
  0
LINE
  5
1427
330
1404
100
AcDbEntity
  8
0
100
AcDbLine
 10
-1.399999999982635
 20
4.99999999953837
 30
0.0
 11
0.0
 21
4.999999999358847
 31
0.0
  0
SPLINE
  5
1428
330
1404
100
AcDbEntity
  8
0
100
AcDbSpline
210
0.0
220
0.0
230
1.0
 70
     8
 71
     3
 72
     8
 73
     4
 74
     0
 42
0.000000001
 43
0.0000000001
 40
-1.0
 40
-1.0
 40
-1.0
 40
-1.0
 40
0.0
 40
0.0
 40
0.0
 40
0.0
 10
-4.999999999999989
 20
2.5
 30
0.0
 10
-3.693521039481541
 20
2.5
 30
0.0
 10
-2.500000000167521
 20
3.693521039160905
 30
0.0
 10
-2.49999999999999
 20
4.999999999679423
 30
0.0
  0
LINE
  5
1429
330
1404
100
AcDbEntity
  8
0
100
AcDbLine
 10
-4.999999999999993
 20
2.499999999999999
 30
0.0
 11
-4.999999999999993
 21
1.399999999951382
 31
0.0
  0
LINE
  5
142A
330
1404
100
AcDbEntity
  8
0
100
AcDbLine
 10
-4.999999999999993
 20
1.399999999951382
 30
0.0
 11
-4.999999999999993
 21
0.0
 31
0.0
  0
LINE
  5
142B
330
1404
100
AcDbEntity
  8
0
100
AcDbLine
 10
-94.99999999999998
 20
0.0
 30
0.0
 11
-94.99999999999998
 21
2.499999999999994
 31
0.0
  0
ARC
  5
142C
330
1404
100
AcDbEntity
  8
0
100
AcDbCircle
 10
-22.32411613907042
 20
22.32411613907042
 30
0.0
 40
10.50000000000001
100
AcDbArc
 50
278.0
 51
352.0
  0
ENDBLK
  5
1406
330
1404
100
AcDbEntity
  8
0
100
AcDbBlockEnd
  0
BLOCK
  5
142E
330
142D
100
AcDbEntity
  8
0
100
AcDbBlockBegin
  2
ABR10525-Top
 70
     0
 10
0.0
 20
0.0
 30
0.0
  3
ABR10525-Top
  1

  0
LINE
  5
1430
330
142D
100
AcDbEntity
  8
0
100
AcDbLine
 10
-2.655674093407991
 20
-59.0306242492543
 30
0.0
 11
2.65567409340804
 21
-59.0306242492543
 31
0.0
  0
SPLINE
  5
1431
330
142D
100
AcDbEntity
  8
0
100
AcDbSpline
210
0.0
220
0.0
230
1.0
 70
     8
 71
     3
 72
    12
 73
     8
 74
     0
 42
0.000000001
 43
0.0000000001
 40
-0.4036241174808291
 40
-0.4036241174808291
 40
-0.4036241174808291
 40
-0.4036241174808291
 40
-0.1688853194199066
 40
-0.1688853194199066
 40
-0.0917288763206145
 40
-0.0917288763206145
 40
0.0
 40
0.0
 40
0.0
 40
0.0
 10
2.655674093408028
 20
-6.135958331046076
 30
0.0
 10
2.017292467569279
 20
-6.187353575504623
 30
0.0
 10
0.7238938836553667
 20
-6.658974357158713
 30
0.0
 10
-0.887949604075951
 20
-6.49588353412772
 30
0.0
 10
-1.265288315034748
 20
-6.415264730842306
 30
0.0
 10
-1.993902321633959
 20
-6.24947743791508
 30
0.0
 10
-2.350897304171551
 20
-6.160495499651851
 30
0.0
 10
-2.655674093408002
 20
-6.135958331045969
 30
0.0
  0
CIRCLE
  5
1432
330
142D
100
AcDbEntity
  8
0
100
AcDbCircle
 10
0.0000000000000079
 20
-88.0
 30
0.0
 40
7.0
  0
LINE
  5
1433
330
142D
100
AcDbEntity
  8
0
100
AcDbLine
 10
-7.201325732589509
 20
-20.23434581489976
 30
0.0
 11
-8.593304017928364
 21
-19.83396372578524
 31
0.0
  0
LINE
  5
1434
330
142D
100
AcDbEntity
  8
0
100
AcDbLine
 10
8.593303664430099
 20
-19.83396382746381
 30
0.0
 11
7.201325732589496
 21
-20.23434581489976
 31
0.0
  0
LINE
  5
1435
330
142D
100
AcDbEntity
  8
0
100
AcDbLine
 10
7.912068068845371
 20
-5.999999999999998
 30
0.0
 11
7.201325732589491
 21
-7.454627647729509
 31
0.0
  0
ELLIPSE
  5
1436
330
142D
100
AcDbEntity
  8
0
100
AcDbEllipse
 10
-0.0000000000000108
 20
-4.004156867351351
 30
0.0
 11
-8.000000000000005
 21
-0.0000000000000661
 31
0.0
210
0.0
220
0.0
230
1.0
 40
0.9902680687415703
 41
0.4506464825606429
 42
1.211516719852134
  0
ELLIPSE
  5
1437
330
142D
100
AcDbEntity
  8
0
100
AcDbEllipse
 10
-0.0000000000000108
 20
-4.004156867351351
 30
0.0
 11
-8.000000000000005
 21
0.0000000000007883
 31
0.0
210
0.0
220
0.0
230
1.0
 40
0.9902680687415703
 41
1.930075933737306
 42
2.690946171029244
  0
LINE
  5
1438
330
142D
100
AcDbEntity
  8
0
100
AcDbLine
 10
-7.20132573258951
 20
-7.454627647729511
 30
0.0
 11
-7.91206806884539
 21
-6.000000000000003
 31
0.0
  0
CIRCLE
  5
1439
330
142D
100
AcDbEntity
  8
0
100
AcDbCircle
 10
-29.49999999999999
 20
-95.0
 30
0.0
 40
2.5
  0
CIRCLE
  5
143A
330
142D
100
AcDbEntity
  8
0
100
AcDbCircle
 10
-31.21429191992173
 20
-48.0
 30
0.0
 40
2.5
  0
CIRCLE
  5
143B
330
142D
100
AcDbEntity
  8
0
100
AcDbCircle
 10
-25.58739440244745
 20
-31.50000000000001
 30
0.0
 40
2.5
  0
CIRCLE
  5
143C
330
142D
100
AcDbEntity
  8
0
100
AcDbCircle
 10
-34.05548135731777
 20
-17.50000000000002
 30
0.0
 40
2.5
  0
CIRCLE
  5
143D
330
142D
100
AcDbEntity
  8
0
100
AcDbCircle
 10
-17.02432297523255
 20
-42.99999999999998
 30
0.0
 40
2.5
  0
CIRCLE
  5
143E
330
142D
100
AcDbEntity
  8
0
100
AcDbCircle
 10
-28.26520185952033
 20
-62.5
 30
0.0
 40
2.5
  0
CIRCLE
  5
143F
330
142D
100
AcDbEntity
  8
0
100
AcDbCircle
 10
-19.05548135731776
 20
-17.5
 30
0.0
 40
2.5
  0
CIRCLE
  5
1440
330
142D
100
AcDbEntity
  8
0
100
AcDbCircle
 10
17.02432297523255
 20
-42.99999999999998
 30
0.0
 40
2.5
  0
CIRCLE
  5
1441
330
142D
100
AcDbEntity
  8
0
100
AcDbCircle
 10
34.05548135731775
 20
-17.50000000000001
 30
0.0
 40
2.5
  0
CIRCLE
  5
1442
330
142D
100
AcDbEntity
  8
0
100
AcDbCircle
 10
19.05548135731775
 20
-17.5
 30
0.0
 40
2.5
  0
CIRCLE
  5
1443
330
142D
100
AcDbEntity
  8
0
100
AcDbCircle
 10
25.58739440244745
 20
-31.5
 30
0.0
 40
2.5
  0
CIRCLE
  5
1444
330
142D
100
AcDbEntity
  8
0
100
AcDbCircle
 10
31.21429191992172
 20
-47.99999999999998
 30
0.0
 40
2.5
  0
CIRCLE
  5
1445
330
142D
100
AcDbEntity
  8
0
100
AcDbCircle
 10
29.50000000000001
 20
-95.0
 30
0.0
 40
2.5
  0
CIRCLE
  5
1446
330
142D
100
AcDbEntity
  8
0
100
AcDbCircle
 10
28.26520185952033
 20
-62.5
 30
0.0
 40
2.5
  0
LINE
  5
1447
330
142D
100
AcDbEntity
  8
0
100
AcDbLine
 10
-41.58055899559482
 20
-5.000000000000012
 30
0.0
 11
-44.99999999999999
 21
-95.00000000000001
 31
0.0
  0
ARC
  5
1448
330
142D
100
AcDbEntity
  8
0
100
AcDbCircle
 10
-1141.113836491458
 20
-94.99999999999992
 30
0.0
 40
1186.113836491458
100
AcDbArc
 50
0.0
 51
4.35167439185041
  0
SPLINE
  5
1449
330
142D
100
AcDbEntity
  8
0
100
AcDbSpline
210
0.0
220
0.0
230
1.0
 70
     8
 71
     3
 72
     8
 73
     4
 74
     0
 42
0.000000001
 43
0.0000000001
 40
0.7046688591186944
 40
0.7046688591186944
 40
0.7046688591186944
 40
0.7046688591186944
 40
0.9999999999999998
 40
0.9999999999999998
 40
0.9999999999999998
 40
0.9999999999999998
 10
41.49117691488401
 20
-2.799718222786677
 30
0.0
 10
41.50848407814507
 20
-3.476328801051898
 30
0.0
 10
41.5382781050486
 20
-4.228312156105316
 30
0.0
 10
41.58055899559467
 20
-4.999999999999987
 30
0.0
  0
SPLINE
  5
144A
330
142D
100
AcDbEntity
  8
0
100
AcDbSpline
210
0.0
220
0.0
230
1.0
 70
     8
 71
     3
 72
     8
 73
     4
 74
     0
 42
0.000000001
 43
0.0000000001
 40
0.0
 40
0.0
 40
0.0
 40
0.0
 40
0.2952082071899011
 40
0.2952082071899011
 40
0.2952082071899011
 40
0.2952082071899011
 10
-41.58055899559477
 20
-5.00000000000001
 30
0.0
 10
-41.5594273501813
 20
-4.227518277602285
 30
0.0
 10
-41.5445339399252
 20
-3.475383015984423
 30
0.0
 10
-41.53587876482657
 20
-2.798901479484464
 30
0.0
  0
SPLINE
  5
144B
330
142D
100
AcDbEntity
  8
0
100
AcDbSpline
210
0.0
220
0.0
230
1.0
 70
     8
 71
     3
 72
     8
 73
     4
 74
     0
 42
0.000000001
 43
0.0000000001
 40
-1.0
 40
-1.0
 40
-1.0
 40
-1.0
 40
0.0
 40
0.0
 40
0.0
 40
0.0
 10
-41.5805589955947
 20
-2.500000000000009
 30
0.0
 10
-41.50897682105091
 20
-2.500000000167779
 30
0.0
 10
-41.50897682105221
 20
-3.691632374060659
 30
0.0
 10
-41.58055899559477
 20
-5.000000000000009
 30
0.0
  0
LINE
  5
144C
330
142D
100
AcDbEntity
  8
0
100
AcDbLine
 10
44.99999999999999
 20
-2.49999999999999
 30
0.0
 11
44.99999999999999
 21
0.0
 31
0.0
  0
SPLINE
  5
144D
330
142D
100
AcDbEntity
  8
0
100
AcDbSpline
210
0.0
220
0.0
230
1.0
 70
     8
 71
     3
 72
     8
 73
     4
 74
     0
 42
0.000000001
 43
0.0000000001
 40
-1.0
 40
-1.0
 40
-1.0
 40
-1.0
 40
0.0
 40
0.0
 40
0.0
 40
0.0
 10
41.58055899559467
 20
-4.999999999999989
 30
0.0
 10
41.43739464651889
 20
-3.693521039481541
 30
0.0
 10
41.4373946465201
 20
-2.500000000167521
 30
0.0
 10
41.58055899559464
 20
-2.49999999999999
 30
0.0
  0
LINE
  5
144E
330
142D
100
AcDbEntity
  8
0
100
AcDbLine
 10
-45.0
 20
0.0
 30
0.0
 11
-45.0
 21
-2.500000000000009
 31
0.0
  0
LINE
  5
144F
330
142D
100
AcDbEntity
  8
0
100
AcDbLine
 10
-35.0
 20
-105.0
 30
0.0
 11
-44.99999999999999
 21
-95.00000000000001
 31
0.0
  0
LINE
  5
1450
330
142D
100
AcDbEntity
  8
0
100
AcDbLine
 10
45.0
 20
-94.99999999999998
 30
0.0
 11
35.00000000000001
 21
-105.0
 31
0.0
  0
LINE
  5
1451
330
142D
100
AcDbEntity
  8
0
100
AcDbLine
 10
34.99999999999999
 20
-2.499999999999992
 30
0.0
 11
44.99999999999999
 21
-2.49999999999999
 31
0.0
  0
LINE
  5
1452
330
142D
100
AcDbEntity
  8
0
100
AcDbLine
 10
-45.0
 20
-2.500000000000009
 30
0.0
 11
-35.00000000000002
 21
-2.500000000000007
 31
0.0
  0
LINE
  5
1453
330
142D
100
AcDbEntity
  8
0
100
AcDbLine
 10
-35.00000000000002
 20
0.0
 30
0.0
 11
-45.0
 21
0.0
 31
0.0
  0
LINE
  5
1454
330
142D
100
AcDbEntity
  8
0
100
AcDbLine
 10
44.99999999999999
 20
0.0
 30
0.0
 11
34.99999999999999
 21
0.0
 31
0.0
  0
LINE
  5
1455
330
142D
100
AcDbEntity
  8
0
100
AcDbLine
 10
34.99999999999999
 20
0.0
 30
0.0
 11
34.99999999999999
 21
-2.499999999999992
 31
0.0
  0
LINE
  5
1456
330
142D
100
AcDbEntity
  8
0
100
AcDbLine
 10
-35.00000000000002
 20
-2.500000000000007
 30
0.0
 11
-35.00000000000002
 21
0.0
 31
0.0
  0
LINE
  5
1457
330
142D
100
AcDbEntity
  8
0
100
AcDbLine
 10
-35.0
 20
-105.0
 30
0.0
 11
35.00000000000001
 21
-105.0
 31
0.0
  0
LINE
  5
1458
330
142D
100
AcDbEntity
  8
0
100
AcDbLine
 10
-35.00000000000002
 20
-2.500000000000007
 30
0.0
 11
34.99999999999999
 21
-2.499999999999992
 31
0.0
  0
LINE
  5
1459
330
142D
100
AcDbEntity
  8
0
100
AcDbLine
 10
34.99999999999999
 20
0.0
 30
0.0
 11
-35.00000000000002
 21
0.0
 31
0.0
  0
LINE
  5
145A
330
142D
100
AcDbEntity
  8
0
100
AcDbLine
 10
8.155711229775224
 20
-5.999999999999998
 30
0.0
 11
-8.155711229775246
 21
-6.000000000000003
 31
0.0
  0
ARC
  5
145B
330
142D
100
AcDbEntity
  8
0
100
AcDbCircle
 10
14.49999999999998
 20
-4.999999999999996
 30
0.0
 40
2.499999999999999
100
AcDbArc
 50
90.00000000000005
 51
147.769047364498
  0
ARC
  5
145C
330
142D
100
AcDbEntity
  8
0
100
AcDbCircle
 10
-14.5
 20
-5.000000000000003
 30
0.0
 40
2.5
100
AcDbArc
 50
32.23095263550199
 51
90.0
  0
ARC
  5
145D
330
142D
100
AcDbEntity
  8
0
100
AcDbCircle
 10
8.155711229775224
 20
-0.9999999999999991
 30
0.0
 40
5.0
100
AcDbArc
 50
270.0
 51
327.7690473644979
  0
ARC
  5
145E
330
142D
100
AcDbEntity
  8
0
100
AcDbCircle
 10
-8.155711229775246
 20
-1.000000000000002
 30
0.0
 40
5.0
100
AcDbArc
 50
212.2309526355022
 51
270.0000000000001
  0
ENDBLK
  5
142F
330
142D
100
AcDbEntity
  8
0
100
AcDbBlockEnd
  0
BLOCK
  5
1460
330
145F
100
AcDbEntity
  8
0
100
AcDbBlockBegin
  2
ABR10525-Bottom
 70
     0
 10
0.0
 20
0.0
 30
0.0
  3
ABR10525-Bottom
  1

  0
LINE
  5
1462
330
145F
100
AcDbEntity
  8
0
100
AcDbLine
 10
2.444425189580488
 20
59.03062424925431
 30
0.0
 11
-2.444425189580412
 21
59.0306242492543
 31
0.0
  0
LINE
  5
1463
330
145F
100
AcDbEntity
  8
0
100
AcDbLine
 10
-8.298499039868476
 20
0.0
 30
0.0
 11
-8.787800001071138
 21
0.0
 31
0.0
  0
SPLINE
  5
1464
330
145F
100
AcDbEntity
  8
0
100
AcDbSpline
210
0.0
220
0.0
230
1.0
 70
     8
 71
     3
 72
    10
 73
     6
 74
     0
 42
0.000000001
 43
0.0000000001
 40
-0.2339213170976109
 40
-0.2339213170976109
 40
-0.2339213170976109
 40
-0.2339213170976109
 40
-0.0926071932670816
 40
-0.0926071932670816
 40
0.0
 40
0.0
 40
0.0
 40
0.0
 10
-2.444425189580426
 20
3.767893043147487
 30
0.0
 10
-2.133846698587706
 20
3.810032312525486
 30
0.0
 10
-1.023463179617787
 20
3.92901361568222
 30
0.0
 10
1.362122125582319
 20
3.884085482837519
 30
0.0
 10
2.138537257669288
 20
3.809395897775626
 30
0.0
 10
2.444425189580476
 20
3.767893043147535
 30
0.0
  0
LINE
  5
1465
330
145F
100
AcDbEntity
  8
0
100
AcDbLine
 10
1.942354779338111
 20
3.5
 30
0.0
 11
-1.942354779338134
 21
3.500000000000001
 31
0.0
  0
LINE
  5
1466
330
145F
100
AcDbEntity
  8
0
100
AcDbLine
 10
8.787800001072323
 20
0.0
 30
0.0
 11
8.298499039868454
 21
0.0
 31
0.0
  0
LINE
  5
1467
330
145F
100
AcDbEntity
  8
0
100
AcDbLine
 10
4.950911441155271
 20
20.08280455127771
 30
0.0
 11
6.042100606987565
 21
19.76894003023117
 31
0.0
  0
ELLIPSE
  5
1468
330
145F
100
AcDbEntity
  8
0
100
AcDbEllipse
 10
-0.0000000000000073
 20
19.7494137713092
 30
0.0
 11
5.500000000000001
 21
-0.000000000000081
 31
0.0
210
0.0
220
0.0
230
1.0
 40
0.1391731009600656
 41
2.40986578889901
 42
2.690946171037715
  0
ELLIPSE
  5
1469
330
145F
100
AcDbEntity
  8
0
100
AcDbEllipse
 10
-0.0000000000000073
 20
19.7494137713092
 30
0.0
 11
5.5
 21
-0.0000000000000821
 31
0.0
210
0.0
220
0.0
230
1.0
 40
0.1391731009600659
 41
0.731726864703985
 42
2.409865788897635
  0
ELLIPSE
  5
146A
330
145F
100
AcDbEntity
  8
0
100
AcDbEllipse
 10
-0.0000000000000073
 20
19.7494137713092
 30
0.0
 11
5.5
 21
-0.0000000000000001
 31
0.0
210
0.0
220
0.0
230
1.0
 40
0.1391731009600659
 41
0.4506464825606518
 42
0.7317268646981621
  0
LINE
  5
146B
330
145F
100
AcDbEntity
  8
0
100
AcDbLine
 10
-6.042100606986061
 20
19.76894003023161
 30
0.0
 11
-4.950911441155286
 21
20.08280455127771
 31
0.0
  0
LINE
  5
146C
330
145F
100
AcDbEntity
  8
0
100
AcDbLine
 10
6.04210060698757
 20
4.143093418876207
 30
0.0
 11
4.950911441155271
 21
6.376355528861333
 31
0.0
  0
LINE
  5
146D
330
145F
100
AcDbEntity
  8
0
100
AcDbLine
 10
11.22476087113053
 20
0.0
 30
0.0
 11
8.787800001072323
 21
0.0
 31
0.0
  0
LINE
  5
146E
330
145F
100
AcDbEntity
  8
0
100
AcDbLine
 10
-8.787800001072344
 20
0.0
 30
0.0
 11
-11.2247608251353
 21
0.0
 31
0.0
  0
LINE
  5
146F
330
145F
100
AcDbEntity
  8
0
100
AcDbLine
 10
-4.950911441155291
 20
6.376355528861336
 30
0.0
 11
-6.042100606986075
 21
4.14309341887931
 31
0.0
  0
ELLIPSE
  5
1470
330
145F
100
AcDbEntity
  8
0
100
AcDbEllipse
 10
-0.0000000000000108
 20
4.004156867351351
 30
0.0
 11
-5.5
 21
-0.0000000000005781
 31
0.0
210
0.0
220
0.0
230
1.0
 40
0.9902680687415703
 41
3.592239136150334
 42
3.873319518287845
  0
ELLIPSE
  5
1471
330
145F
100
AcDbEntity
  8
0
100
AcDbEllipse
 10
-0.0000000000000108
 20
4.004156867351351
 30
0.0
 11
-5.5
 21
-0.0000000000005185
 31
0.0
210
0.0
220
0.0
230
1.0
 40
0.9902680687415703
 41
3.873319518287857
 42
5.551458442481504
  0
ELLIPSE
  5
1472
330
145F
100
AcDbEntity
  8
0
100
AcDbEllipse
 10
-0.0000000000000108
 20
4.004156867351351
 30
0.0
 11
-5.5
 21
-0.0000000000000183
 31
0.0
210
0.0
220
0.0
230
1.0
 40
0.9902680687415703
 41
5.551458442481598
 42
5.83253882461893
  0
CIRCLE
  5
1473
330
145F
100
AcDbEntity
  8
0
100
AcDbCircle
 10
0.0000000000000079
 20
88.0
 30
0.0
 40
7.0
  0
LINE
  5
1474
330
145F
100
AcDbEntity
  8
0
100
AcDbLine
 10
8.298499039868454
 20
0.0
 30
0.0
 11
7.98579806275865
 21
0.0
 31
0.0
  0
LINE
  5
1475
330
145F
100
AcDbEntity
  8
0
100
AcDbLine
 10
7.972741651711716
 20
0.0
 30
0.0
 11
7.985798062758648
 21
0.0
 31
0.0
  0
ARC
  5
1476
330
145F
100
AcDbEntity
  8
0
100
AcDbCircle
 10
7.972741651711717
 20
4.999999999999998
 30
0.0
 40
5.0
100
AcDbArc
 50
212.230952635502
 51
270.0
  0
ARC
  5
1477
330
145F
100
AcDbEntity
  8
0
100
AcDbCircle
 10
1.628452881486959
 20
1.0
 30
0.0
 40
2.5
100
AcDbArc
 50
32.23095263550213
 51
90.00000000000005
  0
LINE
  5
1478
330
145F
100
AcDbEntity
  8
0
100
AcDbLine
 10
-7.985798062758673
 20
0.0
 30
0.0
 11
-8.298499039868476
 21
0.0
 31
0.0
  0
LINE
  5
1479
330
145F
100
AcDbEntity
  8
0
100
AcDbLine
 10
-7.985798062758671
 20
0.0
 30
0.0
 11
-7.972741651711741
 21
0.0
 31
0.0
  0
ARC
  5
147A
330
145F
100
AcDbEntity
  8
0
100
AcDbCircle
 10
-1.628452881486981
 20
1.000000000000001
 30
0.0
 40
2.5
100
AcDbArc
 50
90.00000000000003
 51
147.7690473644978
  0
ARC
  5
147B
330
145F
100
AcDbEntity
  8
0
100
AcDbCircle
 10
-7.972741651711737
 20
5.000000000000001
 30
0.0
 40
5.0
100
AcDbArc
 50
270.0
 51
327.7690473644979
  0
LINE
  5
147C
330
145F
100
AcDbEntity
  8
0
100
AcDbLine
 10
45.0
 20
2.499999999999989
 30
0.0
 11
41.58055899560551
 21
2.49999999999999
 31
0.0
  0
LINE
  5
147D
330
145F
100
AcDbEntity
  8
0
100
AcDbLine
 10
-45.0
 20
2.500000000000009
 30
0.0
 11
-41.58055899559477
 21
2.500000000000009
 31
0.0
  0
ARC
  5
147E
330
145F
100
AcDbEntity
  8
0
100
AcDbCircle
 10
-1141.113836491458
 20
94.99999999999992
 30
0.0
 40
1186.113836491458
100
AcDbArc
 50
355.6483256081496
 51
0.0
  0
LINE
  5
147F
330
145F
100
AcDbEntity
  8
0
100
AcDbLine
 10
-44.99999999999999
 20
95.00000000000001
 30
0.0
 11
-41.58055899559482
 21
5.000000000000017
 31
0.0
  0
LINE
  5
1480
330
145F
100
AcDbEntity
  8
0
100
AcDbLine
 10
-41.58055899559477
 20
0.0
 30
0.0
 11
-45.0
 21
0.0
 31
0.0
  0
LINE
  5
1481
330
145F
100
AcDbEntity
  8
0
100
AcDbLine
 10
41.58055899558115
 20
0.0
 30
0.0
 11
44.99999999999985
 21
0.0
 31
0.0
  0
SPLINE
  5
1482
330
145F
100
AcDbEntity
  8
0
100
AcDbSpline
210
0.0
220
0.0
230
1.0
 70
     8
 71
     3
 72
     8
 73
     4
 74
     0
 42
0.000000001
 43
0.0000000001
 40
0.0
 40
0.0
 40
0.0
 40
0.0
 40
0.9999999999999998
 40
0.9999999999999998
 40
0.9999999999999998
 40
0.9999999999999998
 10
41.58055899559464
 20
-0.0000000000000092
 30
0.0
 10
41.4373946465201
 20
0.0000000003350515
 30
0.0
 10
41.43739464651889
 20
2.387042078963091
 30
0.0
 10
41.58055899559467
 20
4.999999999999987
 30
0.0
  0
SPLINE
  5
1483
330
145F
100
AcDbEntity
  8
0
100
AcDbSpline
210
0.0
220
0.0
230
1.0
 70
     8
 71
     3
 72
     8
 73
     4
 74
     0
 42
0.000000001
 43
0.0000000001
 40
0.0
 40
0.0
 40
0.0
 40
0.0
 40
1.0
 40
1.0
 40
1.0
 40
1.0
 10
-41.58055899559477
 20
5.00000000000001
 30
0.0
 10
-41.50897682105221
 20
2.38326474812131
 30
0.0
 10
-41.50897682105091
 20
0.0000000003355485
 30
0.0
 10
-41.5805589955947
 20
0.0000000000000092
 30
0.0
  0
SPLINE
  5
1484
330
145F
100
AcDbEntity
  8
0
100
AcDbSpline
210
0.0
220
0.0
230
1.0
 70
     8
 71
     3
 72
     8
 73
     4
 74
     0
 42
0.000000001
 43
0.0000000001
 40
-1.0
 40
-1.0
 40
-1.0
 40
-1.0
 40
-0.7047917928106912
 40
-0.7047917928106912
 40
-0.7047917928106912
 40
-0.7047917928106912
 10
-41.5805589955947
 20
2.500000000000009
 30
0.0
 10
-41.55942735018093
 20
2.500000000049536
 30
0.0
 10
-41.5445339399248
 20
2.603848241872094
 30
0.0
 10
-41.53587876482627
 20
2.783891093298828
 30
0.0
  0
LINE
  5
1485
330
145F
100
AcDbEntity
  8
0
100
AcDbLine
 10
44.99999999999999
 20
2.49999999999999
 30
0.0
 11
44.99999999999999
 21
0.0
 31
0.0
  0
LINE
  5
1486
330
145F
100
AcDbEntity
  8
0
100
AcDbLine
 10
41.58055899559474
 20
2.49999999999999
 30
0.0
 11
41.58055899559464
 21
1.399999999982636
 31
0.0
  0
LINE
  5
1487
330
145F
100
AcDbEntity
  8
0
100
AcDbLine
 10
41.58055899559464
 20
1.399999999982636
 30
0.0
 11
41.58055899559474
 21
0.0
 31
0.0
  0
SPLINE
  5
1488
330
145F
100
AcDbEntity
  8
0
100
AcDbSpline
210
0.0
220
0.0
230
1.0
 70
     8
 71
     3
 72
     8
 73
     4
 74
     0
 42
0.000000001
 43
0.0000000001
 40
-0.2953311408812133
 40
-0.2953311408812133
 40
-0.2953311408812133
 40
-0.2953311408812133
 40
0.0
 40
0.0
 40
0.0
 40
0.0
 10
41.49117691488432
 20
2.784464299881536
 30
0.0
 10
41.50848407814547
 20
2.604099481334464
 30
0.0
 10
41.53827810504894
 20
2.500000000049467
 30
0.0
 10
41.58055899559464
 20
2.49999999999999
 30
0.0
  0
LINE
  5
1489
330
145F
100
AcDbEntity
  8
0
100
AcDbLine
 10
-45.0
 20
0.0
 30
0.0
 11
-45.0
 21
2.500000000000009
 31
0.0
  0
LINE
  5
148A
330
145F
100
AcDbEntity
  8
0
100
AcDbLine
 10
11.22476087113053
 20
0.0
 30
0.0
 11
11.23191828415592
 21
0.0
 31
0.0
  0
LINE
  5
148B
330
145F
100
AcDbEntity
  8
0
100
AcDbLine
 10
11.23191828415592
 20
0.0
 30
0.0
 11
14.56763477847172
 21
0.0
 31
0.0
  0
SPLINE
  5
148C
330
145F
100
AcDbEntity
  8
0
100
AcDbSpline
210
0.0
220
0.0
230
1.0
 70
     8
 71
     3
 72
     8
 73
     4
 74
     0
 42
0.000000001
 43
0.0000000001
 40
0.0
 40
0.0
 40
0.0
 40
0.0
 40
0.0007157715329243
 40
0.0007157715329243
 40
0.0007157715329243
 40
0.0007157715329243
 10
-11.23191828415639
 20
0.0000000000000025
 30
0.0
 10
-11.22953237904664
 20
0.0000000000000025
 30
0.0
 10
-11.22714655805503
 20
0.0000016951599516
 30
0.0
 10
-11.22476082293849
 20
0.0000050850410269
 30
0.0
  0
LINE
  5
148D
330
145F
100
AcDbEntity
  8
0
100
AcDbLine
 10
-14.56763477847174
 20
0.0
 30
0.0
 11
-11.23191828415594
 21
0.0
 31
0.0
  0
LINE
  5
148E
330
145F
100
AcDbEntity
  8
0
100
AcDbLine
 10
35.00000000000001
 20
105.0
 30
0.0
 11
45.0
 21
94.99999999999998
 31
0.0
  0
LINE
  5
148F
330
145F
100
AcDbEntity
  8
0
100
AcDbLine
 10
-44.99999999999999
 20
95.00000000000001
 30
0.0
 11
-35.0
 21
105.0
 31
0.0
  0
LINE
  5
1490
330
145F
100
AcDbEntity
  8
0
100
AcDbLine
 10
-35.0
 20
105.0
 30
0.0
 11
35.00000000000001
 21
105.0
 31
0.0
  0
CIRCLE
  5
1491
330
145F
100
AcDbEntity
  8
0
100
AcDbCircle
 10
19.05548135731775
 20
17.5
 30
0.0
 40
2.5
  0
CIRCLE
  5
1492
330
145F
100
AcDbEntity
  8
0
100
AcDbCircle
 10
25.58739440244745
 20
31.5
 30
0.0
 40
2.5
  0
CIRCLE
  5
1493
330
145F
100
AcDbEntity
  8
0
100
AcDbCircle
 10
31.21429191992172
 20
47.99999999999998
 30
0.0
 40
2.5
  0
CIRCLE
  5
1494
330
145F
100
AcDbEntity
  8
0
100
AcDbCircle
 10
28.26520185952033
 20
62.5
 30
0.0
 40
2.5
  0
CIRCLE
  5
1495
330
145F
100
AcDbEntity
  8
0
100
AcDbCircle
 10
34.05548135731775
 20
17.50000000000001
 30
0.0
 40
2.5
  0
CIRCLE
  5
1496
330
145F
100
AcDbEntity
  8
0
100
AcDbCircle
 10
17.02432297523255
 20
42.99999999999998
 30
0.0
 40
2.5
  0
CIRCLE
  5
1497
330
145F
100
AcDbEntity
  8
0
100
AcDbCircle
 10
29.50000000000001
 20
95.0
 30
0.0
 40
2.5
  0
CIRCLE
  5
1498
330
145F
100
AcDbEntity
  8
0
100
AcDbCircle
 10
-19.05548135731776
 20
17.5
 30
0.0
 40
2.5
  0
CIRCLE
  5
1499
330
145F
100
AcDbEntity
  8
0
100
AcDbCircle
 10
-34.05548135731777
 20
17.50000000000002
 30
0.0
 40
2.5
  0
CIRCLE
  5
149A
330
145F
100
AcDbEntity
  8
0
100
AcDbCircle
 10
-28.26520185952033
 20
62.5
 30
0.0
 40
2.5
  0
CIRCLE
  5
149B
330
145F
100
AcDbEntity
  8
0
100
AcDbCircle
 10
-25.58739440244745
 20
31.50000000000001
 30
0.0
 40
2.5
  0
CIRCLE
  5
149C
330
145F
100
AcDbEntity
  8
0
100
AcDbCircle
 10
-31.21429191992173
 20
48.0
 30
0.0
 40
2.5
  0
CIRCLE
  5
149D
330
145F
100
AcDbEntity
  8
0
100
AcDbCircle
 10
-17.02432297523255
 20
42.99999999999998
 30
0.0
 40
2.5
  0
CIRCLE
  5
149E
330
145F
100
AcDbEntity
  8
0
100
AcDbCircle
 10
-29.49999999999999
 20
95.0
 30
0.0
 40
2.5
  0
LINE
  5
149F
330
145F
100
AcDbEntity
  8
0
100
AcDbLine
 10
-41.58055899559477
 20
0.0
 30
0.0
 11
-14.56763477847174
 21
0.0
 31
0.0
  0
LINE
  5
14A0
330
145F
100
AcDbEntity
  8
0
100
AcDbLine
 10
14.56763477847172
 20
0.0
 30
0.0
 11
41.58055899559474
 21
0.0
 31
0.0
  0
LINE
  5
14A1
330
145F
100
AcDbEntity
  8
0
100
AcDbLine
 10
-7.972741651711729
 20
0.0
 30
0.0
 11
7.972741651711714
 21
0.0
 31
0.0
  0
ENDBLK
  5
1461
330
145F
100
AcDbEntity
  8
0
100
AcDbBlockEnd
  0
BLOCK
  5
14A3
330
14A2
100
AcDbEntity
  8
0
100
AcDbBlockBegin
  2
ABR10525-ISO
 70
     0
 10
0.0
 20
0.0
 30
0.0
  3
ABR10525-ISO
  1

  0
SPLINE
  5
14A5
330
14A2
100
AcDbEntity
  8
0
100
AcDbSpline
210
0.0
220
0.0
230
1.0
 70
     8
 71
     3
 72
    12
 73
     8
 74
     0
 42
0.000000001
 43
0.0000000001
 40
-0.2556778983031157
 40
-0.2556778983031157
 40
-0.2556778983031157
 40
-0.2556778983031157
 40
-0.1767341585067296
 40
-0.1767341585067296
 40
-0.0977251216662313
 40
-0.0977251216662313
 40
0.0
 40
0.0
 40
0.0
 40
0.0
 10
0.0477524250534955
 20
-45.21281026140943
 30
0.0
 10
0.1452639700348124
 20
-45.45210826743835
 30
0.0
 10
0.2673010286155408
 20
-45.68658673368694
 30
0.0
 10
0.55120663256095
 20
-46.12864984494182
 30
0.0
 10
0.7113791615694476
 20
-46.33351637933714
 30
0.0
 10
1.096858403176859
 20
-46.7384232724174
 30
0.0
 10
1.325030319775444
 20
-46.92206802903289
 30
0.0
 10
1.555370640517019
 20
-47.05505507521827
 30
0.0
  0
SPLINE
  5
14A6
330
14A2
100
AcDbEntity
  8
0
100
AcDbSpline
210
0.0
220
0.0
230
1.0
 70
     8
 71
     3
 72
     8
 73
     4
 74
     0
 42
0.000000001
 43
0.0000000001
 40
-1.0
 40
-1.0
 40
-1.0
 40
-1.0
 40
0.0
 40
0.0
 40
0.0
 40
0.0
 10
0.0477524250535133
 20
-45.21281026140941
 30
0.0
 10
-1.947062723817198
 20
-46.25144716128068
 30
0.0
 10
-3.944868552125133
 20
-47.2817628187918
 30
0.0
 10
-5.94562920629071
 20
-48.30374409747861
 30
0.0
  0
ELLIPSE
  5
14A7
330
14A2
100
AcDbEntity
  8
0
100
AcDbEllipse
 10
-4.447471636683704
 20
-48.08004366567605
 30
0.0
 11
-1.254671705435777
 21
2.165063516525017
 31
0.0
210
0.0
220
0.0
230
0.9999999999999998
 40
0.5773482568584586
 41
1.346067472300331
 42
2.354327554551375
  0
LINE
  5
14A8
330
14A2
100
AcDbEntity
  8
0
100
AcDbLine
 10
1.555370640517019
 20
-47.05505507521827
 30
0.0
 11
-4.447471636683713
 21
-50.12128511799535
 31
0.0
  0
SPLINE
  5
14A9
330
14A2
100
AcDbEntity
  8
0
100
AcDbSpline
210
0.0
220
0.0
230
1.0
 70
     8
 71
     3
 72
    12
 73
     8
 74
     0
 42
0.000000001
 43
0.0000000001
 40
-0.2600476964919756
 40
-0.2600476964919756
 40
-0.2600476964919756
 40
-0.2600476964919756
 40
-0.1887482548537181
 40
-0.1887482548537181
 40
-0.1202824262932871
 40
-0.1202824262932871
 40
0.0
 40
0.0
 40
0.0
 40
0.0
 10
-2.780697171882122
 20
-41.58287761081034
 30
0.0
 10
-2.534807229266804
 20
-41.74770099661408
 30
0.0
 10
-2.214339377276588
 20
-41.98550151759967
 30
0.0
 10
-1.514532485004242
 20
-42.66360639180533
 30
0.0
 10
-1.193193113918185
 20
-43.04204734454348
 30
0.0
 10
-0.3903304116300221
 20
-44.18761899576138
 30
0.0
 10
-0.1008158332325992
 20
-44.84821663323252
 30
0.0
 10
0.0477524250535
 20
-45.21281026140942
 30
0.0
  0
SPLINE
  5
14AA
330
14A2
100
AcDbEntity
  8
0
100
AcDbSpline
210
0.0
220
0.0
230
1.0
 70
     8
 71
     3
 72
     8
 73
     4
 74
     0
 42
0.000000001
 43
0.0000000001
 40
-1.0
 40
-1.0
 40
-1.0
 40
-1.0
 40
0.0
 40
0.0
 40
0.0
 40
0.0
 10
-2.780697171882109
 20
-41.58287761081034
 30
0.0
 10
-4.880892061450761
 20
-42.61486745893769
 30
0.0
 10
-6.935986011924524
 20
-43.64402582198273
 30
0.0
 10
-8.941944345504669
 20
-44.6686620564451
 30
0.0
  0
ELLIPSE
  5
14AB
330
14A2
100
AcDbEntity
  8
0
100
AcDbEllipse
 10
-8.941944345504669
 20
-48.75114496108374
 30
0.0
 11
2.509343410871814
 21
-4.330127033049885
 31
0.0
210
0.0
220
0.0
230
1.0
 40
0.5773482568584586
 41
1.346067472300226
 42
2.354327554551142
  0
SPLINE
  5
14AC
330
14A2
100
AcDbEntity
  8
0
100
AcDbSpline
210
0.0
220
0.0
230
1.0
 70
     8
 71
     3
 72
    12
 73
     8
 74
     0
 42
0.000000001
 43
0.0000000001
 40
-0.4036241174808692
 40
-0.4036241174808692
 40
-0.4036241174808692
 40
-0.4036241174808692
 40
-0.1688853194199304
 40
-0.1688853194199304
 40
-0.0917288763206305
 40
-0.0917288763206305
 40
0.0
 40
0.0
 40
0.0
 40
0.0
 10
-6.536387492022606
 20
-39.41452879348445
 30
0.0
 10
-6.08498351540716
 20
-39.63318295952029
 30
0.0
 10
-5.170412605944689
 20
-39.77613396457649
 30
0.0
 10
-4.030667145558566
 20
-40.56732941232347
 30
0.0
 10
-3.763848384235779
 20
-40.78720227323945
 30
0.0
 10
-3.248640479301942
 20
-41.22002245367795
 30
0.0
 10
-2.99620690629951
 20
-41.43841849335913
 30
0.0
 10
-2.780697171882118
 20
-41.58287761081034
 30
0.0
  0
SPLINE
  5
14AD
330
14A2
100
AcDbEntity
  8
0
100
AcDbSpline
210
0.0
220
0.0
230
1.0
 70
     8
 71
     3
 72
     8
 73
     4
 74
     0
 42
0.000000001
 43
0.0000000001
 40
0.0
 40
0.0
 40
0.0
 40
0.0
 40
1.0
 40
1.0
 40
1.0
 40
1.0
 10
-6.536387492022597
 20
-39.41452879348445
 30
0.0
 10
-8.196050345931013
 20
-40.70085993098681
 30
0.0
 10
-9.914126800019943
 20
-41.92459543629123
 30
0.0
 10
-11.68884881738483
 20
-43.0827360201669
 30
0.0
  0
LINE
  5
14AE
330
14A2
100
AcDbEntity
  8
0
100
AcDbLine
 10
-8.941944345504669
 20
-44.6686620564451
 30
0.0
 11
-11.68884881738485
 21
-43.0827360201669
 31
0.0
  0
SPLINE
  5
14AF
330
14A2
100
AcDbEntity
  8
0
100
AcDbSpline
210
0.0
220
0.0
230
1.0
 70
     8
 71
     3
 72
     8
 73
     4
 74
     0
 42
0.000000001
 43
0.0000000001
 40
-0.2344572487415472
 40
-0.2344572487415472
 40
-0.2344572487415472
 40
-0.2344572487415472
 40
-0.2329340614749872
 40
-0.2329340614749872
 40
-0.2329340614749872
 40
-0.2329340614749872
 10
-8.923052846383502
 20
-39.35296289946601
 30
0.0
 10
-8.918671509460761
 20
-39.34998461385627
 30
0.0
 10
-8.914260119683103
 20
-39.34701588771088
 30
0.0
 10
-8.909818504742105
 20
-39.34405734372839
 30
0.0
  0
SPLINE
  5
14B0
330
14A2
100
AcDbEntity
  8
0
100
AcDbSpline
210
0.0
220
0.0
230
1.0
 70
     8
 71
     3
 72
    12
 73
     8
 74
     0
 42
0.000000001
 43
0.0000000001
 40
-0.2329340614749872
 40
-0.2329340614749872
 40
-0.2329340614749872
 40
-0.2329340614749872
 40
-0.226355156423213
 40
-0.226355156423213
 40
-0.1368814446779747
 40
-0.1368814446779747
 40
0.0
 40
0.0
 40
0.0
 40
0.0
 10
-8.909818504742116
 20
-39.34405734372839
 30
0.0
 10
-8.890634413846076
 20
-39.33127888872182
 30
0.0
 10
-8.87088646553899
 20
-39.31869038431824
 30
0.0
 10
-8.574129535838718
 20
-39.13840290744565
 30
0.0
 10
-8.2537341145064
 20
-39.05319665265287
 30
0.0
 10
-7.357468370072912
 20
-39.05571608407654
 30
0.0
 10
-6.857979611892335
 20
-39.25875378835259
 30
0.0
 10
-6.536387492022606
 20
-39.41452879348445
 30
0.0
  0
ELLIPSE
  5
14B1
330
14A2
100
AcDbEntity
  8
0
100
AcDbEllipse
 10
-11.68884881738485
 20
-47.16521892480553
 30
0.0
 11
-2.509343410871812
 21
4.330127033049886
 31
0.0
210
0.0
220
0.0
230
0.9999999999999998
 40
0.5773482568584586
 41
5.495920208140933
 42
6.311296431785891
  0
ELLIPSE
  5
14B2
330
14A2
100
AcDbEntity
  8
0
100
AcDbEllipse
 10
-11.68884881738485
 20
-47.16521892480553
 30
0.0
 11
-2.509343410871812
 21
4.330127033049886
 31
0.0
210
0.0
220
0.0
230
0.9999999999999998
 40
0.5773482568584586
 41
0.0281111246063048
 42
0.0306001954289086
  0
SPLINE
  5
14B3
330
14A2
100
AcDbEntity
  8
0
100
AcDbSpline
210
0.0
220
0.0
230
1.0
 70
     8
 71
     3
 72
    10
 73
     6
 74
     0
 42
0.000000001
 43
0.0000000001
 40
-0.2556772356334578
 40
-0.2556772356334578
 40
-0.2556772356334578
 40
-0.2556772356334578
 40
-0.1764415218394295
 40
-0.1764415218394295
 40
-0.1364209335770801
 40
-0.1364209335770801
 40
-0.1364209335770801
 40
-0.1364209335770801
 10
-10.87245530442177
 20
-39.87984642046605
 30
0.0
 10
-10.68569110118462
 20
-39.98767478348001
 30
0.0
 10
-10.50008055731883
 20
-40.06070881496405
 30
0.0
 10
-10.23287501522384
 20
-40.11423001462989
 30
0.0
 10
-10.14581319744188
 20
-40.12252122860899
 30
0.0
 10
-10.06217225938421
 20
-40.12114786644047
 30
0.0
  0
LINE
  5
14B4
330
14A2
100
AcDbEntity
  8
0
100
AcDbLine
 10
-16.1833215262058
 20
-43.34558902511074
 30
0.0
 11
-10.87245530442178
 21
-39.87984642046605
 31
0.0
  0
ELLIPSE
  5
14B5
330
14A2
100
AcDbEntity
  8
0
100
AcDbEllipse
 10
-16.18332152620581
 20
-41.30434757279142
 30
0.0
 11
1.254671705435776
 21
-2.165063516525016
 31
0.0
210
0.0
220
0.0
230
1.0
 40
0.5773482568584587
 41
5.495920208141175
 42
5.983003950856298
  0
SPLINE
  5
14B6
330
14A2
100
AcDbEntity
  8
0
100
AcDbSpline
210
0.0
220
0.0
230
1.0
 70
     8
 71
     3
 72
    12
 73
     8
 74
     0
 42
0.000000001
 43
0.0000000001
 40
-0.2556676480359354
 40
-0.2556676480359354
 40
-0.2556676480359354
 40
-0.2556676480359354
 40
-0.1764383997829751
 40
-0.1764383997829751
 40
-0.0972786505545278
 40
-0.0972786505545278
 40
0.0
 40
0.0
 40
0.0
 40
0.0
 10
41.5285583918734
 20
22.18053705062092
 30
0.0
 10
41.34179743403461
 20
22.28836353990326
 30
0.0
 10
41.12663514720595
 20
22.37846043201974
 30
0.0
 10
40.65583719346132
 20
22.51645974856076
 30
0.0
 10
40.40309047355113
 20
22.56356276908324
 30
0.0
 10
39.82193474654815
 20
22.61581955648582
 30
0.0
 10
39.49475720203965
 20
22.60842605444237
 30
0.0
 10
39.17931847539306
 20
22.56505031751608
 30
0.0
  0
LINE
  5
14B7
330
14A2
100
AcDbEntity
  8
0
100
AcDbLine
 10
41.18257036416505
 20
28.91226597897653
 30
0.0
 11
41.5285583918734
 21
22.18053705062092
 31
0.0
  0
ELLIPSE
  5
14B8
330
14A2
100
AcDbEntity
  8
0
100
AcDbEllipse
 10
39.41480341119869
 20
27.89164525281687
 30
0.0
 11
2.502335858835423
 21
-0.0040458120545706
 31
0.0
210
0.0
220
0.0
230
1.0
 40
0.5773482568584586
 41
0.7872650990386561
 42
1.795525181289573
  0
SPLINE
  5
14B9
330
14A2
100
AcDbEntity
  8
0
100
AcDbSpline
210
0.0
220
0.0
230
1.0
 70
     8
 71
     3
 72
     8
 73
     4
 74
     0
 42
0.000000001
 43
0.0000000001
 40
-1.0
 40
-1.0
 40
-1.0
 40
-1.0
 40
0.0
 40
0.0
 40
0.0
 40
0.0
 10
39.17931847539306
 20
22.56505031751606
 30
0.0
 10
39.08139684155413
 20
24.81192936222776
 30
0.0
 10
38.97477346072166
 20
27.05723779012661
 30
0.0
 10
38.85945488317375
 20
29.30093798286976
 30
0.0
  0
SPLINE
  5
14BA
330
14A2
100
AcDbEntity
  8
0
100
AcDbSpline
210
0.0
220
0.0
230
1.0
 70
     8
 71
     3
 72
    12
 73
     8
 74
     0
 42
0.000000001
 43
0.0000000001
 40
-0.3074473543169228
 40
-0.3074473543169228
 40
-0.3074473543169228
 40
-0.3074473543169228
 40
-0.226355203152224
 40
-0.226355203152224
 40
-0.1368814708546271
 40
-0.1368814708546271
 40
0.0
 40
0.0
 40
0.0
 40
0.0
 10
39.17931847539306
 20
22.56505031751607
 30
0.0
 10
38.91421471160489
 20
22.52859610263826
 30
0.0
 10
38.50666662221048
 20
22.48123552903249
 30
0.0
 10
37.43896078577423
 20
22.47328477741014
 30
0.0
 10
36.88457689352735
 20
22.52317183966814
 30
0.0
 10
35.54236024415057
 20
22.78316118218309
 30
0.0
 10
34.96896292201686
 20
23.02887001278428
 30
0.0
 10
34.62147978747986
 20
23.19959319648664
 30
0.0
  0
ELLIPSE
  5
14BB
330
14A2
100
AcDbEntity
  8
0
100
AcDbEllipse
 10
37.74875782712392
 20
32.11952344297553
 30
0.0
 11
-5.004671717670846
 21
0.0080916241088425
 31
0.0
210
0.0
220
0.0
230
1.0
 40
0.5773482568584587
 41
0.7872650990384109
 42
1.795525181289451
  0
SPLINE
  5
14BC
330
14A2
100
AcDbEntity
  8
0
100
AcDbSpline
210
0.0
220
0.0
230
1.0
 70
     8
 71
     3
 72
     8
 73
     4
 74
     0
 42
0.000000001
 43
0.0000000001
 40
-1.0
 40
-1.0
 40
-1.0
 40
-1.0
 40
0.0
 40
0.0
 40
0.0
 40
0.0
 10
34.62147978747986
 20
23.19959319648662
 30
0.0
 10
34.46511176762147
 20
25.53441024781499
 30
0.0
 10
34.3288420792988
 20
27.82875299761152
 30
0.0
 10
34.21322392119118
 20
30.07828199065621
 30
0.0
  0
SPLINE
  5
14BD
330
14A2
100
AcDbEntity
  8
0
100
AcDbSpline
210
0.0
220
0.0
230
1.0
 70
     8
 71
     3
 72
    12
 73
     8
 74
     0
 42
0.000000001
 43
0.0000000001
 40
-0.4036241174808291
 40
-0.4036241174808291
 40
-0.4036241174808291
 40
-0.4036241174808291
 40
-0.1688853194199066
 40
-0.1688853194199066
 40
-0.0917288763206145
 40
-0.0917288763206145
 40
0.0
 40
0.0
 40
0.0
 40
0.0
 10
34.62147978747986
 20
23.19959319648664
 30
0.0
 10
34.13373388498701
 20
23.43922938321068
 30
0.0
 10
32.8856767226683
 20
23.77471876612447
 30
0.0
 10
31.86125388919662
 20
24.49933266417883
 30
0.0
 10
31.65144123036772
 20
24.68629303647457
 30
0.0
 10
31.25346264449732
 20
25.0514308379949
 30
0.0
 10
31.06394880344447
 20
25.23350015349765
 30
0.0
 10
30.86578946733946
 20
25.36794201381268
 30
0.0
  0
LINE
  5
14BE
330
14A2
100
AcDbEntity
  8
0
100
AcDbLine
 10
31.466319449311
 20
31.66420802693443
 30
0.0
 11
34.21322392119118
 21
30.07828199065621
 31
0.0
  0
SPLINE
  5
14BF
330
14A2
100
AcDbEntity
  8
0
100
AcDbSpline
210
0.0
220
0.0
230
1.0
 70
     8
 71
     3
 72
     8
 73
     4
 74
     0
 42
0.000000001
 43
0.0000000001
 40
0.0
 40
0.0
 40
0.0
 40
0.0
 40
1.0
 40
1.0
 40
1.0
 40
1.0
 10
30.86578946733946
 20
25.36794201381264
 30
0.0
 10
31.14995348314122
 20
27.44841777576591
 30
0.0
 10
31.35070129120338
 20
29.54818338330302
 30
0.0
 10
31.46631944931101
 20
31.66420802693441
 30
0.0
  0
SPLINE
  5
14C0
330
14A2
100
AcDbEntity
  8
0
100
AcDbSpline
210
0.0
220
0.0
230
1.0
 70
     8
 71
     3
 72
    12
 73
     8
 74
     0
 42
0.000000001
 43
0.0000000001
 40
-0.2600476143968477
 40
-0.2600476143968477
 40
-0.2600476143968477
 40
-0.2600476143968477
 40
-0.1887482013734456
 40
-0.1887482013734456
 40
-0.1202824010143328
 40
-0.1202824010143328
 40
-0.0742187420141997
 40
-0.0742187420141997
 40
-0.0742187420141997
 40
-0.0742187420141997
 10
30.86578946733945
 20
25.36794201381268
 30
0.0
 10
30.63969581596789
 20
25.52133600318141
 30
0.0
 10
30.36493535094623
 20
25.73274735357117
 30
0.0
 10
29.90248108245812
 20
26.27381661717499
 30
0.0
 10
29.74821150558768
 20
26.55579976734842
 30
0.0
 10
29.61945188360767
 20
27.04398958410724
 30
0.0
 10
29.60771044833109
 20
27.22584358937258
 30
0.0
 10
29.61815526125449
 20
27.38815545138689
 30
0.0
  0
SPLINE
  5
14C1
330
14A2
100
AcDbEntity
  8
0
100
AcDbSpline
210
0.0
220
0.0
230
1.0
 70
     8
 71
     3
 72
     8
 73
     4
 74
     0
 42
0.000000001
 43
0.0000000001
 40
-0.0742187420141997
 40
-0.0742187420141997
 40
-0.0742187420141997
 40
-0.0742187420141997
 40
-0.0727073417625283
 40
-0.0727073417625283
 40
-0.0727073417625283
 40
-0.0727073417625283
 10
29.61815526125449
 20
27.38815545138689
 30
0.0
 10
29.61849796726664
 20
27.3934810853991
 30
0.0
 10
29.61886455831932
 20
27.3987856809338
 30
0.0
 10
29.61925440355908
 20
27.40406905972817
 30
0.0
  0
ELLIPSE
  5
14C2
330
14A2
100
AcDbEntity
  8
0
100
AcDbEllipse
 10
35.00185335524374
 20
33.70544947925374
 30
0.0
 11
5.004671717670846
 21
-0.0080916241088416
 31
0.0
210
0.0
220
0.0
230
1.0
 40
0.5773482568584586
 41
3.110992458160507
 42
3.113481528983111
  0
ELLIPSE
  5
14C3
330
14A2
100
AcDbEntity
  8
0
100
AcDbEllipse
 10
35.00185335524374
 20
33.70544947925374
 30
0.0
 11
5.004671717670846
 21
-0.0080916241088416
 31
0.0
210
0.0
220
0.0
230
1.0
 40
0.5773482568584586
 41
3.113481528983111
 42
3.928857752628205
  0
SPLINE
  5
14C4
330
14A2
100
AcDbEntity
  8
0
100
AcDbSpline
210
0.0
220
0.0
230
1.0
 70
     8
 71
     3
 72
    10
 73
     6
 74
     0
 42
0.000000001
 43
0.0000000001
 40
-0.1193470195973475
 40
-0.1193470195973475
 40
-0.1193470195973475
 40
-0.1193470195973475
 40
-0.0977264366913933
 40
-0.0977264366913933
 40
0.0
 40
0.0
 40
0.0
 40
0.0
 10
29.7148475263794
 20
28.77467079651213
 30
0.0
 10
29.69288446396081
 20
28.81419690721431
 30
0.0
 10
29.66795933685371
 20
28.85320637216573
 30
0.0
 10
29.51429393718315
 20
29.0650639716694
 30
0.0
 10
29.33107586722023
 20
29.2227568696652
 30
0.0
 10
29.10073244693461
 20
29.35574570537315
 30
0.0
  0
ELLIPSE
  5
14C5
330
14A2
100
AcDbEntity
  8
0
100
AcDbEllipse
 10
27.67895352167659
 20
34.66734134570149
 30
0.0
 11
-2.502335858835422
 21
0.0040458120545701
 31
0.0
210
0.0
220
0.0
230
1.0
 40
0.5773482568584586
 41
3.441774009913434
 42
3.928857752628442
  0
LINE
  5
14C6
330
14A2
100
AcDbEntity
  8
0
100
AcDbLine
 10
29.10073244693461
 20
29.35574570537315
 30
0.0
 11
29.44672047464296
 21
35.68796207186115
 31
0.0
  0
SPLINE
  5
14C7
330
14A2
100
AcDbEntity
  8
0
100
AcDbSpline
210
0.0
220
0.0
230
1.0
 70
     8
 71
     3
 72
     8
 73
     4
 74
     0
 42
0.000000001
 43
0.0000000001
 40
0.0
 40
0.0
 40
0.0
 40
0.0
 40
0.8012765033350069
 40
0.8012765033350069
 40
0.8012765033350069
 40
0.8012765033350069
 10
-14.26746911883385
 20
-42.87752373974979
 30
0.0
 10
-12.51696287015107
 20
-41.74589788929072
 30
0.0
 10
-10.74782721690616
 20
-40.59351276085243
 30
0.0
 10
-8.923051758464342
 20
-39.35296468145416
 30
0.0
  0
SPLINE
  5
14C8
330
14A2
100
AcDbEntity
  8
0
100
AcDbSpline
210
0.0
220
0.0
230
1.0
 70
     8
 71
     3
 72
     8
 73
     4
 74
     0
 42
0.000000001
 43
0.0000000001
 40
0.0
 40
0.0
 40
0.0
 40
0.0
 40
0.801276503335006
 40
0.801276503335006
 40
0.801276503335006
 40
0.801276503335006
 10
29.61914124913891
 20
27.40407184284062
 30
0.0
 10
29.78109967129292
 20
29.60464778575275
 30
0.0
 10
29.8945266408414
 20
31.71295676842277
 30
0.0
 10
29.99929025057674
 20
33.794752574495
 30
0.0
  0
LINE
  5
14C9
330
14A2
100
AcDbEntity
  8
0
100
AcDbLine
 10
-9.685034218102149
 20
-50.21381860216379
 30
0.0
 11
-5.94562920629071
 21
-48.30374409747861
 31
0.0
  0
ELLIPSE
  5
14CA
330
14A2
100
AcDbEntity
  8
0
100
AcDbEllipse
 10
-8.2837499078285
 20
-50.03960067954491
 30
0.0
 11
-1.13722202259035
 21
2.226370605118454
 31
0.0
210
0.0
220
0.0
230
0.9999999999999998
 40
0.5410270038223146
 41
1.376667667729762
 42
2.384927749980965
  0
LINE
  5
14CB
330
14A2
100
AcDbEntity
  8
0
100
AcDbLine
 10
-4.447471636683713
 20
-50.12128511799535
 30
0.0
 11
-8.283749907828511
 21
-52.0808421318642
 31
0.0
  0
LINE
  5
14CC
330
14A2
100
AcDbEntity
  8
0
100
AcDbLine
 10
-12.4876028386494
 20
-46.47977154276297
 30
0.0
 11
-8.941944345504669
 21
-44.6686620564451
 31
0.0
  0
ELLIPSE
  5
14CD
330
14A2
100
AcDbEntity
  8
0
100
AcDbEllipse
 10
-12.4876028386494
 20
-50.5622544474016
 30
0.0
 11
-2.274444045180949
 21
4.452741210236782
 31
0.0
210
0.0
220
0.0
230
1.0
 40
0.5410270038223147
 41
4.51826032131942
 42
5.52652040357046
  0
ELLIPSE
  5
14CE
330
14A2
100
AcDbEntity
  8
0
100
AcDbEllipse
 10
-3.645409570318327
 20
-52.24997260767766
 30
0.0
 11
-13.34428877022478
 21
0.0000000000000039
 31
0.0
210
0.0
220
0.0
230
1.0
 40
0.5773502691896257
 41
5.436700619962337
 42
6.298205429706
  0
ELLIPSE
  5
14CF
330
14A2
100
AcDbEntity
  8
0
100
AcDbEllipse
 10
-16.98819310584199
 20
-56.44817112247865
 30
0.0
 11
-4.998308573540456
 21
-0.1300438528802644
 31
0.0
210
0.0
220
0.0
230
0.9999999999999996
 40
0.8164044801790003
 41
3.682891229418784
 42
4.691151311669885
  0
ELLIPSE
  5
14D0
330
14A2
100
AcDbEntity
  8
0
100
AcDbEllipse
 10
-3.645409570318345
 20
-54.15513129650903
 30
0.0
 11
-9.114762923408266
 21
0.0000000000000027
 31
0.0
210
0.0
220
0.0
230
1.0
 40
0.5773502691896257
 41
5.436700619962335
 42
6.298205429706
  0
ELLIPSE
  5
14D1
330
14A2
100
AcDbEntity
  8
0
100
AcDbEllipse
 10
-10.64461997088078
 20
-53.12717000864039
 30
0.0
 11
-2.499154286770234
 21
-0.0650219264399213
 31
0.0
210
0.0
220
0.0
230
1.0
 40
0.8164044801789998
 41
0.54129857582915
 42
1.549558658080192
  0
ELLIPSE
  5
14D2
330
14A2
100
AcDbEntity
  8
0
100
AcDbEllipse
 10
-3.645409570318354
 20
-55.1077106409247
 30
0.0
 11
-7.0
 21
0.0000000000000003
 31
0.0
210
0.0
220
0.0
230
1.0
 40
0.577350269189626
 41
5.436700619962337
 42
6.298205429705999
  0
LINE
  5
14D3
330
14A2
100
AcDbEntity
  8
0
100
AcDbLine
 10
34.00886149880506
 20
34.05446706202253
 30
0.0
 11
34.21322392119118
 21
30.07828199065621
 31
0.0
  0
ELLIPSE
  5
14D4
330
14A2
100
AcDbEntity
  8
0
100
AcDbEllipse
 10
43.42709884013074
 20
29.28200359893342
 30
0.0
 11
-6.672144385112392
 21
11.55649307045007
 31
0.0
210
0.0
220
0.0
230
1.0
 40
0.577350269189626
 41
6.268165184653172
 42
7.129669994396834
  0
LINE
  5
14D5
330
14A2
100
AcDbEntity
  8
0
100
AcDbLine
 10
38.64392542144639
 20
33.49439497047991
 30
0.0
 11
38.85945488317375
 21
29.30093798286977
 31
0.0
  0
ELLIPSE
  5
14D6
330
14A2
100
AcDbEntity
  8
0
100
AcDbEllipse
 10
37.54439540473781
 20
36.09570851434186
 30
0.0
 11
-4.993409027133394
 21
-0.2566442825054469
 31
0.0
210
0.0
220
0.0
230
1.0
 40
0.5410270038223146
 41
0.7566649036091278
 42
1.764924985860165
  0
LINE
  5
14D7
330
14A2
100
AcDbEntity
  8
0
100
AcDbLine
 10
40.96145738276705
 20
33.21435892470861
 30
0.0
 11
41.18257036416505
 21
28.91226597897653
 31
0.0
  0
ELLIPSE
  5
14D8
330
14A2
100
AcDbEntity
  8
0
100
AcDbEllipse
 10
39.1936904298007
 20
32.19373819854894
 30
0.0
 11
-2.496704513566689
 21
-0.1283221412528631
 31
0.0
210
0.0
220
0.0
230
1.0
 40
0.5410270038223146
 41
3.898257557198618
 42
4.906517639449821
  0
ELLIPSE
  5
14D9
330
14A2
100
AcDbEntity
  8
0
100
AcDbEllipse
 10
40.39145363631667
 20
42.93629235529415
 30
0.0
 11
2.386533006570285
 21
-4.393684127079527
 31
0.0
210
0.0
220
0.0
230
1.0
 40
0.8164044801789998
 41
4.733626649099393
 42
5.741886731350432
  0
ELLIPSE
  5
14DA
330
14A2
100
AcDbEntity
  8
0
100
AcDbEllipse
 10
45.07701466289933
 20
30.23458294334912
 30
0.0
 11
-4.557381461704133
 21
7.893616241144079
 31
0.0
210
0.0
220
0.0
230
1.0
 40
0.5773502691896259
 41
6.268165184653173
 42
7.129669994396837
  0
ELLIPSE
  5
14DB
330
14A2
100
AcDbEntity
  8
0
100
AcDbEllipse
 10
40.68716887321692
 20
35.78209631273412
 30
0.0
 11
1.193266503284955
 21
-2.196842063539865
 31
0.0
210
0.0
220
0.0
230
1.0
 40
0.8164044801790003
 41
1.592033995509696
 42
2.600294077760803
  0
ELLIPSE
  5
14DC
330
14A2
100
AcDbEntity
  8
0
100
AcDbEllipse
 10
45.90197257428363
 20
30.71087261555697
 30
0.0
 11
-3.500000000000001
 21
6.062177826491071
 31
0.0
210
0.0
220
0.0
230
1.0
 40
0.577350269189626
 41
6.268165184653171
 42
7.129669994396834
  0
LINE
  5
14DD
330
14A2
100
AcDbEntity
  8
0
100
AcDbLine
 10
-10.87245530442178
 20
-39.87984642046605
 30
0.0
 11
11.66380866639747
 21
-25.17322664668629
 31
0.0
  0
LINE
  5
14DE
330
14A2
100
AcDbEntity
  8
0
100
AcDbLine
 10
-2.780697171882109
 20
-41.58287761081034
 30
0.0
 11
27.86667549282834
 21
-26.52342878591885
 31
0.0
  0
ELLIPSE
  5
14DF
330
14A2
100
AcDbEntity
  8
0
100
AcDbEllipse
 10
23.11746797021866
 20
-26.20282478349855
 30
0.0
 11
-4.757218010987092
 21
6.431864177354809
 31
0.0
210
0.0
220
0.0
230
1.0
 40
0.4913799087545879
 41
4.316925552254515
 42
5.437075396488639
  0
ELLIPSE
  5
14E0
330
14A2
100
AcDbEntity
  8
0
100
AcDbEllipse
 10
23.11746797021866
 20
-26.20282478349855
 30
0.0
 11
-4.757218010986766
 21
6.431864177355054
 31
0.0
210
0.0
220
0.0
230
1.0
 40
0.4913799087545876
 41
5.437075396488823
 42
6.283185307179586
  0
ELLIPSE
  5
14E1
330
14A2
100
AcDbEntity
  8
0
100
AcDbEllipse
 10
23.11746797021866
 20
-26.20282478349855
 30
0.0
 11
-4.757218010986768
 21
6.431864177355051
 31
0.0
210
0.0
220
0.0
230
1.0
 40
0.4913799087545878
 41
0.0
 42
0.0180307779557142
  0
LINE
  5
14E2
330
14A2
100
AcDbEntity
  8
0
100
AcDbLine
 10
-6.536387492022615
 20
-39.41452879348446
 30
0.0
 11
7.867722902934524
 21
-28.25054108030458
 31
0.0
  0
LINE
  5
14E3
330
14A2
100
AcDbEntity
  8
0
100
AcDbLine
 10
31.18885621189409
 20
-31.91837822527618
 30
0.0
 11
1.555370640517019
 21
-47.05505507521827
 31
0.0
  0
SPLINE
  5
14E4
330
14A2
100
AcDbEntity
  8
0
100
AcDbSpline
210
0.0
220
0.0
230
1.0
 70
     8
 71
     3
 72
    12
 73
     8
 74
     0
 42
0.000000001
 43
0.0000000001
 40
0.0
 40
0.0
 40
0.0
 40
0.0
 40
0.0998953096791118
 40
0.0998953096791118
 40
0.1923270782588164
 40
0.1923270782588164
 40
0.2844990543443503
 40
0.2844990543443503
 40
0.2844990543443503
 40
0.2844990543443503
 10
29.43837508554783
 20
-29.91004638242879
 30
0.0
 10
29.57042475332046
 20
-30.19458022582123
 30
0.0
 10
29.73989085930022
 20
-30.47915297021456
 30
0.0
 10
30.11967562866707
 20
-30.99557904210767
 30
0.0
 10
30.32300412443241
 20
-31.22571032732448
 30
0.0
 10
30.75081266936564
 20
-31.62599781347846
 30
0.0
 10
30.97168285869199
 20
-31.79299313133338
 30
0.0
 10
31.18885621190412
 20
-31.91837822527122
 30
0.0
  0
LINE
  5
14E5
330
14A2
100
AcDbEntity
  8
0
100
AcDbLine
 10
0.0477524250535044
 20
-45.21281026140943
 30
0.0
 11
29.43837508554768
 21
-29.9100463824285
 31
0.0
  0
LINE
  5
14E6
330
14A2
100
AcDbEntity
  8
0
100
AcDbLine
 10
29.4383751110739
 20
-29.91004636354887
 30
0.0
 11
29.13406534607575
 21
-29.2543353780744
 31
0.0
  0
LINE
  5
14E7
330
14A2
100
AcDbEntity
  8
0
100
AcDbLine
 10
29.13406534607575
 20
-29.2543353780744
 30
0.0
 11
27.86667549282834
 21
-26.52342878591885
 31
0.0
  0
LINE
  5
14E8
330
14A2
100
AcDbEntity
  8
0
100
AcDbLine
 10
39.17931847539306
 20
22.56505031751608
 30
0.0
 11
40.62204753832777
 21
-10.53935747900496
 31
0.0
  0
SPLINE
  5
14E9
330
14A2
100
AcDbEntity
  8
0
100
AcDbSpline
210
0.0
220
0.0
230
1.0
 70
     8
 71
     3
 72
    12
 73
     8
 74
     0
 42
0.000000001
 43
0.0000000001
 40
0.0
 40
0.0
 40
0.0
 40
0.0
 40
0.0974491820940563
 40
0.0974491820940563
 40
0.1908633068458002
 40
0.1908633068458002
 40
0.2843935368679923
 40
0.2843935368679923
 40
0.2843935368679923
 40
0.2843935368679923
 10
43.23655449663698
 20
-11.05115268185347
 30
0.0
 10
43.00686457170435
 20
-10.91854114186347
 30
0.0
 10
42.73492036552243
 20
-10.80568980510929
 30
0.0
 10
42.14993643514491
 20
-10.63508237041173
 30
0.0
 10
41.84404686861881
 20
-10.57668592941386
 30
0.0
 10
41.2239279769468
 20
-10.51547311337908
 30
0.0
 10
40.91468726250298
 20
-10.51321743807929
 30
0.0
 10
40.62204753832777
 20
-10.53935747900495
 30
0.0
  0
LINE
  5
14EA
330
14A2
100
AcDbEntity
  8
0
100
AcDbLine
 10
41.5285583918734
 20
22.18053705062092
 30
0.0
 11
43.23655449663626
 21
-11.05115268184228
 31
0.0
  0
LINE
  5
14EB
330
14A2
100
AcDbEntity
  8
0
100
AcDbLine
 10
34.62147978747986
 20
23.19959319648664
 30
0.0
 11
36.90330087048733
 21
-10.87153450284717
 31
0.0
  0
LINE
  5
14EC
330
14A2
100
AcDbEntity
  8
0
100
AcDbLine
 10
39.90203028128016
 20
-10.60367301618028
 30
0.0
 11
36.90330087048734
 21
-10.87153450284716
 31
0.0
  0
LINE
  5
14ED
330
14A2
100
AcDbEntity
  8
0
100
AcDbLine
 10
40.62204753474042
 20
-10.53935751055014
 30
0.0
 11
39.90203028128016
 21
-10.60367301618028
 31
0.0
  0
LINE
  5
14EE
330
14A2
100
AcDbEntity
  8
0
100
AcDbLine
 10
30.86578946733944
 20
25.36794201381266
 30
0.0
 11
28.3996398877304
 21
7.312297595741153
 31
0.0
  0
ELLIPSE
  5
14EF
330
14A2
100
AcDbEntity
  8
0
100
AcDbEllipse
 10
34.25104589853155
 20
-6.918902141633173
 30
0.0
 11
-7.948766776773957
 21
0.9039395601778894
 31
0.0
210
0.0
220
0.0
230
1.0
 40
0.4913799087545876
 41
6.265154529224132
 42
6.770015610927592
  0
ELLIPSE
  5
14F0
330
14A2
100
AcDbEntity
  8
0
100
AcDbEllipse
 10
34.25104589853155
 20
-6.918902141633173
 30
0.0
 11
-7.948766776773957
 21
0.9039395601778929
 31
0.0
210
0.0
220
0.0
230
1.0
 40
0.4913799087545875
 41
0.4868303037480067
 42
0.8461099106908331
  0
ELLIPSE
  5
14F1
330
14A2
100
AcDbEntity
  8
0
100
AcDbEllipse
 10
34.25104589853155
 20
-6.918902141633173
 30
0.0
 11
-7.948766776773957
 21
0.9039395601778929
 31
0.0
210
0.0
220
0.0
230
1.0
 40
0.4913799087545878
 41
0.8461099106908331
 42
1.20538951763307
  0
ELLIPSE
  5
14F2
330
14A2
100
AcDbEntity
  8
0
100
AcDbEllipse
 10
34.25104589853155
 20
-6.918902141633173
 30
0.0
 11
-7.948766776773911
 21
0.9039395601782967
 31
0.0
210
0.0
220
0.0
230
1.0
 40
0.4913799087545874
 41
1.205389517633129
 42
1.966259754925072
  0
LINE
  5
14F3
330
14A2
100
AcDbEntity
  8
0
100
AcDbLine
 10
27.63245099595601
 20
2.483498431156601
 30
0.0
 11
29.10073244693461
 21
29.35574570537315
 31
0.0
  0
SPLINE
  5
14F4
330
14A2
100
AcDbEntity
  8
0
100
AcDbSpline
210
0.0
220
0.0
230
1.0
 70
     8
 71
     3
 72
    26
 73
    22
 74
     0
 42
0.000000001
 43
0.0000000001
 40
0.7282526565059583
 40
0.7282526565059583
 40
0.7282526565059583
 40
0.7282526565059583
 40
0.7293131395027773
 40
0.7293131395027773
 40
0.7304050920739678
 40
0.7304050920739678
 40
0.7315014977142048
 40
0.7315014977142048
 40
0.7325935543216691
 40
0.7325935543216691
 40
0.7347913192831948
 40
0.7347913192831948
 40
0.7436735486157006
 40
0.7436735486157006
 40
0.813955866394809
 40
0.813955866394809
 40
1.090936953904641
 40
1.090936953904641
 40
1.920976910016546
 40
1.920976910016546
 40
2.462166245575146
 40
2.462166245575146
 40
2.462166245575146
 40
2.462166245575146
 10
7.049247570957626
 20
-28.90688651695213
 30
0.0
 10
7.049247570574643
 20
-28.90688651725638
 30
0.0
 10
7.049491553158238
 20
-28.90669270065117
 30
0.0
 10
7.050676397882065
 20
-28.90575098774761
 30
0.0
 10
7.05166258308175
 20
-28.90496705490933
 30
0.0
 10
7.054475734523859
 20
-28.90272998934067
 30
0.0
 10
7.056345286273981
 20
-28.90124295913695
 30
0.0
 10
7.060646097362859
 20
-28.89782100479573
 30
0.0
 10
7.063109173889414
 20
-28.8958607671576
 30
0.0
 10
7.070868144527278
 20
-28.88968416170543
 30
0.0
 10
7.076617473349755
 20
-28.88510523942424
 30
0.0
 10
7.10530845473241
 20
-28.86224595032236
 30
0.0
 10
7.128828936488504
 20
-28.84347964913177
 30
0.0
 10
7.328922867088678
 20
-28.68370750244118
 30
0.0
 10
7.490116681826046
 20
-28.55428778622707
 30
0.0
 10
8.285758524112267
 20
-27.91456684087146
 30
0.0
 10
8.891232341837728
 20
-27.42407315362495
 30
0.0
 10
11.30762269787262
 20
-25.46413960510423
 30
0.0
 10
13.08006532022676
 20
-24.01990247099341
 30
0.0
 10
16.00431921682926
 20
-21.65654600931711
 30
0.0
 10
17.15524790665109
 20
-20.73087853766982
 30
0.0
 10
18.30404026072541
 20
-19.81415259327693
 30
0.0
  0
SPLINE
  5
14F5
330
14A2
100
AcDbEntity
  8
0
100
AcDbSpline
210
0.0
220
0.0
230
1.0
 70
     8
 71
     3
 72
    14
 73
    10
 74
     0
 42
0.000000001
 43
0.0000000001
 40
0.0
 40
0.0
 40
0.0
 40
0.0
 40
1.433990734331356
 40
1.433990734331356
 40
2.15241727912124
 40
2.15241727912124
 40
2.515787724434912
 40
2.515787724434912
 40
2.66537190041517
 40
2.66537190041517
 40
2.66537190041517
 40
2.66537190041517
 10
-8.909817781445831
 20
-39.34405853690586
 30
0.0
 10
-5.666380539531323
 20
-37.18343323316861
 30
0.0
 10
-2.43982741776938
 20
-35.03958860429153
 30
0.0
 10
2.46967731150713
 20
-31.75650824992067
 30
0.0
 10
4.119010794722139
 20
-30.65069465482165
 30
0.0
 10
6.667043564187737
 20
-28.91276752564447
 30
0.0
 10
7.535308939422784
 20
-28.3157592929882
 30
0.0
 10
8.79562280382272
 20
-27.42948324794115
 30
0.0
 10
9.168110226334679
 20
-27.16519714986145
 30
0.0
 10
9.546615675576418
 20
-26.89249019593176
 30
0.0
  0
SPLINE
  5
14F6
330
14A2
100
AcDbEntity
  8
0
100
AcDbSpline
210
0.0
220
0.0
230
1.0
 70
     8
 71
     3
 72
    30
 73
    26
 74
     0
 42
0.000000001
 43
0.0000000001
 40
0.0
 40
0.0
 40
0.0
 40
0.0
 40
1.318281130519197
 40
1.318281130519197
 40
1.565441419111275
 40
1.565441419111275
 40
1.658136457081764
 40
1.658136457081764
 40
1.692900811431288
 40
1.692900811431288
 40
1.709384714844554
 40
1.709384714844554
 40
1.725961984528172
 40
1.725961984528172
 40
1.728028226697215
 40
1.728028226697215
 40
1.730115161682849
 40
1.730115161682849
 40
1.731155333672805
 40
1.731155333672805
 40
1.732198767012199
 40
1.732198767012199
 40
1.733238449181839
 40
1.733238449181839
 40
1.733985853815882
 40
1.733985853815882
 40
1.733985853815882
 40
1.733985853815882
 10
26.31157963060184
 20
-5.944687561042892
 30
0.0
 10
26.84628757349909
 20
-2.404730110130344
 30
0.0
 10
27.42117862092121
 20
1.156094386140416
 30
0.0
 10
28.1121903703224
 20
5.487343395995782
 30
0.0
 10
28.22144041367106
 20
6.174491298117383
 30
0.0
 10
28.37252406079023
 20
7.137928642559536
 30
0.0
 10
28.41380542206047
 20
7.4025274452528
 30
0.0
 10
28.47131334682743
 20
7.774774473677426
 30
0.0
 10
28.48708326010996
 20
7.877226909698702
 30
0.0
 10
28.51068773692368
 20
8.031443559918969
 30
0.0
 10
28.51834161668143
 20
8.081579912771644
 30
0.0
 10
28.53393840615419
 20
8.184127103814411
 30
0.0
 10
28.54203283363152
 20
8.237517039441293
 30
0.0
 10
28.55128163292916
 20
8.298969893800558
 30
0.0
 10
28.5523124115184
 20
8.305825751852662
 30
0.0
 10
28.55433524301134
 20
8.319296409308471
 30
0.0
 10
28.55535636265607
 20
8.326105649501691
 30
0.0
 10
28.55667238809449
 20
8.334894694974117
 30
0.0
 10
28.55707952357328
 20
8.337616216733763
 30
0.0
 10
28.55776137688208
 20
8.342177629237008
 30
0.0
 10
28.55804149433237
 20
8.344053584291808
 30
0.0
 10
28.55844534287237
 20
8.346759922775973
 30
0.0
 10
28.55857576306247
 20
8.347635013013254
 30
0.0
 10
28.5586992310058
 20
8.348463761155478
 30
0.0
 10
28.55872185346763
 20
8.348615784423474
 30
0.0
 10
28.5587218534776
 20
8.34861578449046
 30
0.0
  0
SPLINE
  5
14F7
330
14A2
100
AcDbEntity
  8
0
100
AcDbSpline
210
0.0
220
0.0
230
1.0
 70
     8
 71
     3
 72
    14
 73
    10
 74
     0
 42
0.000000001
 43
0.0000000001
 40
0.2293557845707307
 40
0.2293557845707307
 40
0.2293557845707307
 40
0.2293557845707307
 40
0.2457082232284601
 40
0.2457082232284601
 40
0.5446571416358638
 40
0.5446571416358638
 40
1.275717314099947
 40
1.275717314099947
 40
2.894617923111901
 40
2.894617923111901
 40
2.894617923111901
 40
2.894617923111901
 10
28.06284477704628
 20
5.178326925299692
 30
0.0
 10
28.06796820870719
 20
5.229066989630601
 30
0.0
 10
28.07303931815197
 20
5.27967683158955
 30
0.0
 10
28.16987740172122
 20
6.25302594647739
 30
0.0
 10
28.24661691273432
 20
7.141582157566186
 30
0.0
 10
28.49036294865776
 20
10.13781716023488
 30
0.0
 10
28.62989293186432
 20
12.17037524431254
 30
0.0
 10
29.06463906612022
 20
18.64112618067065
 30
0.0
 10
29.33644307026842
 20
22.99744102441149
 30
0.0
 10
29.61804529021956
 20
27.38815781027533
 30
0.0
  0
LINE
  5
14F8
330
14A2
100
AcDbEntity
  8
0
100
AcDbLine
 10
-14.82578246575736
 20
-45.12982290563851
 30
0.0
 11
-11.68884881738485
 21
-43.0827360201669
 31
0.0
  0
ELLIPSE
  5
14F9
330
14A2
100
AcDbEntity
  8
0
100
AcDbEllipse
 10
-24.82006388007761
 20
-40.02478024194089
 30
0.0
 11
13.34428877022473
 21
-0.0000000000000039
 31
0.0
210
0.0
220
0.0
230
1.0
 40
0.5773502691896259
 41
4.697368857858275
 42
5.558873667601941
  0
ELLIPSE
  5
14FA
330
14A2
100
AcDbEntity
  8
0
100
AcDbEllipse
 10
-14.82578246575736
 20
-49.21230581027714
 30
0.0
 11
-2.732519349167489
 21
4.187282890661349
 31
0.0
210
0.0
220
0.0
230
1.0
 40
0.6115197852904807
 41
5.465320012711889
 42
6.283185307179585
  0
LINE
  5
14FB
330
14A2
100
AcDbEntity
  8
0
100
AcDbLine
 10
-19.5773738345546
 20
-45.56046531764251
 30
0.0
 11
-16.1833215262058
 21
-43.34558902511074
 31
0.0
  0
ELLIPSE
  5
14FC
330
14A2
100
AcDbEntity
  8
0
100
AcDbEllipse
 10
-19.57737383455462
 20
-43.51922386532321
 30
0.0
 11
-1.366259674583612
 21
2.093641445330761
 31
0.0
210
0.0
220
0.0
230
1.0
 40
0.6115197852904805
 41
2.323727359122365
 42
2.64776002667401
  0
ELLIPSE
  5
14FD
330
14A2
100
AcDbEntity
  8
0
100
AcDbEllipse
 10
-24.82006388007762
 20
-42.88251827518791
 30
0.0
 11
6.999999999999998
 21
-0.0000000000000017
 31
0.0
210
0.0
220
0.0
230
1.0
 40
0.577350269189626
 41
5.117326943178537
 42
5.558873667601941
  0
ELLIPSE
  5
14FE
330
14A2
100
AcDbEntity
  8
0
100
AcDbEllipse
 10
-25.02048919610769
 20
-51.81072281255298
 30
0.0
 11
0.0433609892792009
 21
4.99981197892568
 31
0.0
210
0.0
220
0.0
230
1.0
 40
0.012263417562954
 41
0.0
 42
0.6155328870616597
  0
ELLIPSE
  5
14FF
330
14A2
100
AcDbEntity
  8
0
100
AcDbEllipse
 10
22.25244453037148
 20
41.5071959646702
 30
0.0
 11
6.672144385112367
 21
-11.55649307045002
 31
0.0
210
0.0
220
0.0
230
1.0
 40
0.5773502691896259
 41
0.7243116395776461
 42
1.585816449321311
  0
LINE
  5
1500
330
14A2
100
AcDbEntity
  8
0
100
AcDbLine
 10
31.67068187169712
 20
35.40441569914702
 30
0.0
 11
31.466319449311
 21
31.66420802693443
 31
0.0
  0
ELLIPSE
  5
1501
330
14A2
100
AcDbEntity
  8
0
100
AcDbEllipse
 10
27.90006650307459
 20
38.71411501277067
 30
0.0
 11
-2.496276515364214
 21
0.1363948636902868
 31
0.0
210
0.0
220
0.0
230
0.9999999999999998
 40
0.6115197852904807
 41
3.635425280505568
 42
3.959457948057219
  0
LINE
  5
1502
330
14A2
100
AcDbEntity
  8
0
100
AcDbLine
 10
29.44672047464296
 20
35.68796207186115
 30
0.0
 11
29.66783345604096
 21
39.73473573893031
 31
0.0
  0
ELLIPSE
  5
1503
330
14A2
100
AcDbEntity
  8
0
100
AcDbEllipse
 10
35.20621577762986
 20
37.44565715146634
 30
0.0
 11
-4.992553030728412
 21
0.2727897273808914
 31
0.0
210
0.0
220
0.0
230
1.0
 40
0.6115197852904807
 41
0.0
 42
0.8178652944676967
  0
ELLIPSE
  5
1504
330
14A2
100
AcDbEntity
  8
0
100
AcDbEllipse
 10
24.72731826452438
 20
42.93606498129374
 30
0.0
 11
-3.500000000000361
 21
6.06217782649086
 31
0.0
210
0.0
220
0.0
230
1.0
 40
0.577350269189626
 41
3.865904293167165
 42
4.307451017590686
  0
ELLIPSE
  5
1505
330
14A2
100
AcDbEntity
  8
0
100
AcDbEllipse
 10
32.35915754605098
 20
47.57374066521983
 30
0.0
 11
-4.308283693255786
 21
-2.537457707711852
 31
0.0
210
0.0
220
0.0
230
1.0
 40
0.0122634175629541
 41
5.667652420137833
 42
6.283185307203151
  0
LINE
  5
1506
330
14A2
100
AcDbEntity
  8
0
100
AcDbLine
 10
-14.27350576448827
 20
-42.88144461352497
 30
0.0
 11
-17.55830181492486
 21
-45.0250229196158
 31
0.0
  0
SPLINE
  5
1507
330
14A2
100
AcDbEntity
  8
0
100
AcDbSpline
210
0.0
220
0.0
230
1.0
 70
     8
 71
     3
 72
    16
 73
    12
 74
     0
 42
0.000000001
 43
0.0000000001
 40
6.222098783359786
 40
6.222098783359786
 40
6.222098783359786
 40
6.222098783359786
 40
6.394399745308518
 40
6.394399745308518
 40
6.56670070725725
 40
6.56670070725725
 40
6.739001669205983
 40
6.739001669205983
 40
6.911302631154715
 40
6.911302631154715
 40
7.083603593103449
 40
7.083603593103449
 40
7.083603593103449
 40
7.083603593103449
 10
-17.55830181492485
 20
-45.0250229196158
 30
0.0
 10
-17.84435556579101
 20
-45.21169466584219
 30
0.0
 10
-18.18901050875651
 20
-45.40350250569931
 30
0.0
 10
-18.97970245842688
 20
-45.76829048780758
 30
0.0
 10
-19.42555292425945
 20
-45.94132143298629
 30
0.0
 10
-20.39556709680231
 20
-46.24864207371118
 30
0.0
 10
-20.91965045208896
 20
-46.3829920737831
 30
0.0
 10
-22.02024031962208
 20
-46.60034436250661
 30
0.0
 10
-22.59671024031881
 20
-46.68338504525443
 30
0.0
 10
-23.77491010621748
 20
-46.79126383373061
 30
0.0
 10
-24.37661877457325
 20
-46.81611876607833
 30
0.0
 10
-24.97712820682848
 20
-46.81091083362731
 30
0.0
  0
LINE
  5
1508
330
14A2
100
AcDbEntity
  8
0
100
AcDbLine
 10
30.21366274690145
 20
37.71844687884724
 30
0.0
 11
29.99966750404387
 21
33.80194089987296
 31
0.0
  0
SPLINE
  5
1509
330
14A2
100
AcDbEntity
  8
0
100
AcDbSpline
210
0.0
220
0.0
230
1.0
 70
     8
 71
     3
 72
    16
 73
    12
 74
     0
 42
0.000000001
 43
0.0000000001
 40
5.482767021255723
 40
5.482767021255723
 40
5.482767021255723
 40
5.482767021255723
 40
5.655067983204455
 40
5.655067983204455
 40
5.827368945153187
 40
5.827368945153187
 40
5.999669907101919
 40
5.999669907101919
 40
6.171970869050651
 40
6.171970869050651
 40
6.344271830999385
 40
6.344271830999385
 40
6.344271830999385
 40
6.344271830999385
 10
28.05087385279519
 20
45.03628295750799
 30
0.0
 10
28.35563877072659
 20
44.5188305001883
 30
0.0
 10
28.634968102082
 20
43.98530804154105
 30
0.0
 10
29.13064226368148
 20
42.9110176326993
 30
0.0
 10
29.34696188322263
 20
42.37025969548444
 30
0.0
 10
29.70902421338394
 20
41.30844476669124
 30
0.0
 10
29.85471537796655
 20
40.78740026727643
 30
0.0
 10
30.07357498226292
 20
39.79368303146094
 30
0.0
 10
30.14665102101359
 20
39.32104972917144
 30
0.0
 10
30.22608133634776
 20
38.45389642313492
 30
0.0
 10
30.23229834586924
 20
38.05951256705835
 30
0.0
 10
30.21366274690145
 20
37.71844687884723
 30
0.0
  0
ELLIPSE
  5
150A
330
14A2
100
AcDbEntity
  8
0
100
AcDbEllipse
 10
-25.1429843720458
 20
-52.43641084064233
 30
0.0
 11
-8.155711229775233
 21
0.0000000000000027
 31
0.0
210
0.0
220
0.0
230
1.0
 40
0.5773502691896259
 41
4.697368857858275
 42
9.439798083295794
  0
ELLIPSE
  5
150B
330
14A2
100
AcDbEntity
  8
0
100
AcDbEllipse
 10
-25.1429843720458
 20
-55.29414887388938
 30
0.0
 11
-14.49999999999999
 21
0.0
 31
0.0
210
0.0
220
0.0
230
1.0
 40
0.5773502691896259
 41
5.000799275589881
 42
9.439798083295793
  0
ELLIPSE
  5
150C
330
14A2
100
AcDbEntity
  8
0
100
AcDbEllipse
 10
-25.1429843720458
 20
-54.34156952947368
 30
0.0
 11
-12.38523707659173
 21
0.0000000000000056
 31
0.0
210
0.0
220
0.0
230
1.0
 40
0.5773502691896257
 41
5.821092308322697
 42
9.439798083295794
  0
ELLIPSE
  5
150D
330
14A2
100
AcDbEntity
  8
0
100
AcDbEllipse
 10
32.8397716852511
 20
47.99266861346795
 30
0.0
 11
-4.077855614887618
 21
7.063053110915378
 31
0.0
210
0.0
220
0.0
230
1.0
 40
0.5773502691896258
 41
3.126572531063379
 42
7.869001756500896
  0
ELLIPSE
  5
150E
330
14A2
100
AcDbEntity
  8
0
100
AcDbEllipse
 10
35.31464541940401
 20
49.42153763009148
 30
0.0
 11
7.249999999999999
 21
-12.55736835487435
 31
0.0
210
0.0
220
0.0
230
1.0
 40
0.5773502691896261
 41
6.26816518465317
 42
10.7071639923591
  0
ELLIPSE
  5
150F
330
14A2
100
AcDbEntity
  8
0
100
AcDbEllipse
 10
34.4896875080197
 20
48.94524795788363
 30
0.0
 11
-6.192618538295867
 21
10.72592994022135
 31
0.0
210
0.0
220
0.0
230
0.9999999999999998
 40
0.5773502691896259
 41
3.126572531063379
 42
6.745278306036473
  0
SPLINE
  5
1510
330
14A2
100
AcDbEntity
  8
0
100
AcDbSpline
210
0.0
220
0.0
230
1.0
 70
     8
 71
     3
 72
    16
 73
    12
 74
     0
 42
0.000000001
 43
0.0000000001
 40
2.818287489049232
 40
2.818287489049232
 40
2.818287489049232
 40
2.818287489049232
 40
3.043032179142117
 40
3.043032179142117
 40
3.267776869235001
 40
3.267776869235001
 40
3.492521559327886
 40
3.492521559327886
 40
3.71726624942077
 40
3.71726624942077
 40
3.942010939513654
 40
3.942010939513654
 40
3.942010939513654
 40
3.942010939513654
 10
-36.22927453731517
 20
-51.15366176131633
 30
0.0
 10
-35.65364393155351
 20
-50.48638943229573
 30
0.0
 10
-35.00932259679038
 20
-49.92456340508008
 30
0.0
 10
-33.64640199686192
 20
-48.96498972701863
 30
0.0
 10
-32.92632406362681
 20
-48.56650174624636
 30
0.0
 10
-31.43389917923328
 20
-47.89885407482578
 30
0.0
 10
-30.66099185113807
 20
-47.62993458250978
 30
0.0
 10
-29.07880554186356
 20
-47.20604398806223
 30
0.0
 10
-28.26942547858634
 20
-47.05130357596195
 30
0.0
 10
-26.63216680011902
 20
-46.8500982174926
 30
0.0
 10
-25.80432862610458
 20
-46.80373691815545
 30
0.0
 10
-24.97712820682848
 20
-46.81091083362731
 30
0.0
  0
SPLINE
  5
1511
330
14A2
100
AcDbEntity
  8
0
100
AcDbSpline
210
0.0
220
0.0
230
1.0
 70
     8
 71
     3
 72
    16
 73
    12
 74
     0
 42
0.000000001
 43
0.0000000001
 40
2.341174367665931
 40
2.341174367665931
 40
2.341174367665931
 40
2.341174367665931
 40
2.565919057758816
 40
2.565919057758816
 40
2.7906637478517
 40
2.7906637478517
 40
3.015408437944584
 40
3.015408437944584
 40
3.240153128037469
 40
3.240153128037469
 40
3.464897818130352
 40
3.464897818130352
 40
3.464897818130352
 40
3.464897818130352
 10
28.0508738527952
 20
45.03628295750799
 30
0.0
 10
27.63106085011392
 20
45.74907257688629
 30
0.0
 10
27.25729182608513
 20
46.48918211547389
 30
0.0
 10
26.61291143866347
 20
48.00769240282779
 30
0.0
 10
26.34223053489578
 20
48.78600630499267
 30
0.0
 10
25.91823740347539
 20
50.36816513956813
 30
0.0
 10
25.76467485134626
 20
51.17198226662772
 30
0.0
 10
25.59666225337725
 20
52.79828396546287
 30
0.0
 10
25.58172400121125
 20
53.62113373873521
 30
0.0
 10
25.73127888325109
 20
55.28124444064511
 30
0.0
 10
25.89567382794557
 20
56.12015609835808
 30
0.0
 10
26.18573331323898
 20
56.9523029906538
 30
0.0
  0
ELLIPSE
  5
1512
330
14A2
100
AcDbEntity
  8
0
100
AcDbEllipse
 10
-25.1429843720458
 20
-52.43641084064233
 30
0.0
 11
-7.0
 21
0.0000000000004202
 31
0.0
210
0.0
220
0.0
230
1.0
 40
0.5773502691896255
 41
0.0
 42
6.283185307179586
  0
ELLIPSE
  5
1513
330
14A2
100
AcDbEntity
  8
0
100
AcDbEllipse
 10
-25.1429843720458
 20
-54.47765229296165
 30
0.0
 11
7.0
 21
-0.0000000000000022
 31
0.0
210
0.0
220
0.0
230
1.0
 40
0.5773502691896259
 41
0.2553025216024091
 42
2.886290131987384
  0
ELLIPSE
  5
1514
330
14A2
100
AcDbEntity
  8
0
100
AcDbEllipse
 10
-50.95238188535478
 20
-46.10856233845247
 30
0.0
 11
-2.499999999999999
 21
0.0000000000001496
 31
0.0
210
0.0
220
0.0
230
1.0
 40
0.5773502691896259
 41
0.0
 42
6.283185307179586
  0
ELLIPSE
  5
1515
330
14A2
100
AcDbEntity
  8
0
100
AcDbEllipse
 10
-18.930550611097
 20
-26.22103594098684
 30
0.0
 11
-2.499999999999999
 21
0.0000000000001496
 31
0.0
210
0.0
220
0.0
230
1.0
 40
0.5773502691896259
 41
0.0
 42
6.283185307179586
  0
ELLIPSE
  5
1516
330
14A2
100
AcDbEntity
  8
0
100
AcDbEllipse
 10
-3.284471329871165
 20
-21.78211044045734
 30
0.0
 11
-2.499999999999999
 21
0.0000000000001496
 31
0.0
210
0.0
220
0.0
230
1.0
 40
0.5773502691896259
 41
0.0
 42
6.283185307179586
  0
ELLIPSE
  5
1517
330
14A2
100
AcDbEntity
  8
0
100
AcDbEllipse
 10
0.6271818972743449
 20
-12.60955235113812
 30
0.0
 11
-2.499999999999999
 21
0.0000000000001496
 31
0.0
210
0.0
220
0.0
230
1.0
 40
0.5773502691896259
 41
0.0
 42
6.283185307179586
  0
ELLIPSE
  5
1518
330
14A2
100
AcDbEntity
  8
0
100
AcDbEllipse
 10
-5.36119343954803
 20
-29.97282505207219
 30
0.0
 11
-2.499999999999999
 21
0.0000000000001496
 31
0.0
210
0.0
220
0.0
230
1.0
 40
0.5773502691896259
 41
0.0
 42
6.283185307179586
  0
ELLIPSE
  5
1519
330
14A2
100
AcDbEntity
  8
0
100
AcDbEllipse
 10
-27.09827735826228
 20
-33.3445971282957
 30
0.0
 11
-2.499999999999999
 21
0.0000000000001496
 31
0.0
210
0.0
220
0.0
230
1.0
 40
0.5773502691896259
 41
0.0
 42
6.283185307179586
  0
ELLIPSE
  5
151A
330
14A2
100
AcDbEntity
  8
0
100
AcDbEllipse
 10
11.23378361507257
 20
-18.73327670809605
 30
0.0
 11
-2.499999999999999
 21
0.0000000000001496
 31
0.0
210
0.0
220
0.0
230
1.0
 40
0.5773502691896259
 41
0.0
 42
6.283185307179586
  0
ELLIPSE
  5
151B
330
14A2
100
AcDbEntity
  8
0
100
AcDbEllipse
 10
11.23378361507257
 20
-20.77451816041537
 30
0.0
 11
-2.499999999999999
 21
-0.0000000000001489
 31
0.0
210
0.0
220
0.0
230
1.0
 40
0.5773502691896259
 41
3.926990816987
 42
5.497787143781898
  0
ELLIPSE
  5
151C
330
14A2
100
AcDbEntity
  8
0
100
AcDbEllipse
 10
0.6271818972743449
 20
-14.65079380345743
 30
0.0
 11
-2.499999999999999
 21
-0.0000000000001489
 31
0.0
210
0.0
220
0.0
230
1.0
 40
0.5773502691896259
 41
3.926990816987
 42
5.497787143781897
  0
ELLIPSE
  5
151D
330
14A2
100
AcDbEntity
  8
0
100
AcDbEllipse
 10
-27.09827735826228
 20
-35.38583858061502
 30
0.0
 11
-2.499999999999999
 21
-0.0000000000001489
 31
0.0
210
0.0
220
0.0
230
1.0
 40
0.5773502691896259
 41
3.926990816987
 42
5.497787143781896
  0
ELLIPSE
  5
151E
330
14A2
100
AcDbEntity
  8
0
100
AcDbEllipse
 10
-3.284471329871165
 20
-23.82335189277665
 30
0.0
 11
-2.499999999999999
 21
-0.0000000000001489
 31
0.0
210
0.0
220
0.0
230
1.0
 40
0.5773502691896259
 41
3.926990816987
 42
5.497787143781899
  0
ELLIPSE
  5
151F
330
14A2
100
AcDbEntity
  8
0
100
AcDbEllipse
 10
-18.930550611097
 20
-28.26227739330616
 30
0.0
 11
-2.499999999999999
 21
-0.0000000000001489
 31
0.0
210
0.0
220
0.0
230
1.0
 40
0.5773502691896259
 41
3.926990816987
 42
5.497787143781898
  0
ELLIPSE
  5
1520
330
14A2
100
AcDbEntity
  8
0
100
AcDbEllipse
 10
-5.36119343954803
 20
-32.01406650439151
 30
0.0
 11
-2.499999999999999
 21
-0.0000000000001489
 31
0.0
210
0.0
220
0.0
230
1.0
 40
0.5773502691896259
 41
3.926990816987
 42
5.497787143781899
  0
ELLIPSE
  5
1521
330
14A2
100
AcDbEntity
  8
0
100
AcDbEllipse
 10
-50.95238188535478
 20
-48.14980379077178
 30
0.0
 11
-2.499999999999999
 21
-0.0000000000001489
 31
0.0
210
0.0
220
0.0
230
1.0
 40
0.5773502691896259
 41
3.926990816987002
 42
5.497787143781897
  0
ELLIPSE
  5
1522
330
14A2
100
AcDbEntity
  8
0
100
AcDbEllipse
 10
18.71483500224572
 20
-43.8731265539589
 30
0.0
 11
2.499999999999999
 21
-0.0000000000001496
 31
0.0
210
0.0
220
0.0
230
1.0
 40
0.5773502691896259
 41
0.0
 42
6.283185307179586
  0
ELLIPSE
  5
1523
330
14A2
100
AcDbEntity
  8
0
100
AcDbEllipse
 10
48.78890550593722
 20
-40.41573644123597
 30
0.0
 11
2.499999999999999
 21
-0.0000000000001496
 31
0.0
210
0.0
220
0.0
230
1.0
 40
0.5773502691896259
 41
0.0
 42
6.283185307179586
  0
ELLIPSE
  5
1524
330
14A2
100
AcDbEntity
  8
0
100
AcDbEllipse
 10
38.18230378813902
 20
-34.29201208427802
 30
0.0
 11
2.499999999999999
 21
-0.0000000000001496
 31
0.0
210
0.0
220
0.0
230
1.0
 40
0.5773502691896259
 41
0.0
 42
6.283185307179586
  0
ELLIPSE
  5
1525
330
14A2
100
AcDbEntity
  8
0
100
AcDbEllipse
 10
32.90156885985943
 20
-42.67413048490491
 30
0.0
 11
2.499999999999999
 21
-0.0000000000001496
 31
0.0
210
0.0
220
0.0
230
1.0
 40
0.5773502691896259
 41
0.0
 42
6.283185307179586
  0
ELLIPSE
  5
1526
330
14A2
100
AcDbEntity
  8
0
100
AcDbEllipse
 10
25.21312436192922
 20
-51.70739856968288
 30
0.0
 11
2.499999999999999
 21
-0.0000000000001496
 31
0.0
210
0.0
220
0.0
230
1.0
 40
0.5773502691896259
 41
0.0
 42
6.283185307179586
  0
ELLIPSE
  5
1527
330
14A2
100
AcDbEntity
  8
0
100
AcDbEllipse
 10
-9.233081795348464
 20
-70.19521147582039
 30
0.0
 11
2.499999999999999
 21
-0.0000000000001496
 31
0.0
210
0.0
220
0.0
230
1.0
 40
0.5773502691896259
 41
0.0
 42
6.283185307179586
  0
ELLIPSE
  5
1528
330
14A2
100
AcDbEntity
  8
0
100
AcDbEllipse
 10
12.8747544546846
 20
-56.42303780582604
 30
0.0
 11
2.499999999999999
 21
-0.0000000000001496
 31
0.0
210
0.0
220
0.0
230
1.0
 40
0.5773502691896259
 41
0.0
 42
6.283185307179586
  0
ELLIPSE
  5
1529
330
14A2
100
AcDbEntity
  8
0
100
AcDbEllipse
 10
38.18230378813902
 20
-36.33325353659734
 30
0.0
 11
-2.499999999999999
 21
-0.0000000000001489
 31
0.0
210
0.0
220
0.0
230
1.0
 40
0.5773502691896259
 41
3.926990816987
 42
5.497787143781896
  0
ELLIPSE
  5
152A
330
14A2
100
AcDbEntity
  8
0
100
AcDbEllipse
 10
32.90156885985943
 20
-44.71537193722422
 30
0.0
 11
-2.499999999999999
 21
-0.0000000000001489
 31
0.0
210
0.0
220
0.0
230
1.0
 40
0.5773502691896259
 41
3.926990816987
 42
5.497787143781896
  0
ELLIPSE
  5
152B
330
14A2
100
AcDbEntity
  8
0
100
AcDbEllipse
 10
25.21312436192922
 20
-53.74864002200219
 30
0.0
 11
-2.499999999999999
 21
-0.0000000000001489
 31
0.0
210
0.0
220
0.0
230
1.0
 40
0.5773502691896259
 41
3.926990816987
 42
5.497787143781896
  0
ELLIPSE
  5
152C
330
14A2
100
AcDbEntity
  8
0
100
AcDbEllipse
 10
12.8747544546846
 20
-58.46427925814537
 30
0.0
 11
-2.499999999999999
 21
-0.0000000000001489
 31
0.0
210
0.0
220
0.0
230
1.0
 40
0.5773502691896259
 41
3.926990816987
 42
5.497787143781897
  0
ELLIPSE
  5
152D
330
14A2
100
AcDbEntity
  8
0
100
AcDbEllipse
 10
48.78890550593722
 20
-42.45697789355529
 30
0.0
 11
-2.499999999999999
 21
-0.0000000000001489
 31
0.0
210
0.0
220
0.0
230
1.0
 40
0.5773502691896259
 41
3.926990816987002
 42
5.497787143781897
  0
ELLIPSE
  5
152E
330
14A2
100
AcDbEntity
  8
0
100
AcDbEllipse
 10
18.71483500224572
 20
-45.91436800627821
 30
0.0
 11
-2.499999999999999
 21
-0.0000000000001489
 31
0.0
210
0.0
220
0.0
230
1.0
 40
0.5773502691896259
 41
3.926990816987
 42
5.497787143781896
  0
ELLIPSE
  5
152F
330
14A2
100
AcDbEntity
  8
0
100
AcDbEllipse
 10
-9.233081795348464
 20
-72.23645292813969
 30
0.0
 11
-2.499999999999999
 21
-0.0000000000001489
 31
0.0
210
0.0
220
0.0
230
1.0
 40
0.5773502691896259
 41
3.926990816987
 42
5.497787143781897
  0
LINE
  5
1530
330
14A2
100
AcDbEntity
  8
0
100
AcDbLine
 10
22.67822860939517
 20
-15.13452284465373
 30
0.0
 11
4.14498323512523
 21
-4.434348638905367
 31
0.0
  0
LINE
  5
1531
330
14A2
100
AcDbEntity
  8
0
100
AcDbLine
 10
62.94877369775003
 20
-38.38473289187214
 30
0.0
 11
43.84775180420782
 21
-27.35675275979485
 31
0.0
  0
LINE
  5
1532
330
14A2
100
AcDbEntity
  8
0
100
AcDbLine
 10
64.71654065071636
 20
-35.32287071365489
 30
0.0
 11
45.6155187571363
 21
-24.29489058138155
 31
0.0
  0
LINE
  5
1533
330
14A2
100
AcDbEntity
  8
0
100
AcDbLine
 10
24.44599556232363
 20
-12.07266066624043
 30
0.0
 11
5.912750188091644
 21
-1.372486460688171
 31
0.0
  0
LINE
  5
1534
330
14A2
100
AcDbEntity
  8
0
100
AcDbLine
 10
4.14498323512523
 20
-4.434348638905367
 30
0.0
 11
-61.91253699374627
 21
-39.78071383626259
 31
0.0
  0
ELLIPSE
  5
1535
330
14A2
100
AcDbEntity
  8
0
100
AcDbEllipse
 10
-836.9820637292585
 20
407.7058860651614
 30
0.0
 11
1186.113836491458
 21
-0.0000000000000711
 31
0.0
210
0.0
220
0.0
230
1.0
 40
0.5773502691896261
 41
5.497787143782137
 42
5.573738189894649
  0
ELLIPSE
  5
1536
330
14A2
100
AcDbEntity
  8
0
100
AcDbEllipse
 10
-771.5746864695098
 20
520.9947866685099
 30
0.0
 11
-593.0569182457952
 21
1027.204714181797
 31
0.0
210
0.0
220
0.0
230
1.0
 40
0.5773502691896259
 41
3.851039770874566
 42
3.926990816987368
  0
LINE
  5
1537
330
14A2
100
AcDbEntity
  8
0
100
AcDbLine
 10
3.494840266009364
 20
73.50818676745937
 30
0.0
 11
5.912750188091644
 21
-1.372486460688175
 31
0.0
  0
ELLIPSE
  5
1538
330
14A2
100
AcDbEntity
  8
0
100
AcDbEllipse
 10
-836.9820637292585
 20
405.6646446128421
 30
0.0
 11
-1186.113836491458
 21
0.0000000000707701
 31
0.0
210
0.0
220
0.0
230
1.0
 40
0.5773502691896259
 41
2.356194490192606
 42
2.432145536305139
  0
ELLIPSE
  5
1539
330
14A2
100
AcDbEntity
  8
0
100
AcDbEllipse
 10
-769.8069195165435
 20
522.0154073946696
 30
0.0
 11
593.0569182457336
 21
-1027.204714181832
 31
0.0
210
0.0
220
0.0
230
0.9999999999999998
 40
0.5773502691896258
 41
0.7094471172847854
 42
0.7853981633978373
  0
SPLINE
  5
153A
330
14A2
100
AcDbEntity
  8
0
100
AcDbSpline
210
0.0
220
0.0
230
1.0
 70
     8
 71
     3
 72
     8
 73
     4
 74
     0
 42
0.000000001
 43
0.0000000001
 40
0.0
 40
0.0
 40
0.0
 40
0.0
 40
0.9999999999999998
 40
0.9999999999999998
 40
0.9999999999999998
 40
0.9999999999999998
 10
66.48430760368265
 20
-34.30224998775694
 30
0.0
 10
66.38307512139096
 20
-36.37727459576343
 30
0.0
 10
64.69518148061459
 20
-39.30079213910851
 30
0.0
 10
62.94877369774994
 20
-40.42597434419139
 30
0.0
  0
SPLINE
  5
153B
330
14A2
100
AcDbEntity
  8
0
100
AcDbSpline
210
0.0
220
0.0
230
1.0
 70
     8
 71
     3
 72
     8
 73
     4
 74
     0
 42
0.000000001
 43
0.0000000001
 40
-1.0
 40
-1.0
 40
-1.0
 40
-1.0
 40
0.0
 40
0.0
 40
0.0
 40
0.0
 10
5.912750188091688
 20
-1.372486460688189
 30
0.0
 10
5.963366429005052
 20
-2.469987454317892
 30
0.0
 10
5.120755096743052
 20
-3.92943309270207
 30
0.0
 10
4.14498323512527
 20
-4.434348638905387
 30
0.0
  0
LINE
  5
153C
330
14A2
100
AcDbEntity
  8
0
100
AcDbLine
 10
67.13445057279864
 20
36.76584062571172
 30
0.0
 11
68.90221752576502
 21
37.78646135187138
 31
0.0
  0
LINE
  5
153D
330
14A2
100
AcDbEntity
  8
0
100
AcDbLine
 10
64.71654065071636
 20
-35.32287071365489
 30
0.0
 11
65.49435811003376
 21
-34.87379759425268
 31
0.0
  0
LINE
  5
153E
330
14A2
100
AcDbEntity
  8
0
100
AcDbLine
 10
65.49435811003376
 20
-34.87379759425268
 30
0.0
 11
66.48430760368272
 21
-34.30224998775698
 31
0.0
  0
SPLINE
  5
153F
330
14A2
100
AcDbEntity
  8
0
100
AcDbSpline
210
0.0
220
0.0
230
1.0
 70
     8
 71
     3
 72
     8
 73
     4
 74
     0
 42
0.000000001
 43
0.0000000001
 40
-1.0
 40
-1.0
 40
-1.0
 40
-1.0
 40
0.0
 40
0.0
 40
0.0
 40
0.0
 10
62.94877369774994
 20
-38.38473289187208
 30
0.0
 10
63.77136134815444
 20
-37.79291848894786
 30
0.0
 10
64.61530816854305
 20
-36.33115971727556
 30
0.0
 10
64.71654065071627
 20
-35.32287071365484
 30
0.0
  0
LINE
  5
1540
330
14A2
100
AcDbEntity
  8
0
100
AcDbLine
 10
62.94877369775003
 20
-38.38473289187214
 30
0.0
 11
62.94877369775003
 21
-39.28287913093233
 31
0.0
  0
LINE
  5
1541
330
14A2
100
AcDbEntity
  8
0
100
AcDbLine
 10
62.94877369775003
 20
-39.28287913093233
 30
0.0
 11
62.94877369775003
 21
-40.42597434419144
 31
0.0
  0
LINE
  5
1542
330
14A2
100
AcDbEntity
  8
0
100
AcDbLine
 10
1.727073313043021
 20
-78.56430143032959
 30
0.0
 11
1.727073313043021
 21
-76.52305997801028
 31
0.0
  0
LINE
  5
1543
330
14A2
100
AcDbEntity
  8
0
100
AcDbLine
 10
-61.91253699374626
 20
-47.94567964553985
 30
0.0
 11
-61.91253699374627
 21
-39.78071383626259
 31
0.0
  0
LINE
  5
1544
330
14A2
100
AcDbEntity
  8
0
100
AcDbLine
 10
1.727073313043021
 20
-76.52305997801028
 30
0.0
 11
-12.41506231068793
 21
-76.52305997801025
 31
0.0
  0
LINE
  5
1545
330
14A2
100
AcDbEntity
  8
0
100
AcDbLine
 10
60.06338276093316
 20
49.0132893396276
 30
0.0
 11
67.13445057279864
 21
36.76584062571172
 31
0.0
  0
LINE
  5
1546
330
14A2
100
AcDbEntity
  8
0
100
AcDbLine
 10
3.494840266009364
 20
73.50818676745937
 30
0.0
 11
10.56590807787484
 21
77.59066967209801
 31
0.0
  0
LINE
  5
1547
330
14A2
100
AcDbEntity
  8
0
100
AcDbLine
 10
-12.41506231068793
 20
-78.56430143032958
 30
0.0
 11
1.727073313043021
 21
-78.56430143032959
 31
0.0
  0
LINE
  5
1548
330
14A2
100
AcDbEntity
  8
0
100
AcDbLine
 10
68.90221752576502
 20
37.78646135187138
 30
0.0
 11
61.83114971389954
 21
50.03391006578727
 31
0.0
  0
LINE
  5
1549
330
14A2
100
AcDbEntity
  8
0
100
AcDbLine
 10
-61.91253699374626
 20
-49.98692109785917
 30
0.0
 11
-61.91253699374626
 21
-47.94567964553985
 31
0.0
  0
LINE
  5
154A
330
14A2
100
AcDbEntity
  8
0
100
AcDbLine
 10
-12.41506231068793
 20
-76.52305997801025
 30
0.0
 11
-12.41506231068793
 21
-78.56430143032958
 31
0.0
  0
LINE
  5
154B
330
14A2
100
AcDbEntity
  8
0
100
AcDbLine
 10
61.83114971389954
 20
50.03391006578727
 30
0.0
 11
60.06338276093316
 21
49.0132893396276
 31
0.0
  0
LINE
  5
154C
330
14A2
100
AcDbEntity
  8
0
100
AcDbLine
 10
10.56590807787484
 20
77.59066967209801
 30
0.0
 11
12.33367503084121
 21
78.61129039825768
 31
0.0
  0
LINE
  5
154D
330
14A2
100
AcDbEntity
  8
0
100
AcDbLine
 10
-61.91253699374626
 20
-47.94567964553985
 30
0.0
 11
-12.41506231068793
 21
-76.52305997801025
 31
0.0
  0
LINE
  5
154E
330
14A2
100
AcDbEntity
  8
0
100
AcDbLine
 10
10.56590807787484
 20
77.59066967209801
 30
0.0
 11
60.06338276093316
 21
49.0132893396276
 31
0.0
  0
LINE
  5
154F
330
14A2
100
AcDbEntity
  8
0
100
AcDbLine
 10
-61.91253699374626
 20
-49.98692109785917
 30
0.0
 11
-12.41506231068793
 21
-78.56430143032958
 31
0.0
  0
LINE
  5
1550
330
14A2
100
AcDbEntity
  8
0
100
AcDbLine
 10
61.83114971389954
 20
50.03391006578727
 30
0.0
 11
12.33367503084121
 21
78.61129039825768
 31
0.0
  0
SPLINE
  5
1551
330
14A2
100
AcDbEntity
  8
0
100
AcDbSpline
210
0.0
220
0.0
230
1.0
 70
     8
 71
     3
 72
    10
 73
     6
 74
     0
 42
0.000000001
 43
0.0000000001
 40
-1.496237008314636
 40
-1.496237008314636
 40
-1.496237008314636
 40
-1.496237008314636
 40
-0.8245470935294457
 40
-0.8245470935294457
 40
0.0
 40
0.0
 40
0.0
 40
0.0
 10
31.18885621189409
 20
-31.91837822527618
 30
0.0
 10
32.88780908581231
 20
-31.0774519736692
 30
0.0
 10
34.7189747946406
 20
-30.32604770490451
 30
0.0
 10
38.9489622430213
 20
-28.80049529513304
 30
0.0
 10
41.37979266299528
 20
-28.0551739963209
 30
0.0
 10
43.84775180424572
 20
-27.35675275977296
 30
0.0
  0
SPLINE
  5
1552
330
14A2
100
AcDbEntity
  8
0
100
AcDbSpline
210
0.0
220
0.0
230
1.0
 70
     8
 71
     3
 72
    10
 73
     6
 74
     0
 42
0.000000001
 43
0.0000000001
 40
-10.98004575331596
 40
-10.98004575331596
 40
-10.98004575331596
 40
-10.98004575331596
 40
-10.15547261230701
 40
-10.15547261230701
 40
-9.483808742832671
 40
-9.483808742832671
 40
-9.483808742832671
 40
-9.483808742832671
 10
45.6155187571363
 20
-24.29489058142535
 30
0.0
 10
44.98636984568975
 20
-21.80828610186129
 30
0.0
 10
44.4164054096646
 20
-19.33038633427498
 30
0.0
 10
43.62259450992768
 20
-14.90433840630115
 30
0.0
 10
43.35776274144051
 20
-12.94287887165239
 30
0.0
 10
43.23655449663626
 20
-11.05115268184229
 30
0.0
  0
SPLINE
  5
1553
330
14A2
100
AcDbEntity
  8
0
100
AcDbSpline
210
0.0
220
0.0
230
1.0
 70
     8
 71
     3
 72
    10
 73
     6
 74
     0
 42
0.000000001
 43
0.0000000001
 40
0.0
 40
0.0
 40
0.0
 40
0.0
 40
0.8245470935294457
 40
0.8245470935294457
 40
1.531463165734808
 40
1.531463165734808
 40
1.531463165734808
 40
1.531463165734808
 10
42.80090305645074
 20
-24.71111290110949
 30
0.0
 10
40.29208177351408
 20
-25.48030944316431
 30
0.0
 10
37.80603489303364
 20
-26.31218141503685
 30
0.0
 10
33.32650710560541
 20
-28.05431627243392
 30
0.0
 10
31.31236460765371
 20
-28.94078517880429
 30
0.0
 10
29.43837510953382
 20
-29.91004635866805
 30
0.0
  0
SPLINE
  5
1554
330
14A2
100
AcDbEntity
  8
0
100
AcDbSpline
210
0.0
220
0.0
230
1.0
 70
     8
 71
     3
 72
    10
 73
     6
 74
     0
 42
0.000000001
 43
0.0000000001
 40
9.448582585709187
 40
9.448582585709187
 40
9.448582585709187
 40
9.448582585709187
 40
10.15547261230701
 40
10.15547261230701
 40
10.98004575331596
 40
10.98004575331596
 40
10.98004575331596
 40
10.98004575331596
 10
40.62204752974363
 20
-10.53935751165676
 30
0.0
 10
40.7196338853831
 20
-12.64683311057966
 30
0.0
 10
40.95898639450521
 20
-14.83428295998016
 30
0.0
 10
41.69000180103707
 20
-19.58473329290876
 30
0.0
 10
42.21261757744835
 20
-22.15373088038084
 30
0.0
 10
42.80090305637156
 20
-24.71111290124669
 30
0.0
  0
ELLIPSE
  5
1555
330
14A2
100
AcDbEntity
  8
0
100
AcDbEllipse
 10
43.84775180424572
 20
-25.31551130745364
 30
0.0
 11
-0.6807540353417192
 21
2.40552986748574
 31
0.0
210
0.0
220
0.0
230
1.0
 40
0.3593670244230289
 41
1.216802037557459
 42
2.474530698327274
  0
ELLIPSE
  5
1556
330
14A2
100
AcDbEntity
  8
0
100
AcDbEllipse
 10
43.84775180416993
 20
-25.315511307585
 30
0.0
 11
2.423626992475741
 21
0.6132146454081108
 31
0.0
210
0.0
220
0.0
230
0.9999999999999998
 40
0.3593670244230318
 41
0.6670619552633994
 42
1.924790616032831
  0
ELLIPSE
  5
1557
330
14A2
100
AcDbEntity
  8
0
100
AcDbEllipse
 10
43.84775180416993
 20
-25.31551130749742
 30
0.0
 11
1.24999999999987
 21
2.165063509461171
 31
0.0
210
0.0
220
0.0
230
1.0
 40
0.5773502691896255
 41
3.926990817008441
 42
5.497787143760445
  0
ELLIPSE
  5
1558
330
14A2
100
AcDbEntity
  8
0
100
AcDbEllipse
 10
32.83977168525108
 20
47.99266861346795
 30
0.0
 11
3.500000000000001
 21
-6.062177826491071
 31
0.0
210
0.0
220
0.0
230
1.0
 40
0.577350269189626
 41
0.0
 42
6.283185307179586
  0
ELLIPSE
  5
1559
330
14A2
100
AcDbEntity
  8
0
100
AcDbEllipse
 10
34.60753863821745
 20
49.0132893396276
 30
0.0
 11
-3.500000000000002
 21
6.062177826491069
 31
0.0
210
0.0
220
0.0
230
1.0
 40
0.577350269189626
 41
0.2553025216024094
 42
2.886290131987383
  0
ELLIPSE
  5
155A
330
14A2
100
AcDbEntity
  8
0
100
AcDbEllipse
 10
59.39057640976805
 20
2.453180864241031
 30
0.0
 11
1.25
 21
-2.165063509461095
 31
0.0
210
0.0
220
0.0
230
1.0
 40
0.577350269189626
 41
0.0
 42
6.283185307179586
  0
ELLIPSE
  5
155B
330
14A2
100
AcDbEntity
  8
0
100
AcDbEllipse
 10
53.24534942033047
 20
36.6197511056139
 30
0.0
 11
1.25
 21
-2.165063509461095
 31
0.0
210
0.0
220
0.0
230
1.0
 40
0.577350269189626
 41
0.0
 42
6.283185307179586
  0
ELLIPSE
  5
155C
330
14A2
100
AcDbEntity
  8
0
100
AcDbEllipse
 10
22.91877807272623
 20
9.221493285726666
 30
0.0
 11
1.25
 21
-2.165063509461095
 31
0.0
210
0.0
220
0.0
230
1.0
 40
0.577350269189626
 41
0.0
 42
6.283185307179586
  0
ELLIPSE
  5
155D
330
14A2
100
AcDbEntity
  8
0
100
AcDbEllipse
 10
17.75711816427797
 20
53.02640806972087
 30
0.0
 11
1.25
 21
-2.165063509461095
 31
0.0
210
0.0
220
0.0
230
1.0
 40
0.577350269189626
 41
0.0
 42
6.283185307179586
  0
ELLIPSE
  5
155E
330
14A2
100
AcDbEntity
  8
0
100
AcDbEllipse
 10
11.9763555324178
 20
25.74531114655695
 30
0.0
 11
1.25
 21
-2.165063509461095
 31
0.0
210
0.0
220
0.0
230
1.0
 40
0.577350269189626
 41
0.0
 42
6.283185307179586
  0
ELLIPSE
  5
155F
330
14A2
100
AcDbEntity
  8
0
100
AcDbEllipse
 10
22.11280809870169
 20
34.18171769502028
 30
0.0
 11
1.25
 21
-2.165063509461095
 31
0.0
210
0.0
220
0.0
230
1.0
 40
0.577350269189626
 41
0.0
 42
6.283185307179586
  0
ELLIPSE
  5
1560
330
14A2
100
AcDbEntity
  8
0
100
AcDbEllipse
 10
14.45499537440085
 20
69.22157971758881
 30
0.0
 11
1.25
 21
-2.165063509461095
 31
0.0
210
0.0
220
0.0
230
1.0
 40
0.577350269189626
 41
0.0
 42
6.283185307179586
  0
ELLIPSE
  5
1561
330
14A2
100
AcDbEntity
  8
0
100
AcDbEllipse
 10
56.17429546440717
 20
45.13493058022091
 30
0.0
 11
1.25
 21
-2.165063509461095
 31
0.0
210
0.0
220
0.0
230
1.0
 40
0.577350269189626
 41
0.0
 42
6.283185307179586
  0
ELLIPSE
  5
1562
330
14A2
100
AcDbEntity
  8
0
100
AcDbEllipse
 10
49.18846872149053
 20
22.63206065060482
 30
0.0
 11
1.25
 21
-2.165063509461095
 31
0.0
210
0.0
220
0.0
230
1.0
 40
0.577350269189626
 41
0.0
 42
6.283185307179586
  0
ELLIPSE
  5
1563
330
14A2
100
AcDbEntity
  8
0
100
AcDbEllipse
 10
48.38301608003924
 20
-1.397808477865565
 30
0.0
 11
1.25
 21
-2.165063509461095
 31
0.0
210
0.0
220
0.0
230
1.0
 40
0.577350269189626
 41
0.0
 42
6.283185307179586
  0
ELLIPSE
  5
1564
330
14A2
100
AcDbEntity
  8
0
100
AcDbEllipse
 10
24.6865450256926
 20
10.24211401188632
 30
0.0
 11
1.250000000000129
 21
-2.165063509461021
 31
0.0
210
0.0
220
0.0
230
1.0
 40
0.577350269189626
 41
3.926990816986998
 42
5.497787143781897
  0
ELLIPSE
  5
1565
330
14A2
100
AcDbEntity
  8
0
100
AcDbEllipse
 10
13.74412248538417
 20
26.7659318727166
 30
0.0
 11
1.250000000000129
 21
-2.165063509461021
 31
0.0
210
0.0
220
0.0
230
1.0
 40
0.577350269189626
 41
3.926990816986998
 42
5.497787143781894
  0
ELLIPSE
  5
1566
330
14A2
100
AcDbEntity
  8
0
100
AcDbEllipse
 10
61.15834336273444
 20
3.473801590400689
 30
0.0
 11
1.250000000000129
 21
-2.165063509461021
 31
0.0
210
0.0
220
0.0
230
1.0
 40
0.577350269189626
 41
3.926990816986998
 42
5.497787143781894
  0
ELLIPSE
  5
1567
330
14A2
100
AcDbEntity
  8
0
100
AcDbEllipse
 10
50.15078303300561
 20
-0.3771877517059075
 30
0.0
 11
1.250000000000129
 21
-2.165063509461021
 31
0.0
210
0.0
220
0.0
230
1.0
 40
0.577350269189626
 41
3.926990816986998
 42
5.497787143781894
  0
ELLIPSE
  5
1568
330
14A2
100
AcDbEntity
  8
0
100
AcDbEllipse
 10
50.95623567445692
 20
23.65268137676448
 30
0.0
 11
1.250000000000129
 21
-2.165063509461021
 31
0.0
210
0.0
220
0.0
230
1.0
 40
0.577350269189626
 41
3.926990816987
 42
5.497787143781894
  0
ELLIPSE
  5
1569
330
14A2
100
AcDbEntity
  8
0
100
AcDbEllipse
 10
57.94206241737352
 20
46.15555130638057
 30
0.0
 11
1.250000000000129
 21
-2.165063509461021
 31
0.0
210
0.0
220
0.0
230
1.0
 40
0.577350269189626
 41
3.926990816986995
 42
5.497787143781894
  0
ELLIPSE
  5
156A
330
14A2
100
AcDbEntity
  8
0
100
AcDbEllipse
 10
16.22276232736722
 20
70.24220044374849
 30
0.0
 11
1.250000000000129
 21
-2.165063509461021
 31
0.0
210
0.0
220
0.0
230
1.0
 40
0.577350269189626
 41
3.926990816986998
 42
5.497787143781894
  0
ELLIPSE
  5
156B
330
14A2
100
AcDbEntity
  8
0
100
AcDbEllipse
 10
23.88057505166806
 20
35.20233842117994
 30
0.0
 11
1.250000000000129
 21
-2.165063509461021
 31
0.0
210
0.0
220
0.0
230
1.0
 40
0.577350269189626
 41
3.926990816986998
 42
5.497787143781897
  0
ELLIPSE
  5
156C
330
14A2
100
AcDbEntity
  8
0
100
AcDbEllipse
 10
19.52488511724434
 20
54.04702879588052
 30
0.0
 11
1.250000000000129
 21
-2.165063509461021
 31
0.0
210
0.0
220
0.0
230
1.0
 40
0.577350269189626
 41
3.926990816986998
 42
5.497787143781894
  0
ELLIPSE
  5
156D
330
14A2
100
AcDbEntity
  8
0
100
AcDbEllipse
 10
55.01311637329685
 20
37.64037183177356
 30
0.0
 11
1.250000000000129
 21
-2.165063509461021
 31
0.0
210
0.0
220
0.0
230
1.0
 40
0.577350269189626
 41
3.926990816987
 42
5.497787143781894
  0
ELLIPSE
  5
156E
330
14A2
100
AcDbEntity
  8
0
100
AcDbEllipse
 10
16.01063029301125
 20
6.269693328061163
 30
0.0
 11
2.75
 21
-4.763139720814411
 31
0.0
210
0.0
220
0.0
230
1.0
 40
0.5773502691896261
 41
0.0
 42
6.283185307179586
  0
ELLIPSE
  5
156F
330
14A2
100
AcDbEntity
  8
0
100
AcDbEllipse
 10
54.61866054579676
 20
-16.02066333126576
 30
0.0
 11
2.75
 21
-4.763139720814411
 31
0.0
210
0.0
220
0.0
230
1.0
 40
0.5773502691896261
 41
0.0
 42
6.283185307179586
  0
ELLIPSE
  5
1570
330
14A2
100
AcDbEntity
  8
0
100
AcDbEllipse
 10
56.38642749876312
 20
-15.0000426051061
 30
0.0
 11
-2.75
 21
4.763139720814411
 31
0.0
210
0.0
220
0.0
230
1.0
 40
0.5773502691896261
 41
0.3272204132950636
 42
2.814372240294725
  0
ELLIPSE
  5
1571
330
14A2
100
AcDbEntity
  8
0
100
AcDbEllipse
 10
17.77839724597762
 20
7.290314054220821
 30
0.0
 11
-2.75
 21
4.763139720814411
 31
0.0
210
0.0
220
0.0
230
1.0
 40
0.5773502691896261
 41
0.3272204132950653
 42
2.814372240294727
  0
ELLIPSE
  5
1572
330
14A2
100
AcDbEntity
  8
0
100
AcDbEllipse
 10
26.38898472548485
 20
-15.23568743489961
 30
0.0
 11
-7.507809733902932
 21
-13.00390791267827
 31
0.0
210
0.0
220
0.0
230
1.0
 40
0.5773502691896255
 41
0.9250245035571609
 42
2.216568150032962
  0
SPLINE
  5
1573
330
14A2
100
AcDbEntity
  8
0
100
AcDbSpline
210
0.0
220
0.0
230
1.0
 70
     8
 71
     3
 72
    18
 73
    14
 74
     0
 42
0.000000001
 43
0.0000000001
 40
0.1396263401595468
 40
0.1396263401595468
 40
0.1396263401595468
 40
0.1396263401595468
 40
0.3724222393395685
 40
0.3724222393395685
 40
0.6206878350114535
 40
0.6206878350114535
 40
0.8786165562253218
 40
0.8786165562253218
 40
1.136925285520482
 40
1.136925285520482
 40
1.388331214913676
 40
1.388331214913676
 40
1.431169986635349
 40
1.431169986635349
 40
1.431169986635349
 40
1.431169986635349
 10
26.30227912175759
 20
-6.014962581455282
 30
0.0
 10
26.21439277282191
 20
-6.78778868767684
 30
0.0
 10
26.04399759674889
 20
-7.659908187925852
 30
0.0
 10
25.50668109232314
 20
-9.558342039379866
 30
0.0
 10
25.12785111106373
 20
-10.59082966585285
 30
0.0
 10
24.1734383237697
 20
-12.6833164269177
 30
0.0
 10
23.59094820911568
 20
-13.74268670856009
 30
0.0
 10
22.29440478927342
 20
-15.73236930268284
 30
0.0
 10
21.58015009519523
 20
-16.66225176001595
 30
0.0
 10
20.13316226718032
 20
-18.2717940869724
 30
0.0
 10
19.40131879228143
 20
-18.95694686425233
 30
0.0
 10
18.5919495841223
 20
-19.5966825077574
 30
0.0
 10
18.47532485199092
 20
-19.6858474356302
 30
0.0
 10
18.36024995923189
 20
-19.7709606061435
 30
0.0
  0
ENDBLK
  5
14A4
330
14A2
100
AcDbEntity
  8
0
100
AcDbBlockEnd
  0
ENDSEC
  0
SECTION
  2
ENTITIES
  0
INSERT
  5
1574
330
1F
100
AcDbEntity
  8
0
100
AcDbBlockReference
  2
ABR10525-Front
 10
0.0
 20
0.0
 30
0.0
  0
INSERT
  5
1575
330
1F
100
AcDbEntity
  8
0
100
AcDbBlockReference
  2
ABR10525-Left
 10
76.50000000000023
 20
0.0
 30
0.0
  0
INSERT
  5
1576
330
1F
100
AcDbEntity
  8
0
100
AcDbBlockReference
  2
ABR10525-Right
 10
-76.50000000000002
 20
0.0
 30
0.0
  0
INSERT
  5
1577
330
1F
100
AcDbEntity
  8
0
100
AcDbBlockReference
  2
ABR10525-Top
 10
0.0
 20
-31.5
 30
0.0
  0
INSERT
  5
1578
330
1F
100
AcDbEntity
  8
0
100
AcDbBlockReference
  2
ABR10525-Bottom
 10
0.0
 20
136.5
 30
0.0
  0
INSERT
  5
1579
330
1F
100
AcDbEntity
  8
0
100
AcDbBlockReference
  2
ABR10525-ISO
 10
138.4125369937465
 20
-110.1112903982577
 30
0.0
  0
MTEXT
  5
157A
330
1F
100
AcDbEntity
  8
0
100
AcDbMText
 10
0.0
 20
-168.0
 30
0.0
 40
10.5
 41
0.0
 71
     5
 72
     5
  1
ABR10525
 73
     1
 44
1.0
1001
ACAD
1000
MTEXTBEGIN
1070
    73
1070
     1
1070
    44
1040
1.0
1070
    74
1070
     0
1000
MTEXTEND
  0
ENDSEC
  0
SECTION
  2
OBJECTS
  0
DICTIONARY
  5
C
330
0
100
AcDbDictionary
281
     1
  3
ACAD_CIP_PREVIOUS_PRODUCT_INFO
350
216
  3
ACAD_COLOR
350
6B
  3
ACAD_DETAILVIEWSTYLE
350
21B
  3
ACAD_GROUP
350
D
  3
ACAD_LAYOUT
350
1A
  3
ACAD_MATERIAL
350
6A
  3
ACAD_MLEADERSTYLE
350
12D
  3
ACAD_MLINESTYLE
350
17
  3
ACAD_PLOTSETTINGS
350
19
  3
ACAD_PLOTSTYLENAME
350
E
  3
ACAD_SCALELIST
350
10C
  3
ACAD_SECTIONVIEWSTYLE
350
219
  3
ACAD_TABLESTYLE
350
7E
  3
ACAD_VISUALSTYLE
350
EF
  3
ACDB_RECOMPOSE_DATA
350
167B
  3
AcDbVariableDictionary
350
5E
  3
DWGPROPS
350
167C
  0
DICTIONARY
  5
15CB
330
8
100
AcDbDictionary
280
     1
281
     1
  0
DICTIONARY
  5
1FF
330
2
100
AcDbDictionary
280
     1
281
     1
  3
ACAD_LAYERSTATES
360
200
  0
DICTIONARY
  5
13C
330
10
100
AcDbDictionary
280
     1
281
     1
  0
DICTIONARY
  5
1CE
330
1F
100
AcDbDictionary
280
     1
281
     1
  3
ACAD_LAYOUTSELFREF
360
15D3
  0
DICTIONARY
  5
157E
330
D2
100
AcDbDictionary
280
     1
281
     1
  3
ACAD_LAYOUTSELFREF
360
15DC
  0
DICTIONARY
  5
1580
330
D6
100
AcDbDictionary
280
     1
281
     1
  3
ACAD_LAYOUTSELFREF
360
15DF
  0
XRECORD
  5
216
102
{ACAD_REACTORS
330
C
102
}
330
C
100
AcDbXrecord
280
     1
300
ACD
300
2021
300

  0
DICTIONARY
  5
6B
102
{ACAD_REACTORS
330
C
102
}
330
C
100
AcDbDictionary
281
     1
  0
DICTIONARY
  5
21B
102
{ACAD_REACTORS
330
C
102
}
330
C
100
AcDbDictionary
281
     1
  3
Metric50
350
21C
  0
DICTIONARY
  5
D
102
{ACAD_REACTORS
330
C
102
}
330
C
100
AcDbDictionary
281
     1
  0
DICTIONARY
  5
1A
102
{ACAD_REACTORS
330
C
102
}
330
C
100
AcDbDictionary
281
     1
  3
Layout1
350
D3
  3
Layout2
350
D7
  3
Model
350
22
  0
DICTIONARY
  5
6A
102
{ACAD_REACTORS
330
C
102
}
330
C
100
AcDbDictionary
281
     1
  3
ByBlock
350
ED
  3
ByLayer
350
EC
  3
Global
350
EE
  0
DICTIONARY
  5
12D
102
{ACAD_REACTORS
330
C
102
}
330
C
100
AcDbDictionary
281
     1
  3
Standard
350
12E
  0
DICTIONARY
  5
17
102
{ACAD_REACTORS
330
C
102
}
330
C
100
AcDbDictionary
281
     1
  3
Standard
350
18
  0
DICTIONARY
  5
19
102
{ACAD_REACTORS
330
C
102
}
330
C
100
AcDbDictionary
281
     1
  0
ACDBDICTIONARYWDFLT
  5
E
102
{ACAD_REACTORS
330
C
102
}
330
C
100
AcDbDictionary
281
     1
  3
Normal
350
F
100
AcDbDictionaryWithDefault
340
F
  0
DICTIONARY
  5
10C
102
{ACAD_REACTORS
330
C
102
}
330
C
100
AcDbDictionary
281
     1
  3
A0
350
10D
  3
A1
350
1BE
  3
A2
350
1BF
  3
A3
350
1C0
  3
A4
350
1C1
  3
A5
350
1C2
  3
A6
350
1C3
  3
A7
350
1C4
  3
A8
350
1C5
  3
A9
350
1C6
  3
B0
350
1C7
  3
B1
350
1C8
  3
B2
350
1C9
  3
B3
350
1CA
  3
B4
350
1CB
  3
B5
350
1CC
  3
B6
350
1CD
  0
DICTIONARY
  5
219
102
{ACAD_REACTORS
330
C
102
}
330
C
100
AcDbDictionary
281
     1
  3
Metric50
350
21A
  0
DICTIONARY
  5
7E
102
{ACAD_REACTORS
330
C
102
}
330
C
100
AcDbDictionary
281
     1
  3
Standard
350
7F
  0
DICTIONARY
  5
EF
102
{ACAD_REACTORS
330
C
102
}
330
C
100
AcDbDictionary
281
     1
  3
2dWireframe
350
F5
  3
Basic
350
F4
  3
Brighten
350
FB
  3
ColorChange
350
FF
  3
Conceptual
350
F8
  3
Dim
350
FA
  3
EdgeColorOff
350
1E6
  3
Facepattern
350
FE
  3
Flat
350
F0
  3
FlatWithEdges
350
F1
  3
Gouraud
350
F2
  3
GouraudWithEdges
350
F3
  3
Hidden
350
F7
  3
JitterOff
350
1E4
  3
Linepattern
350
FD
  3
OverhangOff
350
1E5
  3
Realistic
350
F9
  3
Shaded
350
1F3
  3
Shaded with edges
350
1F2
  3
Shades of Gray
350
1EF
  3
Sketchy
350
1F0
  3
Thicken
350
FC
  3
Wireframe
350
F6
  3
X-Ray
350
1F1
  0
XRECORD
  5
167B
102
{ACAD_REACTORS
330
C
102
}
330
C
100
AcDbXrecord
280
     1
 90
        1
330
7F
  0
DICTIONARY
  5
5E
102
{ACAD_REACTORS
330
C
102
}
330
C
100
AcDbDictionary
281
     1
  3
CANNOSCALE
350
146
  3
CENTEREXE
350
259
  3
CENTERLTYPEFILE
350
25A
  3
CMLEADERSTYLE
350
145
  3
CTABLESTYLE
350
84
  3
CVIEWDETAILSTYLE
350
227
  3
CVIEWSECTIONSTYLE
350
228
  3
DIMASSOC
350
5F
  3
HIDETEXT
350
63
  3
INDEXCTL
350
1628
  3
LAYEREVAL
350
1AE
  3
LAYERNOTIFY
350
1AF
  3
LIGHTINGUNITS
350
1626
  3
MSLTSCALE
350
1625
  3
PSOLHEIGHT
350
1678
  3
PSOLWIDTH
350
1677
  3
SORTENTS
350
1627
  3
XCLIPFRAME
350
1679
  0
XRECORD
  5
167C
102
{ACAD_REACTORS
330
C
102
}
330
C
100
AcDbXrecord
280
     1
  1
DWGPROPS COOKIE
  2

  3

  4

  6

  7

  8
tronnguyen
  9

300
=
301
=
302
=
303
=
304
=
305
=
306
=
307
=
308
=
309
=
 40
0.0034606481481481
 41
2460367.705740741
 42
2460367.710717592
  1

 90
        0
  0
DICTIONARY
  5
200
102
{ACAD_REACTORS
330
1FF
102
}
330
1FF
100
AcDbDictionary
281
     1
  0
XRECORD
  5
15D3
102
{ACAD_REACTORS
330
1CE
102
}
330
1CE
100
AcDbXrecord
280
     1
340
1F
  0
XRECORD
  5
15DC
102
{ACAD_REACTORS
330
157E
102
}
330
157E
100
AcDbXrecord
280
     1
340
D2
  0
XRECORD
  5
15DF
102
{ACAD_REACTORS
330
1580
102
}
330
1580
100
AcDbXrecord
280
     1
340
D6
  0
ACDBDETAILVIEWSTYLE
  5
21C
102
{ACAD_XDICTIONARY
360
16BB
102
}
102
{ACAD_REACTORS
330
21B
102
}
330
21B
100
AcDbModelDocViewStyle
 70
     0
  3
Metric50
290
     0
100
AcDbDetailViewStyle
 70
     0
 71
     0
 90
        3
 71
     1
340
11
 40
5.0
340
0
 40
5.0
300

 40
0.0
280
     1
 71
     2
340
16
 90
       25
 71
     3
340
11
 40
5.0
 90
        0
 40
15.0
 90
        1
300
%<\AcVar ViewDetailId>% (%<\AcVar ViewScale \f "%sn">%)
 71
     4
340
16
 90
       25
340
16
 90
       25
280
     0
  0
LAYOUT
  5
D3
102
{ACAD_XDICTIONARY
360
1680
102
}
102
{ACAD_REACTORS
330
1A
102
}
330
1A
100
AcDbPlotSettings
  1

  2
C:\Documents and Settings\basas\Application Data\Autodesk\AutoCAD 2005\R16.1\enu\plotters\Default Windows System Printer.pc3
  4

  6

 40
0.0
 41
0.0
 42
0.0
 43
0.0
 44
0.0
 45
0.0
 46
0.0
 47
0.0
 48
0.0
 49
0.0
140
0.0
141
0.0
142
1.0
143
1.0
 70
   688
 72
     0
 73
     0
 74
     5
  7

 75
    16
147
1.0
148
0.0
149
0.0
100
AcDbLayout
  1
Layout1
 70
     1
 71
     1
 10
0.0
 20
0.0
 11
12.0
 21
9.0
 12
0.0
 22
0.0
 32
0.0
 14
0.0
 24
0.0
 34
0.0
 15
0.0
 25
0.0
 35
0.0
146
0.0
 13
0.0
 23
0.0
 33
0.0
 16
1.0
 26
0.0
 36
0.0
 17
0.0
 27
1.0
 37
0.0
 76
     0
330
D2
  0
LAYOUT
  5
D7
102
{ACAD_XDICTIONARY
360
1682
102
}
102
{ACAD_REACTORS
330
1A
102
}
330
1A
100
AcDbPlotSettings
  1

  2
C:\Documents and Settings\basas\Application Data\Autodesk\AutoCAD 2005\R16.1\enu\plotters\Default Windows System Printer.pc3
  4

  6

 40
0.0
 41
0.0
 42
0.0
 43
0.0
 44
0.0
 45
0.0
 46
0.0
 47
0.0
 48
0.0
 49
0.0
140
0.0
141
0.0
142
1.0
143
1.0
 70
   688
 72
     0
 73
     0
 74
     5
  7

 75
    16
147
1.0
148
0.0
149
0.0
100
AcDbLayout
  1
Layout2
 70
     1
 71
     2
 10
0.0
 20
0.0
 11
12.0
 21
9.0
 12
0.0
 22
0.0
 32
0.0
 14
0.0
 24
0.0
 34
0.0
 15
0.0
 25
0.0
 35
0.0
146
0.0
 13
0.0
 23
0.0
 33
0.0
 16
1.0
 26
0.0
 36
0.0
 17
0.0
 27
1.0
 37
0.0
 76
     0
330
D6
  0
LAYOUT
  5
22
102
{ACAD_XDICTIONARY
360
167D
102
}
102
{ACAD_REACTORS
330
1A
102
}
330
1A
100
AcDbPlotSettings
  1

  2
none_device
  4
ISO_A4_(210.00_x_297.00_MM)
  6

 40
7.5
 41
20.0
 42
7.5
 43
20.0
 44
210.0
 45
297.0
 46
11.54999923706054
 47
-13.65000009536743
 48
0.0
 49
0.0
140
0.0
141
0.0
142
1.0
143
8.704084754739808
 70
 11952
 72
     1
 73
     0
 74
     0
  7

 75
     0
147
0.1148885871608098
148
0.0
149
0.0
100
AcDbLayout
  1
Model
 70
     1
 71
     0
 10
0.0
 20
0.0
 11
12.0
 21
9.0
 12
0.0
 22
0.0
 32
0.0
 14
0.0
 24
0.0
 34
0.0
 15
0.0
 25
0.0
 35
0.0
146
0.0
 13
0.0
 23
0.0
 33
0.0
 16
1.0
 26
0.0
 36
0.0
 17
0.0
 27
1.0
 37
0.0
 76
     0
330
1F
331
EA
1001
ACAD_PSEXT
1000
None
1000
None
1000
Not applicable
1000
The layout will not be plotted unless a new plotter configuration name is selected.
1070
     0
  0
MATERIAL
  5
ED
102
{ACAD_XDICTIONARY
360
1F9
102
}
102
{ACAD_REACTORS
330
6A
102
}
330
6A
100
AcDbMaterial
  1
ByBlock
  0
MATERIAL
  5
EC
102
{ACAD_XDICTIONARY
360
1F7
102
}
102
{ACAD_REACTORS
330
6A
102
}
330
6A
100
AcDbMaterial
  1
ByLayer
  0
MATERIAL
  5
EE
102
{ACAD_XDICTIONARY
360
173
102
}
102
{ACAD_REACTORS
330
6A
102
}
330
6A
100
AcDbMaterial
  1
Global
 43
0.0007999999797903
 43
0.0
 43
0.0
 43
0.0
 43
0.0
 43
0.0007999999797903
 43
0.0
 43
0.0
 43
0.0
 43
0.0
 43
1.0
 43
0.0
 43
0.0
 43
0.0
 43
0.0
 43
1.0
 49
0.0007999999797903
 49
0.0
 49
0.0
 49
0.0
 49
0.0
 49
0.0007999999797903
 49
0.0
 49
0.0
 49
0.0
 49
0.0
 49
1.0
 49
0.0
 49
0.0
 49
0.0
 49
0.0
 49
1.0
142
0.0007999999797903
142
0.0
142
0.0
142
0.0
142
0.0
142
0.0007999999797903
142
0.0
142
0.0
142
0.0
142
0.0
142
1.0
142
0.0
142
0.0
142
0.0
142
0.0
142
1.0
144
0.0007999999797903
144
0.0
144
0.0
144
0.0
144
0.0
144
0.0007999999797903
144
0.0
144
0.0
144
0.0
144
0.0
144
1.0
144
0.0
144
0.0
144
0.0
144
0.0
144
1.0
1001
ACAD
1070
    -1
1070
     3
1070
     0
1000

1071
        0
1070
     0
  0
MLEADERSTYLE
  5
12E
102
{ACAD_XDICTIONARY
360
16A7
102
}
102
{ACAD_REACTORS
330
12D
102
}
330
12D
100
AcDbMLeaderStyle
170
     2
171
     1
172
     0
 90
        2
 40
0.0
 41
0.0
173
     1
 91
-1056964608
340
14
 92
       -2
290
     1
 42
2.0
291
     1
 43
8.0
  3
Standard
 44
4.0
300

342
11
174
     1
178
     1
175
     1
176
     0
 93
-1056964608
 45
4.0
292
     0
297
     0
 46
4.0
 94
-1056964608
 47
1.0
 49
1.0
140
1.0
293
     1
141
0.0
294
     1
177
     0
142
1.0
295
     0
296
     0
143
3.75
1001
ACAD_MLEADERVER
1070
     2
  0
MLINESTYLE
  5
18
102
{ACAD_REACTORS
330
17
102
}
330
17
100
AcDbMlineStyle
  2
STANDARD
 70
     0
  3

 62
   256
 51
90.0
 52
90.0
 71
     2
 49
0.5
 62
   256
  6
BYLAYER
 49
-0.5
 62
   256
  6
BYLAYER
  0
ACDBPLACEHOLDER
  5
F
102
{ACAD_REACTORS
330
E
102
}
330
E
  0
SCALE
  5
10D
102
{ACAD_REACTORS
330
10C
102
}
330
10C
100
AcDbScale
 70
     0
300
1:1
140
1.0
141
1.0
290
     1
  0
SCALE
  5
1BE
102
{ACAD_REACTORS
330
10C
102
}
330
10C
100
AcDbScale
 70
     0
300
1:2
140
1.0
141
2.0
290
     0
  0
SCALE
  5
1BF
102
{ACAD_REACTORS
330
10C
102
}
330
10C
100
AcDbScale
 70
     0
300
1:4
140
1.0
141
4.0
290
     0
  0
SCALE
  5
1C0
102
{ACAD_REACTORS
330
10C
102
}
330
10C
100
AcDbScale
 70
     0
300
1:5
140
1.0
141
5.0
290
     0
  0
SCALE
  5
1C1
102
{ACAD_REACTORS
330
10C
102
}
330
10C
100
AcDbScale
 70
     0
300
1:8
140
1.0
141
8.0
290
     0
  0
SCALE
  5
1C2
102
{ACAD_REACTORS
330
10C
102
}
330
10C
100
AcDbScale
 70
     0
300
1:10
140
1.0
141
10.0
290
     0
  0
SCALE
  5
1C3
102
{ACAD_REACTORS
330
10C
102
}
330
10C
100
AcDbScale
 70
     0
300
1:16
140
1.0
141
16.0
290
     0
  0
SCALE
  5
1C4
102
{ACAD_REACTORS
330
10C
102
}
330
10C
100
AcDbScale
 70
     0
300
1:20
140
1.0
141
20.0
290
     0
  0
SCALE
  5
1C5
102
{ACAD_REACTORS
330
10C
102
}
330
10C
100
AcDbScale
 70
     0
300
1:30
140
1.0
141
30.0
290
     0
  0
SCALE
  5
1C6
102
{ACAD_REACTORS
330
10C
102
}
330
10C
100
AcDbScale
 70
     0
300
1:40
140
1.0
141
40.0
290
     0
  0
SCALE
  5
1C7
102
{ACAD_REACTORS
330
10C
102
}
330
10C
100
AcDbScale
 70
     0
300
1:50
140
1.0
141
50.0
290
     0
  0
SCALE
  5
1C8
102
{ACAD_REACTORS
330
10C
102
}
330
10C
100
AcDbScale
 70
     0
300
1:100
140
1.0
141
100.0
290
     0
  0
SCALE
  5
1C9
102
{ACAD_REACTORS
330
10C
102
}
330
10C
100
AcDbScale
 70
     0
300
2:1
140
2.0
141
1.0
290
     0
  0
SCALE
  5
1CA
102
{ACAD_REACTORS
330
10C
102
}
330
10C
100
AcDbScale
 70
     0
300
4:1
140
4.0
141
1.0
290
     0
  0
SCALE
  5
1CB
102
{ACAD_REACTORS
330
10C
102
}
330
10C
100
AcDbScale
 70
     0
300
8:1
140
8.0
141
1.0
290
     0
  0
SCALE
  5
1CC
102
{ACAD_REACTORS
330
10C
102
}
330
10C
100
AcDbScale
 70
     0
300
10:1
140
10.0
141
1.0
290
     0
  0
SCALE
  5
1CD
102
{ACAD_REACTORS
330
10C
102
}
330
10C
100
AcDbScale
 70
     0
300
100:1
140
100.0
141
1.0
290
     0
  0
ACDBSECTIONVIEWSTYLE
  5
21A
102
{ACAD_XDICTIONARY
360
16B9
102
}
102
{ACAD_REACTORS
330
219
102
}
330
219
100
AcDbModelDocViewStyle
 70
     0
  3
Metric50
290
     0
100
AcDbSectionViewStyle
 70
     0
 71
     0
 90
      102
 71
     1
340
11
 40
5.0
340
0
340
0
 40
5.0
300
I, O, Q, S, X, Z
 40
10.0
 90
        0
 40
2.5
 90
        0
 71
     2
340
16
 90
       25
340
16
 90
       50
 40
5.0
 40
2.5
 40
5.0
 71
     3
340
11
 40
5.0
 90
        0
 40
15.0
 90
        1
300
%<\AcVar ViewSectionStartId>%-%<\AcVar ViewSectionEndId>% (%<\AcVar ViewScale \f "%sn">%)
 71
     4
300
ANSI31
 40
1.0
 90
        0
290
     0
290
     0
 90
        6
 40
0.0
 40
1.570796326794896
 40
0.2617993877991494
 40
1.308996938995747
 40
-0.2617993877991494
 40
1.832595714594046
  0
TABLESTYLE
  5
7F
102
{ACAD_XDICTIONARY
360
162
102
}
102
{ACAD_REACTORS
330
7E
102
}
330
7E
100
AcDbTableStyle
  3
Standard
 70
     0
 71
     0
 40
1.5
 41
1.5
280
     0
281
     0
  7
Standard
140
4.5
170
     2
 62
     0
 63
     7
283
     0
274
    -2
284
     1
 64
     0
275
    -2
285
     1
 65
     0
276
    -2
286
     1
 66
     0
277
    -2
287
     1
 67
     0
278
    -2
288
     1
 68
     0
279
    -2
289
     1
 69
     0
  7
Standard
140
6.0
170
     5
 62
     0
 63
     7
283
     0
274
    -2
284
     1
 64
     0
275
    -2
285
     1
 65
     0
276
    -2
286
     1
 66
     0
277
    -2
287
     1
 67
     0
278
    -2
288
     1
 68
     0
279
    -2
289
     1
 69
     0
  7
Standard
140
4.5
170
     5
 62
     0
 63
     7
283
     0
274
    -2
284
     1
 64
     0
275
    -2
285
     1
 65
     0
276
    -2
286
     1
 66
     0
277
    -2
287
     1
 67
     0
278
    -2
288
     1
 68
     0
279
    -2
289
     1
 69
     0
  0
VISUALSTYLE
  5
F5
102
{ACAD_XDICTIONARY
360
1691
102
}
102
{ACAD_REACTORS
330
EF
102
}
330
EF
100
AcDbVisualStyle
  2
2dWireframe
 70
     4
 71
     0
 72
     2
 73
     1
 90
        0
 40
-0.6
 41
-30.0
 62
     5
 63
     7
 74
     1
 91
        4
 64
     7
 65
   257
 75
     1
175
     1
 42
1.0
 92
        0
 66
   257
 43
1.0
 76
     1
 77
     6
 78
     2
 67
     7
 79
     5
170
     0
171
     0
290
     0
174
     0
 93
        1
 44
0.0
173
     0
291
     0
 45
0.0
1001
ACAD
1000
AcDbSavedByObjectVersion
1070
     0
  0
VISUALSTYLE
  5
F4
102
{ACAD_XDICTIONARY
360
168F
102
}
102
{ACAD_REACTORS
330
EF
102
}
330
EF
100
AcDbVisualStyle
  2
Basic
 70
     7
 71
     1
 72
     0
 73
     1
 90
        0
 40
-0.6
 41
-30.0
 62
     5
 63
     7
 74
     0
 91
        4
 64
     7
 65
   257
 75
     1
175
     1
 42
1.0
 92
        8
 66
     7
 43
1.0
 76
     1
 77
     6
 78
     2
 67
     7
 79
     5
170
     0
171
     0
290
     0
174
     0
 93
        1
 44
0.0
173
     0
291
     1
 45
0.0
1001
ACAD
1000
AcDbSavedByObjectVersion
1070
     0
  0
VISUALSTYLE
  5
FB
102
{ACAD_XDICTIONARY
360
169D
102
}
102
{ACAD_REACTORS
330
EF
102
}
330
EF
100
AcDbVisualStyle
  2
Brighten
 70
    12
 71
     2
 72
     2
 73
     1
 90
        0
 40
-0.6
 41
-30.0
 62
     5
 63
     7
 74
     1
 91
        4
 64
     7
 65
   257
 75
     1
175
     1
 42
1.0
 92
        8
 66
     7
 43
1.0
 76
     1
 77
     6
 78
     2
 67
     7
 79
     5
170
     0
171
     0
290
     0
174
     0
 93
        1
 44
50.0
173
     0
291
     1
 45
0.0
1001
ACAD
1000
AcDbSavedByObjectVersion
1070
     0
  0
VISUALSTYLE
  5
FF
102
{ACAD_XDICTIONARY
360
16A5
102
}
102
{ACAD_REACTORS
330
EF
102
}
330
EF
100
AcDbVisualStyle
  2
ColorChange
 70
    16
 71
     2
 72
     2
 73
     3
 90
        0
 40
-0.6
 41
-30.0
 62
     5
 63
     8
 74
     1
 91
        4
 64
     7
 65
   257
 75
     1
175
     1
 42
1.0
 92
        8
 66
     8
 43
1.0
 76
     1
 77
     6
 78
     2
 67
     7
 79
     5
170
     0
171
     0
290
     0
174
     0
 93
        1
 44
0.0
173
     0
291
     1
 45
0.0
1001
ACAD
1000
AcDbSavedByObjectVersion
1070
     0
  0
VISUALSTYLE
  5
F8
102
{ACAD_XDICTIONARY
360
1697
102
}
102
{ACAD_REACTORS
330
EF
102
}
330
EF
100
AcDbVisualStyle
  2
Conceptual
 70
     9
 71
     3
 72
     2
 73
     1
 90
        0
 40
-0.6
 41
-30.0
 62
     5
 63
     7
 74
     2
 91
        2
 64
     7
 65
   257
 75
     1
175
     1
 42
40.0
 92
        8
 66
     7
 43
1.0
 76
     1
 77
     6
 78
     2
 67
     7
 79
     3
170
     0
171
     0
290
     0
174
     0
 93
        1
 44
0.0
173
     0
291
     0
 45
0.0
1001
ACAD
1000
AcDbSavedByObjectVersion
1070
     0
  0
VISUALSTYLE
  5
FA
102
{ACAD_XDICTIONARY
360
169B
102
}
102
{ACAD_REACTORS
330
EF
102
}
330
EF
100
AcDbVisualStyle
  2
Dim
 70
    11
 71
     2
 72
     2
 73
     1
 90
        0
 40
-0.6
 41
-30.0
 62
     5
 63
     7
 74
     1
 91
        4
 64
     7
 65
   257
 75
     1
175
     1
 42
1.0
 92
        8
 66
     7
 43
1.0
 76
     1
 77
     6
 78
     2
 67
     7
 79
     5
170
     0
171
     0
290
     0
174
     0
 93
        1
 44
-50.0
173
     0
291
     1
 45
0.0
1001
ACAD
1000
AcDbSavedByObjectVersion
1070
     0
  0
VISUALSTYLE
  5
1E6
102
{ACAD_XDICTIONARY
360
16AD
102
}
102
{ACAD_REACTORS
330
EF
102
}
330
EF
100
AcDbVisualStyle
  2
EdgeColorOff
 70
    22
 71
     2
 72
     2
 73
     0
 90
        0
 40
-0.6
 41
-30.0
 62
     5
 63
     7
 74
     1
 91
        4
 64
     7
 65
   257
 75
     1
175
     1
 42
1.0
 92
        8
 66
     7
 43
1.0
 76
     1
 77
     6
 78
     2
 67
     7
 79
     5
170
     0
171
     0
290
     0
174
     0
 93
        1
 44
0.0
173
     0
291
     1
 45
0.0
1001
ACAD
1000
AcDbSavedByObjectVersion
1070
     0
  0
VISUALSTYLE
  5
FE
102
{ACAD_XDICTIONARY
360
16A3
102
}
102
{ACAD_REACTORS
330
EF
102
}
330
EF
100
AcDbVisualStyle
  2
Facepattern
 70
    15
 71
     2
 72
     2
 73
     1
 90
        0
 40
-0.6
 41
-30.0
 62
     5
 63
     7
 74
     1
 91
        4
 64
     7
 65
   257
 75
     1
175
     1
 42
1.0
 92
        8
 66
     7
 43
1.0
 76
     1
 77
     6
 78
     2
 67
     7
 79
     5
170
     0
171
     0
290
     0
174
     0
 93
        1
 44
0.0
173
     0
291
     1
 45
0.0
1001
ACAD
1000
AcDbSavedByObjectVersion
1070
     0
  0
VISUALSTYLE
  5
F0
102
{ACAD_XDICTIONARY
360
1687
102
}
102
{ACAD_REACTORS
330
EF
102
}
330
EF
100
AcDbVisualStyle
  2
Flat
 70
     0
 71
     2
 72
     1
 73
     1
 90
        2
 40
-0.6
 41
30.0
 62
     5
 63
     7
 74
     0
 91
        0
 64
     7
 65
   257
 75
     1
175
     1
 42
1.0
 92
        8
 66
     7
 43
1.0
 76
     1
 77
     6
 78
     2
 67
     7
 79
     5
170
     0
171
     0
290
     0
174
     0
 93
       13
 44
0.0
173
     0
291
     1
 45
0.0
1001
ACAD
1000
AcDbSavedByObjectVersion
1070
     0
  0
VISUALSTYLE
  5
F1
102
{ACAD_XDICTIONARY
360
1689
102
}
102
{ACAD_REACTORS
330
EF
102
}
330
EF
100
AcDbVisualStyle
  2
FlatWithEdges
 70
     1
 71
     2
 72
     1
 73
     1
 90
        2
 40
-0.6
 41
30.0
 62
     5
 63
     7
 74
     1
 91
        0
 64
     7
 65
   257
 75
     1
175
     1
 42
1.0
 92
        0
 66
   257
 43
1.0
 76
     1
 77
     6
 78
     2
 67
     7
 79
     5
170
     0
171
     0
290
     0
174
     0
 93
       13
 44
0.0
173
     0
291
     1
 45
0.0
1001
ACAD
1000
AcDbSavedByObjectVersion
1070
     0
  0
VISUALSTYLE
  5
F2
102
{ACAD_XDICTIONARY
360
168B
102
}
102
{ACAD_REACTORS
330
EF
102
}
330
EF
100
AcDbVisualStyle
  2
Gouraud
 70
     2
 71
     2
 72
     2
 73
     1
 90
        2
 40
-0.6
 41
30.0
 62
     5
 63
     7
 74
     0
 91
        0
 64
     7
 65
   257
 75
     1
175
     1
 42
1.0
 92
        0
 66
     7
 43
1.0
 76
     1
 77
     6
 78
     2
 67
     7
 79
     5
170
     0
171
     0
290
     0
174
     0
 93
       13
 44
0.0
173
     0
291
     1
 45
0.0
1001
ACAD
1000
AcDbSavedByObjectVersion
1070
     0
  0
VISUALSTYLE
  5
F3
102
{ACAD_XDICTIONARY
360
168D
102
}
102
{ACAD_REACTORS
330
EF
102
}
330
EF
100
AcDbVisualStyle
  2
GouraudWithEdges
 70
     3
 71
     2
 72
     2
 73
     1
 90
        2
 40
-0.6
 41
30.0
 62
     5
 63
     7
 74
     1
 91
        0
 64
     7
 65
   257
 75
     1
175
     1
 42
1.0
 92
        0
 66
   257
 43
1.0
 76
     1
 77
     6
 78
     2
 67
     7
 79
     5
170
     0
171
     0
290
     0
174
     0
 93
       13
 44
0.0
173
     0
291
     1
 45
0.0
1001
ACAD
1000
AcDbSavedByObjectVersion
1070
     0
  0
VISUALSTYLE
  5
F7
102
{ACAD_XDICTIONARY
360
1695
102
}
102
{ACAD_REACTORS
330
EF
102
}
330
EF
100
AcDbVisualStyle
  2
Hidden
 70
     6
 71
     1
 72
     2
 73
     2
 90
        0
 40
-0.6
 41
-30.0
 62
     5
 63
     7
 74
     2
 91
        2
 64
     7
 65
   257
 75
     2
175
     1
 42
40.0
 92
        0
 66
   257
 43
1.0
 76
     1
 77
     6
 78
     2
 67
     7
 79
     3
170
     0
171
     0
290
     0
174
     0
 93
        1
 44
0.0
173
     0
291
     0
 45
0.0
1001
ACAD
1000
AcDbSavedByObjectVersion
1070
     0
  0
VISUALSTYLE
  5
1E4
102
{ACAD_XDICTIONARY
360
16A9
102
}
102
{ACAD_REACTORS
330
EF
102
}
330
EF
100
AcDbVisualStyle
  2
JitterOff
 70
    20
 71
     2
 72
     2
 73
     0
 90
        0
 40
-0.6
 41
-30.0
 62
     5
 63
     7
 74
     1
 91
        4
 64
     7
 65
   257
 75
     1
175
     1
 42
1.0
 92
       10
 66
     7
 43
1.0
 76
     1
 77
     6
 78
     2
 67
     7
 79
     5
170
     0
171
     0
290
     0
174
     0
 93
        1
 44
0.0
173
     0
291
     1
 45
0.0
1001
ACAD
1000
AcDbSavedByObjectVersion
1070
     0
  0
VISUALSTYLE
  5
FD
102
{ACAD_XDICTIONARY
360
16A1
102
}
102
{ACAD_REACTORS
330
EF
102
}
330
EF
100
AcDbVisualStyle
  2
Linepattern
 70
    14
 71
     2
 72
     2
 73
     1
 90
        0
 40
-0.6
 41
-30.0
 62
     5
 63
     7
 74
     1
 91
        4
 64
     7
 65
   257
 75
     7
175
     7
 42
1.0
 92
        8
 66
     7
 43
1.0
 76
     1
 77
     6
 78
     2
 67
     7
 79
     5
170
     0
171
     0
290
     0
174
     0
 93
        1
 44
0.0
173
     0
291
     1
 45
0.0
1001
ACAD
1000
AcDbSavedByObjectVersion
1070
     0
  0
VISUALSTYLE
  5
1E5
102
{ACAD_XDICTIONARY
360
16AB
102
}
102
{ACAD_REACTORS
330
EF
102
}
330
EF
100
AcDbVisualStyle
  2
OverhangOff
 70
    21
 71
     2
 72
     2
 73
     0
 90
        0
 40
-0.6
 41
-30.0
 62
     5
 63
     7
 74
     1
 91
        4
 64
     7
 65
   257
 75
     1
175
     1
 42
1.0
 92
        9
 66
     7
 43
1.0
 76
     1
 77
     6
 78
     2
 67
     7
 79
     5
170
     0
171
     0
290
     0
174
     0
 93
        1
 44
0.0
173
     0
291
     1
 45
0.0
1001
ACAD
1000
AcDbSavedByObjectVersion
1070
     0
  0
VISUALSTYLE
  5
F9
102
{ACAD_XDICTIONARY
360
1699
102
}
102
{ACAD_REACTORS
330
EF
102
}
330
EF
100
AcDbVisualStyle
  2
Realistic
 70
     8
 71
     2
 72
     2
 73
     0
 90
        2
 40
-0.6
 41
30.0
 62
     5
 63
     7
 74
     0
 91
        0
 64
     7
 65
   257
 75
     1
175
     1
 42
1.0
 92
        8
 66
   257
 43
1.0
 76
     1
 77
     6
 78
     2
 67
     7
 79
     3
170
     0
171
     0
290
     0
174
     0
 93
       13
 44
0.0
173
     0
291
     0
 45
0.0
1001
ACAD
1000
AcDbSavedByObjectVersion
1070
     0
  0
VISUALSTYLE
  5
1F3
102
{ACAD_XDICTIONARY
360
16B7
102
}
102
{ACAD_REACTORS
330
EF
102
}
330
EF
100
AcDbVisualStyle
  2
Shaded
 70
    27
 71
     2
 72
     2
 73
     1
 90
        2
 40
-0.6
 41
30.0
 62
     5
 63
     7
 74
     0
 91
        4
 64
     7
 65
   257
 75
     1
175
     1
 42
1.0
 92
        8
 66
   257
 43
1.0
 76
     1
 77
     6
 78
     2
 67
     8
 79
     3
170
     0
171
     0
290
     0
174
     0
 93
        5
 44
0.0
173
     0
291
     0
 45
0.0
1001
ACAD
1000
AcDbSavedByObjectVersion
1070
     0
  0
VISUALSTYLE
  5
1F2
102
{ACAD_XDICTIONARY
360
16B5
102
}
102
{ACAD_REACTORS
330
EF
102
}
330
EF
100
AcDbVisualStyle
  2
Shaded with edges
 70
    26
 71
     2
 72
     2
 73
     1
 90
        2
 40
-0.6
 41
30.0
 62
     5
 63
     7
 74
     1
 91
        2
 64
     7
 65
   257
 75
     2
175
     1
 42
1.0
 92
        8
 66
   257
 43
1.0
 76
     1
 77
     6
 78
     2
 67
     7
 79
     3
170
     0
171
     0
290
     0
174
     0
 93
        5
 44
0.0
173
     0
291
     0
 45
0.0
1001
ACAD
1000
AcDbSavedByObjectVersion
1070
     0
  0
VISUALSTYLE
  5
1EF
102
{ACAD_XDICTIONARY
360
16AF
102
}
102
{ACAD_REACTORS
330
EF
102
}
330
EF
100
AcDbVisualStyle
  2
Shades of Gray
 70
    23
 71
     2
 72
     2
 73
     3
 90
        0
 40
-0.6
 41
-30.0
 62
     5
 63
     7
 74
     2
 91
        2
 64
     7
 65
     7
 75
     1
175
     1
 42
40.0
 92
        8
 66
     7
 43
1.0
 76
     1
 77
     6
 78
     2
 67
     7
 79
     3
170
     0
171
     0
290
     0
174
     0
 93
        1
 44
0.0
173
     0
291
     0
 45
0.0
1001
ACAD
1000
AcDbSavedByObjectVersion
1070
     0
  0
VISUALSTYLE
  5
1F0
102
{ACAD_XDICTIONARY
360
16B1
102
}
102
{ACAD_REACTORS
330
EF
102
}
330
EF
100
AcDbVisualStyle
  2
Sketchy
 70
    24
 71
     1
 72
     2
 73
     2
 90
        0
 40
-0.6
 41
-30.0
 62
     5
 63
     7
 74
     2
 91
        2
 64
     7
 65
     7
 75
     1
175
     1
 42
40.0
 92
       11
 66
     7
 43
1.0
 76
     1
 77
     6
 78
     2
 67
     7
 79
     6
170
     0
171
     0
290
     0
174
     0
 93
        1
 44
0.0
173
     0
291
     0
 45
0.0
1001
ACAD
1000
AcDbSavedByObjectVersion
1070
     0
  0
VISUALSTYLE
  5
FC
102
{ACAD_XDICTIONARY
360
169F
102
}
102
{ACAD_REACTORS
330
EF
102
}
330
EF
100
AcDbVisualStyle
  2
Thicken
 70
    13
 71
     2
 72
     2
 73
     1
 90
        0
 40
-0.6
 41
-30.0
 62
     5
 63
     7
 74
     1
 91
        4
 64
     7
 65
   257
 75
     1
175
     1
 42
1.0
 92
       12
 66
     7
 43
1.0
 76
     1
 77
     6
 78
     2
 67
     7
 79
     5
170
     0
171
     0
290
     0
174
     0
 93
        1
 44
0.0
173
     0
291
     1
 45
0.0
1001
ACAD
1000
AcDbSavedByObjectVersion
1070
     0
  0
VISUALSTYLE
  5
F6
102
{ACAD_XDICTIONARY
360
1693
102
}
102
{ACAD_REACTORS
330
EF
102
}
330
EF
100
AcDbVisualStyle
  2
Wireframe
 70
     5
 71
     0
 72
     2
 73
     0
 90
        0
 40
-0.6
 41
-30.0
 62
     5
 63
     7
 74
     1
 91
        4
 64
     7
 65
   257
 75
     1
175
     1
 42
1.0
 92
        0
 66
   257
 43
1.0
 76
     1
 77
     6
 78
     2
 67
     7
 79
     3
170
     0
171
     0
290
     0
174
     0
 93
        1
 44
0.0
173
     0
291
     0
 45
0.0
1001
ACAD
1000
AcDbSavedByObjectVersion
1070
     0
  0
VISUALSTYLE
  5
1F1
102
{ACAD_XDICTIONARY
360
16B3
102
}
102
{ACAD_REACTORS
330
EF
102
}
330
EF
100
AcDbVisualStyle
  2
X-Ray
 70
    25
 71
     2
 72
     2
 73
     1
 90
        1
 40
0.5
 41
-30.0
 62
     5
 63
     7
 74
     1
 91
        0
 64
     7
 65
   257
 75
     1
175
     1
 42
1.0
 92
        8
 66
     7
 43
1.0
 76
     1
 77
     6
 78
     2
 67
     7
 79
     3
170
     0
171
     0
290
     0
174
     0
 93
       13
 44
0.0
173
     0
291
     0
 45
0.0
1001
ACAD
1000
AcDbSavedByObjectVersion
1070
     0
  0
DICTIONARYVAR
  5
146
102
{ACAD_REACTORS
330
5E
102
}
330
5E
100
DictionaryVariables
280
     0
  1
1:1
  0
DICTIONARYVAR
  5
259
102
{ACAD_REACTORS
330
5E
102
}
330
5E
100
DictionaryVariables
280
     0
  1
3.500000
  0
DICTIONARYVAR
  5
25A
102
{ACAD_REACTORS
330
5E
102
}
330
5E
100
DictionaryVariables
280
     0
  1
acadiso.lin
  0
DICTIONARYVAR
  5
145
102
{ACAD_REACTORS
330
5E
102
}
330
5E
100
DictionaryVariables
280
     0
  1
STANDARD
  0
DICTIONARYVAR
  5
84
102
{ACAD_REACTORS
330
5E
102
}
330
5E
100
DictionaryVariables
280
     0
  1
STANDARD
  0
DICTIONARYVAR
  5
227
102
{ACAD_REACTORS
330
5E
102
}
330
5E
100
DictionaryVariables
280
     0
  1
Metric50
  0
DICTIONARYVAR
  5
228
102
{ACAD_REACTORS
330
5E
102
}
330
5E
100
DictionaryVariables
280
     0
  1
Metric50
  0
DICTIONARYVAR
  5
5F
102
{ACAD_REACTORS
330
5E
102
}
330
5E
100
DictionaryVariables
280
     0
  1
2
  0
DICTIONARYVAR
  5
63
102
{ACAD_REACTORS
330
5E
102
}
330
5E
100
DictionaryVariables
280
     0
  1
1
  0
DICTIONARYVAR
  5
1628
102
{ACAD_REACTORS
330
5E
102
}
330
5E
100
DictionaryVariables
280
     0
  1
0
  0
DICTIONARYVAR
  5
1AE
102
{ACAD_REACTORS
330
5E
102
}
330
5E
100
DictionaryVariables
280
     0
  1
0
  0
DICTIONARYVAR
  5
1AF
102
{ACAD_REACTORS
330
5E
102
}
330
5E
100
DictionaryVariables
280
     0
  1
0
  0
DICTIONARYVAR
  5
1626
102
{ACAD_REACTORS
330
5E
102
}
330
5E
100
DictionaryVariables
280
     0
  1
2
  0
DICTIONARYVAR
  5
1625
102
{ACAD_REACTORS
330
5E
102
}
330
5E
100
DictionaryVariables
280
     0
  1
1
  0
DICTIONARYVAR
  5
1678
102
{ACAD_REACTORS
330
5E
102
}
330
5E
100
DictionaryVariables
280
     0
  1
80.000000
  0
DICTIONARYVAR
  5
1677
102
{ACAD_REACTORS
330
5E
102
}
330
5E
100
DictionaryVariables
280
     0
  1
5.000000
  0
DICTIONARYVAR
  5
1627
102
{ACAD_REACTORS
330
5E
102
}
330
5E
100
DictionaryVariables
280
     0
  1
127
  0
DICTIONARYVAR
  5
1679
102
{ACAD_REACTORS
330
5E
102
}
330
5E
100
DictionaryVariables
280
     0
  1
2
  0
DICTIONARY
  5
16BB
330
21C
100
AcDbDictionary
280
     1
281
     1
  3
ACAD_XREC_ROUNDTRIP
360
16BC
  0
DICTIONARY
  5
1680
330
D3
100
AcDbDictionary
280
     1
281
     1
  3
ACAD_XREC_ROUNDTRIP
360
1681
  0
DICTIONARY
  5
1682
330
D7
100
AcDbDictionary
280
     1
281
     1
  3
ACAD_XREC_ROUNDTRIP
360
1683
  0
DICTIONARY
  5
167D
330
22
100
AcDbDictionary
280
     1
281
     1
  3
ACAD_XREC_ROUNDTRIP
360
167E
  0
DICTIONARY
  5
1F9
330
ED
100
AcDbDictionary
280
     1
281
     1
  3
ACAD_XREC_ROUNDTRIP
360
1685
  3
FBXASSET
360
1FA
  0
DICTIONARY
  5
1F7
330
EC
100
AcDbDictionary
280
     1
281
     1
  3
ACAD_XREC_ROUNDTRIP
360
1684
  3
FBXASSET
360
1F8
  0
DICTIONARY
  5
173
330
EE
100
AcDbDictionary
280
     1
281
     1
  3
ACAD_XREC_ROUNDTRIP
360
1686
  3
BUMPTILE
360
175
  3
DIFFUSETILE
360
174
  3
FBXASSET
360
1FB
  3
OPACITYTILE
360
176
  3
REFLECTIONTILE
360
177
  0
DICTIONARY
  5
16A7
330
12E
100
AcDbDictionary
280
     1
281
     1
  3
ACAD_XREC_ROUNDTRIP
360
16A8
  0
DICTIONARY
  5
16B9
330
21A
100
AcDbDictionary
280
     1
281
     1
  3
ACAD_XREC_ROUNDTRIP
360
16BA
  0
DICTIONARY
  5
162
330
7F
100
AcDbDictionary
280
     1
281
     1
  3
ACAD_ROUNDTRIP_2008_TABLESTYLE_CELLSTYLEMAP
360
167A
  3
ACAD_XREC_ROUNDTRIP
360
167F
  0
DICTIONARY
  5
1691
330
F5
100
AcDbDictionary
280
     1
281
     1
  3
ACAD_XREC_ROUNDTRIP
360
1692
  0
DICTIONARY
  5
168F
330
F4
100
AcDbDictionary
280
     1
281
     1
  3
ACAD_XREC_ROUNDTRIP
360
1690
  0
DICTIONARY
  5
169D
330
FB
100
AcDbDictionary
280
     1
281
     1
  3
ACAD_XREC_ROUNDTRIP
360
169E
  0
DICTIONARY
  5
16A5
330
FF
100
AcDbDictionary
280
     1
281
     1
  3
ACAD_XREC_ROUNDTRIP
360
16A6
  0
DICTIONARY
  5
1697
330
F8
100
AcDbDictionary
280
     1
281
     1
  3
ACAD_XREC_ROUNDTRIP
360
1698
  0
DICTIONARY
  5
169B
330
FA
100
AcDbDictionary
280
     1
281
     1
  3
ACAD_XREC_ROUNDTRIP
360
169C
  0
DICTIONARY
  5
16AD
330
1E6
100
AcDbDictionary
280
     1
281
     1
  3
ACAD_XREC_ROUNDTRIP
360
16AE
  0
DICTIONARY
  5
16A3
330
FE
100
AcDbDictionary
280
     1
281
     1
  3
ACAD_XREC_ROUNDTRIP
360
16A4
  0
DICTIONARY
  5
1687
330
F0
100
AcDbDictionary
280
     1
281
     1
  3
ACAD_XREC_ROUNDTRIP
360
1688
  0
DICTIONARY
  5
1689
330
F1
100
AcDbDictionary
280
     1
281
     1
  3
ACAD_XREC_ROUNDTRIP
360
168A
  0
DICTIONARY
  5
168B
330
F2
100
AcDbDictionary
280
     1
281
     1
  3
ACAD_XREC_ROUNDTRIP
360
168C
  0
DICTIONARY
  5
168D
330
F3
100
AcDbDictionary
280
     1
281
     1
  3
ACAD_XREC_ROUNDTRIP
360
168E
  0
DICTIONARY
  5
1695
330
F7
100
AcDbDictionary
280
     1
281
     1
  3
ACAD_XREC_ROUNDTRIP
360
1696
  0
DICTIONARY
  5
16A9
330
1E4
100
AcDbDictionary
280
     1
281
     1
  3
ACAD_XREC_ROUNDTRIP
360
16AA
  0
DICTIONARY
  5
16A1
330
FD
100
AcDbDictionary
280
     1
281
     1
  3
ACAD_XREC_ROUNDTRIP
360
16A2
  0
DICTIONARY
  5
16AB
330
1E5
100
AcDbDictionary
280
     1
281
     1
  3
ACAD_XREC_ROUNDTRIP
360
16AC
  0
DICTIONARY
  5
1699
330
F9
100
AcDbDictionary
280
     1
281
     1
  3
ACAD_XREC_ROUNDTRIP
360
169A
  0
DICTIONARY
  5
16B7
330
1F3
100
AcDbDictionary
280
     1
281
     1
  3
ACAD_XREC_ROUNDTRIP
360
16B8
  0
DICTIONARY
  5
16B5
330
1F2
100
AcDbDictionary
280
     1
281
     1
  3
ACAD_XREC_ROUNDTRIP
360
16B6
  0
DICTIONARY
  5
16AF
330
1EF
100
AcDbDictionary
280
     1
281
     1
  3
ACAD_XREC_ROUNDTRIP
360
16B0
  0
DICTIONARY
  5
16B1
330
1F0
100
AcDbDictionary
280
     1
281
     1
  3
ACAD_XREC_ROUNDTRIP
360
16B2
  0
DICTIONARY
  5
169F
330
FC
100
AcDbDictionary
280
     1
281
     1
  3
ACAD_XREC_ROUNDTRIP
360
16A0
  0
DICTIONARY
  5
1693
330
F6
100
AcDbDictionary
280
     1
281
     1
  3
ACAD_XREC_ROUNDTRIP
360
1694
  0
DICTIONARY
  5
16B3
330
1F1
100
AcDbDictionary
280
     1
281
     1
  3
ACAD_XREC_ROUNDTRIP
360
16B4
  0
XRECORD
  5
16BC
102
{ACAD_REACTORS
330
16BB
102
}
330
16BB
100
AcDbXrecord
280
     1
102
DISPLAYNAME
  1
Metric50
102
FLAGS
 90
        0
  0
XRECORD
  5
1681
102
{ACAD_REACTORS
330
1680
102
}
330
1680
100
AcDbXrecord
280
     1
102
SHADEPLOT
 70
     0
102
SHADEPLOTRESLEVEL
 70
     2
102
SHADEPLOTCUSTOMDPI
 70
   300
  0
XRECORD
  5
1683
102
{ACAD_REACTORS
330
1682
102
}
330
1682
100
AcDbXrecord
280
     1
102
SHADEPLOT
 70
     0
102
SHADEPLOTRESLEVEL
 70
     2
102
SHADEPLOTCUSTOMDPI
 70
   300
  0
XRECORD
  5
167E
102
{ACAD_REACTORS
330
167D
102
}
330
167D
100
AcDbXrecord
280
     1
102
SHADEPLOT
 70
     0
102
SHADEPLOTRESLEVEL
 70
     2
102
SHADEPLOTCUSTOMDPI
 70
   300
  0
XRECORD
  5
1685
102
{ACAD_REACTORS
330
1F9
102
}
330
1F9
100
AcDbXrecord
280
     1
102
MATERIAL
148
0.0
149
0.0
149
0.0
 93
        0
 94
       63
282
     0
 72
     1
 77
     1
171
     1
175
     1
179
     1
273
     0
  0
XRECORD
  5
1FA
102
{ACAD_REACTORS
330
1F9
102
}
330
1F9
100
AcDbXrecord
280
     1
 70
     1
 90
429727718
  1
D62C5603-E3A1-4AEA-B7FB-FE5D8D0755AF
310
504B03040A0000080000CC70623B3DEE336E79000000790000001B0000006175746F6465736B2D64657369676E2D7061636B6167652E786D6C3C3F786D6C2076657273696F6E3D22312E302220656E636F64696E673D227574662D3822203F3E3C666F726D6174733E3C666F726D61743E687474703A2F2F736368656D612E
310
6175746F6465736B2E636F6D2F64657369676E2D7061636B6167652F323030393C2F666F726D61743E3C2F666F726D6174733E504B0304140006080800CC70623BD486FD9CA0000000F4000000130000005B436F6E74656E745F54797065735D2E786D6C7D8EC10E82300C865F65E91D8A1E8C310C0EEA1BF002731658846E
310
D98AC1B77784ABF1D8FE5FBFBF75BBCE937A534CCEB38643598122B6FEE978D0B0485F9C41B54DDD7D022595594E1A469170414C76A4D9A4D207E29CF43ECE46F218070CC6BECC4078ACAA135ACF422C856C0E68EA1BF5669944DDD7BCDE7B1F8E415D77AECB980613C2E4AC91FC167A2B244592486606FC29C8FD7F045B9A
310
EF7053A7E60B504B0304140006080800CC70623B853B8169EB0000007C01000008000000636F72652E786D6C8D90416EC3201045AF62CDB6C206821CC7C244919D9CA01740401C94182C03558F5F9C3852BBEB6A467FFE9B197D7EFC9E1EC5975982F5AE035262288C535E5B377690E21535501C055FBC8FBF6C503839990E
310
5619041F179FE64D52DE45E362569DD7661365082642A11EB9E920A89B99642953CC8E702F67A9EE7234257977194EC9EAE275C4EABCCF5EAD5940D4AC6F0E35A568B8F43562CD7046CD199FD07E60174276A7BE677B5EADB0E0D14EEFFB6A31321A0D82627C4084204C3F096B71DD52F6819B16635EADF63F509AF53FA164
310
5DDCD1EDDD17164090FCC8732078B56691CB33A85CD7DCC40F504B0304140006080800CC70623B55019EA25F0000007C00000007000000636E782E786D6C4DCB3B0E80201045D1AD90E915ED2CF8AC45050C11660C8261F98AB1B07AC9C97D42D718D865D3E909258CFD00CCE24AC6E326A164D74DC0B4128928FF32603847
310
2BA13128B1252AC747C6BAB984FC68F0B87FE8960A5C09FE86CFB69FBA01504B0304140006080800CC70623BDBABAAF470010000D40300000C0000006662782F636F72652E786D6CC553D16E823014FD95A6AF4B694182CC941A83FA05FB810A9511A125A5257EFE2E82712ECEB8A7F100CD39F7F69E734AF9FADC366850B6
310
AF8DCE7018308C942E4C59EB2AC3DE1D498AD15A706B8CFB56869196ADCAF00863C12B6B7C374385D14E6907A836A59A41D9F7CA615434B0C8705F7CAA5606D23BA8E84F41278B93AC54100640439DE0BDB320004D43C63716C7C399D30917DCFBBA9CD9BA8469F5B156168B24CED3F7248AC8769F27244EB73B92EED8862C
310
B7F13E0C179B3C8F979C8ECD82BBBABDAA2BAC924E9558448CBD9330242CFA08E3154B5651FCC6D215639C8EE5774DBE2B5F6CF2B5768B68963BB5F5588420E442FC700B1139D4CB01F450C1E918227C2E09DF070D8140C84E1E9AAB8F1340832A9CB13130A5F1376A908D57309505ECF2A0DF179C4E9D30F5B239B87E3823
310
7A79C6F31DE1A8A5AEC08474B03C7837EAE4938639B44E5932B833D2C6B6B279CDC613877FA26EE21F4A2A4C63EC7F29A2F301D1F9F7A0E37D145F504B0304140006080800CC70623B9C113CC27E0000009D0000000B0000006662782F636E782E786D6C4DCCDF0A83201C86E15B91DFB94BFB330DD428C8FB886521330DA7
310
6397BF1A1DECE883878F57749FCDA1B7892F1BBC047A23808C7F84D9FA55424E0BE6803A256208E9EF06C84F9B91703228B1C690F78B66B34CD9A5439DF5CF0BFBF65E35BCA1B8D6A5C6F540381E886698B5741C695F9503EBA150A2F8958E3DC3EA0B504B0304140006080800CC70623B7DF2F77C2A010000120200003100
310
00006662782F41393633353835312D344632462D344230382D423046372D3739314545314133324237412F636F72652E786D6C8D51DB8EC22014FC15C2939B0D2DB4B45643319AE817EC0F6041255A68B86CFCFC856D4D76DF7CE190393373060EDB3DC707F856CE6B6B7A480A0C81328395DA5C7B18C3057510EC3873D686
310
3F34088C18550F330C39BB3A1BA7051AAC09CA84841A2BD5020AEF55806078A44B0FFD7053A328440C89E1EFC52486BBB8AA8214A99D789CF9E05200300FC927E4FB4D5B375D43103D5527440FB843077C5AA3F5861C8F645F5787F59E95B390B318B55CE45AA638FAA2957BD7248B390B7A7CC51F9C124149C82B8C378810
310
84AB2F42B7B8DD56F413775B8C5999E9FF4471926F8AA236A1AE96B8B3CC434E5839373893369E1FAF30EA395917409EB7F26AF8801C171837A4A6AC9C89E9F9C9B1A58BA30FD6A5EF5DDDCF894B9AD9B6A59C957943A9FCAE2FD5BC4DFE03504B0304140006080800CC70623BAD7543B64E01000033030000300000006662
310
782F41393633353835312D344632462D344230382D423046372D3739314545314133324237412F636E782E786D6CD593CD6EC32010845F0571AD6CE3D48AD20813A9873E410FBD12D82434182C7EAAE6EDBB2424CD25871E7B41D6EC30B3FA84F9E67BB2E40B4234DE8DB46F1925E094D7C6ED479AD3AE5951B2113C789FEE
310
6C943839C1488B4C05DF079FE72A69D8C96C13AAD6B8631503449F83828872B949AC57D26200B826A308D316B4064D6E46FCDA41C05550DC9E483A00797BFD207EFB092A45DE9514C1BBD22178396BD39D891265658C238DEA00936C654E5E433CB65A26D9F6EDB5EBC14EBF49A45CB856E66048291F6939A9A81BB5C89177
310
38143CA680F4AA299D66A042CEB3354A2684DC9D8D178FE0D9B8B41CAAD720F880EE7EF93C0C18769E099ECC04D5A102C8049A8A05632F4DDF376CF1DE0F6BB65C2F8627B65A33C6BB62177CEBBDAD973006829F89F22E814B54F4BC2BE347F8AA8F681390B50FA73F804400B5F542E796F19FF974E7F78DB802FE05E20750
310
4B0304140006080800CC70623BE75B7789680500003C100000340000006662782F41393633353835312D344632462D344230382D423046372D3739314545314133324237412F6F626A656374732E786D6CAD575B8F9B3818FD2B887D06C22499CB8AA1CA655245D5B455A356FB305264C061D8018C6C3393D95FBFC7600890
310
A4CD5EF210B0B1BFEBF98E3F7B1FF6596ABC522E1296DF9BAE3D320D9A872C4AF2F8DE2CE5CEBA358D0FBEC719939D65A691938CDE9B6ADAF4BD98B3B2D05311DD91329583D9D5FC0F438434A7A611A644887B5384CF34233629258BA878B12322891DEFF6B66BD70BFB62634E8AE781D082709A4B588AF91C528CDA28B73F
310
1C998EEF39EABBEFA97FBD6A7C7E9553F9D3D79FE442923C3C523610337627CB87ABE99D359D4CC6D6E4FACAB5E6ABF9D2726FC6A3C5F56271377BB88362213924694B38DD99FE47C48627A1E7D49F5A8BB5E1A74C0A599ED3B0F21F1E56366B89112D681E218F0915D0D6F17AD41FBA2A369DCF6335D62ABBD39779D5DDD1
310
11D4D8DE3CBB96B2E04FB8202E41051754A1AA8E8F76B4C6DFE810B580B1547F4B84911149794252234D024EF8BBE963A95AE27B3D310A9D5C215C7960FAEE415ED75694C6AFB17BCACA5D99A60A9AA65F217B0BFC53292ACB92BF283FAD0D3621576592CB5BED907C2FA8E9DF794E35E97BEA31BED21FEB401ABB94C44839
310
DCACBF0E1C5DA8DA5B2F4DFFD32AD86F543D9E565E7056502E157C00AD2671CD534549AB752FCA9CDA00677A313F04E51B22FF19E57B300579E3C97EB29F682D92935CEC18CF901B7B54FD8C51F362B56FC72FE0B3C1EAE335EDCCBF5AEC39ADB17DC238973F804BA5E6F6BFE7AF1FB32E523BE9F3BD571418E3631DCA4D48
310
5250CF639223210A9446CA30052EDF057BD35F8329C1ECD84552BF0DC8D18BE7BCE23BFE6BD960AB4A7DE79923A103BEBD80F911CBAA2C60DB19B01CF164A5583B772EE6D3FFA56666CBCDA74DC97724A48F9A58967497E489C4D979006FD7A05E227A1EBDD0F737C623387A9C844D3709995625106D157315F8B8392CD4E0
310
A0B9A720C4BE9829CEF37EA1E13111214D53925356365ADA634861B52519DD27A00AEB808EAF0628E6F435519D446F45CF2C9CF5214F0A15B2F6D06B79DA3EE3CBF7F56780D2F4E7EF73A0F5E5B02A38D07DC852C6B7C1FBB6664213E0C39E3EBA7FF4E1AD23EA2829407C85E586727488B751B2DB9502BC7B228A3FD68B6E
310
A65A22397E690AA8D158D7E404EC8CDA235CC3B7D1898680131CEC2CDF2638C65196279577750F15884AEE19F94199155B92B13297978469D4F8D358DF0AEF7631E28DC8F0D9F437D5D39A83B2231A1D52D543813A824EF8D44BCFF2FA6A31BD1E8DAD87F1CCB526B3879935BF59CDADD5C37479BB1CDD4CA7B3556B516589
310
EF352754B706114D9C885EC9131DE6EFEB43D99AFE2391C2F958179413D7CFEF6B1B6DB1E7600F00DE6E5C67454A339A4BA2E0FBA85ED26F045D454F463DBFCE484C2F90F2E5E3666003662ED8F755951A7D1BECD5B30B550B2785C8E7320B7292A4838DDA71BBC863ED7613CAF659337A3354231D4FF4A182A54904C2898C
310
98B28C4AD0CE056CCF332A80986E571EE9DBC305BB5FEB7E509220A58D25CF042D712A806AC0AD0C657FDEF80D2D9CEAA2EE4D1C76F60BFE74219A06527D6F82DF6412526107381E55E353090704D085B52408A8913C4ED159D79BDA71BB4BC506F4831350EB6F975CD22D69BF7AC49B91A2C0A9DDA3D5CA36AD20FC478E37
310
E61844E2352865EBCB61A275A65283CAAA9DD27703B4102F5AF51EF5F573B75CBB5AD38BC845F7A49F82A0966A49C2E3EA5EA0ECD326CD965F1DB402C6FA8B51A4658C5C5E2EC9E214602E55810345408596591009A82E7E7FFACA19EEA299B14A0081A705CB3296EBC14CDF658DCD336EA6D1136881AAEB87B81AB9EE53D5
310
F5EB8BC8362082DA24122F98680A4E7930C01A0079749CEA14382A0783E5EBA5A10F8C098456A03D6A4AEB6BB881E2513747552A5DB22C7EDAF83BD5528081A365F7FF06504B0304140006080000CC70623B000000000000000000000000350000006662782F41393633353835312D344632462D344230382D423046372D37
310
39314545314133324237412F76657274696365732E62696E504B0304140006080800CC70623BF270F1330600000004000000360000006662782F41393633353835312D344632462D344230382D423046372D3739314545314133324237412F747269616E676C65732E62696E636660600000504B0304140006080000CC7062
310
3B000000000000000000000000370000006662782F41393633353835312D344632462D344230382D423046372D3739314545314133324237412F617474726962757465732E62696E504B0304140006080800CC70623B08DA0BD19000000041010000360000006662782F41393633353835312D344632462D344230382D4230
310
46372D3739314545314133324237412F6469726563746F72792E786D6C858F410AC3201045AF22B36F53E9A60B35CBEEBAE80D244E44489C6234F4F835464A48035D0DF398FF9F8AF63D0E6CC63039F212F8F9020C7D47C6792B21C5FE7403D62A1188E2E60C98D7234A5830286103A55745067B9D86B8A3CF9C7F90C11DE6
310
07FB144396D7B6A82D282E9A152AD114D5EF2CB866EEE831B8EEA07A7BB5A8D7D61A2BAAEB7FD5F70921FF497D00504B0304140006080800CC70623BEDD1DC58FD000000A00100003B0000006662782F41393633353835312D344632462D344230382D423046372D3739314545314133324237412F7265736F75726365732F
310
636F72652E786D6C8D504B6E833010BD0A9A6D65B00922041947112427E8052C33A156828DFCA97AFC9A40A576D7CDCCE87D344F8F9FBFE667F689CE6B6B3A6039850C8DB2A336530731DC4903D95970676DF82583CCC8193B5861107C72362E3BA4AC096842428D1D7107A5F7182053CF7474E0D507CE32973124857FE48B
310
540F3961CEF244279DE03EB81420DB9EAC1384436FA353E879B1B182C7A8C75DA3C7F453DF353A1075D537A7BA6464B8F535A99AE14A9A2BBD90E350DD183B5CFABE3AF262350B1EF4FC9351399401471025A527C218A1E53BAB5A5AB765F5469B96525EACF23FA6B88CFF34456DC2A1DCE36E360F82A5202F42F062ED2BAD
310
579969AFDD8A6F504B010214000A0000080000CC70623B3DEE336E79000000790000001B00000000000000000000000000000000006175746F6465736B2D64657369676E2D7061636B6167652E786D6C504B01021400140006080800CC70623BD486FD9CA0000000F40000001300000000000000000000000000B20000005B
310
436F6E74656E745F54797065735D2E786D6C504B01021400140006080800CC70623B853B8169EB0000007C010000080000000000000000000000000083010000636F72652E786D6C504B01021400140006080800CC70623B55019EA25F0000007C000000070000000000000000000000000094020000636E782E786D6C504B
310
01021400140006080800CC70623BDBABAAF470010000D40300000C00000000000000000000000000180300006662782F636F72652E786D6C504B01021400140006080800CC70623B9C113CC27E0000009D0000000B00000000000000000000000000B20400006662782F636E782E786D6C504B01021400140006080800CC70
310
623B7DF2F77C2A010000120200003100000000000000000000000000590500006662782F41393633353835312D344632462D344230382D423046372D3739314545314133324237412F636F72652E786D6C504B01021400140006080800CC70623BAD7543B64E010000330300003000000000000000000000000000D2060000
310
6662782F41393633353835312D344632462D344230382D423046372D3739314545314133324237412F636E782E786D6C504B01021400140006080800CC70623BE75B7789680500003C10000034000000000000000000000000006E0800006662782F41393633353835312D344632462D344230382D423046372D3739314545
310
314133324237412F6F626A656374732E786D6C504B01021400140006080000CC70623B0000000000000000000000003500000000000000000000000000280E00006662782F41393633353835312D344632462D344230382D423046372D3739314545314133324237412F76657274696365732E62696E504B01021400140006
310
080800CC70623BF270F133060000000400000036000000000000000000000000007B0E00006662782F41393633353835312D344632462D344230382D423046372D3739314545314133324237412F747269616E676C65732E62696E504B01021400140006080000CC70623B0000000000000000000000003700000000000000
310
000000000000D50E00006662782F41393633353835312D344632462D344230382D423046372D3739314545314133324237412F617474726962757465732E62696E504B01021400140006080800CC70623B08DA0BD1900000004101000036000000000000000000000000002A0F00006662782F41393633353835312D344632
310
462D344230382D423046372D3739314545314133324237412F6469726563746F72792E786D6C504B01021400140006080800CC70623BEDD1DC58FD000000A00100003B000000000000000000000000000E1000006662782F41393633353835312D344632462D344230382D423046372D3739314545314133324237412F7265
310
736F75726365732F636F72652E786D6C504B0506000000000E000E0080040000641100000000
  0
XRECORD
  5
1684
102
{ACAD_REACTORS
330
1F7
102
}
330
1F7
100
AcDbXrecord
280
     1
102
MATERIAL
148
0.0
149
0.0
149
0.0
 93
        0
 94
       63
282
     0
 72
     1
 77
     1
171
     1
175
     1
179
     1
273
     0
  0
XRECORD
  5
1F8
102
{ACAD_REACTORS
330
1F7
102
}
330
1F7
100
AcDbXrecord
280
     1
 70
     1
 90
429727718
  1
30362254-06B7-45E0-A893-8CFA70E3D6BC
310
504B03040A0000080000CC70623B3DEE336E79000000790000001B0000006175746F6465736B2D64657369676E2D7061636B6167652E786D6C3C3F786D6C2076657273696F6E3D22312E302220656E636F64696E673D227574662D3822203F3E3C666F726D6174733E3C666F726D61743E687474703A2F2F736368656D612E
310
6175746F6465736B2E636F6D2F64657369676E2D7061636B6167652F323030393C2F666F726D61743E3C2F666F726D6174733E504B0304140006080800CC70623BD486FD9CA0000000F4000000130000005B436F6E74656E745F54797065735D2E786D6C7D8EC10E82300C865F65E91D8A1E8C310C0EEA1BF002731658846E
310
D98AC1B77784ABF1D8FE5FBFBF75BBCE937A534CCEB38643598122B6FEE978D0B0485F9C41B54DDD7D022595594E1A469170414C76A4D9A4D207E29CF43ECE46F218070CC6BECC4078ACAA135ACF422C856C0E68EA1BF5669944DDD7BCDE7B1F8E415D77AECB980613C2E4AC91FC167A2B244592486606FC29C8FD7F045B9A
310
EF7053A7E60B504B0304140006080800CC70623B1EC5D7A3EB0000007C01000008000000636F72652E786D6C8D90416EC3201045AF82665B6103C6756C6122AB4D4ED00B204C5C94182C03558F5F9C3852BBEB6A467FFE9B197D71FC9E6FE8CBACC17AD7032D0820E3B41FAD9B7A48F1820F808E52ACDEC75F36404ECDA687
310
4D0629A6D5A76597B477D1B89855E747B38B2A041301E95B6E7A08FAD3CCAA50296647B8168BD2573599823EBB0CA76447F43862C7BCCF5EAC59410E4DDD9C7973C2755553CCCFA4C603E3040F1565ED3B1FDE4E432BCA0D9622DAF9795FAF464533826484B498524CD807E51D79ED187F21878E10516EF63F505AC67F42C9
310
BA58B1FDDD071640D2FCC87D2045B96591CB3DA85CB7DCE40F504B0304140006080800CC70623B55019EA25F0000007C00000007000000636E782E786D6C4DCB3B0E80201045D1AD90E915ED2CF8AC45050C11660C8261F98AB1B07AC9C97D42D718D865D3E909258CFD00CCE24AC6E326A164D74DC0B4128928FF32603847
310
2BA13128B1252AC747C6BAB984FC68F0B87FE8960A5C09FE86CFB69FBA01504B0304140006080800CC70623B8C9102E971010000D40300000C0000006662782F636F72652E786D6CC5535B6E833010BC8AE5DF0A6C08340F1947A84D4ED00B38C6A128602363A31CBFCB234A53A551FA553EC09AD9F5CE8C31DB9E9B1AF5CA
310
7695D1198E428A91D2D214952E33ECDD315861B4E5CC1AE3BE9561A445A3323CC098B3D21ADFCE9034DA29ED00D5A6503328BA4E398C640D8B0C77F253352214DE4145770A5B214FA2546114020D759C75CE8200340D19DE981F0F6746269C33EFAB6266AB02A655C74A59CCF365BADC27CB5D902ED22848F6340DF238A141
310
BE88E2F57B92BFEDF23523433367AE6A2EEAA455C2A902F398D2751045018D3FA264435F3771F242571B4A1919CA6F9A7C5B3CD9E42BED16F12C776AEB308F40C848FC700B1139D4891EF410CEC810227CC6846F8386402064270EF5C5C709A05E49676C024C61FC95EA45ED154CA5211D1FF4FB8291A913A68E9B83EBBB33
310
E2A7673CDE118E5AE8124C0807CB8377834E366998436B950D7A7746DAD846D4CFD978E0F04FD455FC5D49D2D4C6FE9722321F10997F0F32DC47FE05504B0304140006080800CC70623BFFEA85907E0000009D0000000B0000006662782F636E782E786D6C4DCCD10A83201886E15B91FFDC95D95A811AB6F23E625948A6C3
310
E9D8E5AF46073BFAE0E1E365ED67B3E8ADC3CB78C7815C7240DA3DFC64DCC221C519D7805AC182F7F1EF06C88D9BE6703008B6049F9E274D7A1E938DBB5AE3D6131B2589BA0D3D965551E0B2EA732C9B9A624AAEB41E3A557677029960D9AFB4EF11165F504B0304140006080800CC70623B4FEEA4082C0100001202000031
310
0000006662782F39464131463745442D413632322D343644302D413938332D3331353338454246344243312F636F72652E786D6C8D515B6EC32010BC0AE2AB55850DD871ED0813254D72825EC00192A2C460F1A872FC42ED48ED5F7E00CDCECCCEB26C731F6FE05B39AFADE921293004CA082BB5B9F43086336A21D870E6AC
310
0D7F68109861543DCC30E4ECE26C9C164858139409093556AA051CBC570102714B8F1E7AF1A5C6A11862480C7F2DA6415C878B2A4891CA89C7990F2E050073937C42DE1DB7E4F87ED8A36D4329AA9B3D46DBAEAD504556557BD81DEBDD0761E52CE42C462D17B996298E3E6BE59E35C962CE821E1FF18553435012728A7187
310
0841987E927A8D9B35ADDF70BBC6989599FE4F1427F9A4286A132ABAC49D651EF234CD5CE04CDA78BA3DC2A8FB645D00B9DF8B57E215725C60BCA2A463E54C4CE327C7A65E1C7DB02E7DEFCBF594B864C5CA6CDBD49C957943E9FA5D5FBAF336F90F504B0304140006080800CC70623BAD7543B64E01000033030000300000
310
006662782F39464131463745442D413632322D343644302D413938332D3331353338454246344243312F636E782E786D6CD593CD6EC32010845F0571AD6CE3D48AD20813A9873E410FBD12D82434182C7EAAE6EDBB2424CD25871E7B41D6EC30B3FA84F9E67BB2E40B4234DE8DB46F1925E094D7C6ED479AD3AE5951B2113C
310
789FEE6C943839C1488B4C05DF079FE72A69D8C96C13AAD6B8631503449F83828872B949AC57D26200B826A308D316B4064D6E46FCDA41C05550DC9E483A00797BFD207EFB092A45DE9514C1BBD22178396BD39D891265658C238DEA00936C654E5E433CB65A26D9F6EDB5EBC14EBF49A45CB856E66048291F6939A9A81BB5
310
C8917738143CA680F4AA299D66A042CEB3354A2684DC9D8D178FE0D9B8B41CAAD720F880EE7EF93C0C18769E099ECC04D5A102C8049A8A05632F4DDF376CF1DE0F6BB65C2F8627B65A33C6BB62177CEBBDAD973006829F89F22E814B54F4BC2BE347F8AA8F681390B50FA73F804400B5F542E796F19FF974E7F78DB802FE05
310
E207504B0304140006080800CC70623B16AB87BA640500003C100000340000006662782F39464131463745442D413632322D343644302D413938332D3331353338454246344243312F6F626A656374732E786D6CAD575B6FA33818FD2B887DE6924B3BED8A326A92B68A663B534DD4D13E548A0C38942D60649B369D5FBFC7
310
600890A493BDE42160637FD7F31D7FF63E6FB3D478A55C242CBF3247B66B1A340F5994E4F19559CA8D75611A9F7D8F33263BCB4C232719BD32D5B4E97B316765A1A722BA21652A07B3B7B33F0D11D29C9A46981221AE4C113ED38CD8A4942CA2E2C58E882476BCD9DA23BB5ED8171B73523C0F841684D35CC252CCE79062D4
310
468DFA43D7747CCF51DF7D4FFDEB5593E3AB9CCA9FBEFE241792E4E19EB28198C968BAB8199F5D5A67D3E9C49A9E8F47D6EC76B6B0469F26EEFC7C3EBFBCBEB98462213924694B38DD98FE1D62C393D073EA4FADC5DAF04326852CCF6958F90F0F2B9BB5C48816348F90C7840A68EB78EDF68723159BCEE7891A6B95DDE9D3
310
BCEAEEE8086A6C6F9E5D4B59F0175C10A7A0820BAA5055C7473B5AE3CFDD452D602CD5DF12616444529E90D448938013FE6EFA58AA96F85E4F8C42275708571E98FE6827AF6B2B4AE3D7D83D64E5A64C53054DD3AF90BD06FEA9149565C94FCA0F6B834DC85599E4F2423B24DF0B6AFA979E534DFA9E7A4CC6FA631D486393
310
921829879BF5D781A373557BCB85E97FB90DB62B558F8795179C15944B051F40AB495CF35451D26A4727654E6D8033BD98EF82F21D91FF8AF2DD9982BCF1643BDD4EB516C9492E368C67C88DED563FC36D5EACF66DFF057C3658BDBFA69DF9578B3DA735B64F18C7F20770A9D45CFCF7FCF563D6456A277DBEF78A02637CA2
310
43B90A490AEAB94F72244481D24819A6C0E59B606BFA4B3025981DBB48EAB701D97BF19C577CC77F2D1B6C55A9EF3C732474C0B727303F625995056C3B02963D9EAC146BE78EC5FCEC7FA999EBC5EACBAAE41B12D27B4D2C0BBA49F244E2ECDC81B76B502F113D8F5EE8FB1BE3111CDD4FC2AA9B844CAB1288B68AB90A7CDC
310
1C166AB0D3DC5310625FCC14E779BFD0709F8890A629C9292B1B2DED31A4B0DA928CEE135085754027E3018A397D4D5427D15BD1330B677DC8934285AC3DF45A9EB68FF8F2B8FC0A509AFEECFD0FF2DE25CC6047F7214B195F07EFEB9A094D800F7BFAE8FED187B78EA8A3A400F115961BCAD1215E47C966530AF0EE8128FE
310
58CEBB996A8964FFA529A046635D9353B0336A8F700DDF46271A024E70B0B37C9DE01847591E54DED53D54202AB947E4076556AC49C6CA5C9E1226B7F1A7B1BE15DEED62C41B91E1B3E9AFAAA735036547343A925075041DF0A9979E893B391F8FCFA6967B3EFB644DCF6E5CEBFAE272625DCC6FAF3FB93793C5F90CE1EF57
310
407342756B10D1C489E8953CD1617E5CEECAD6F4EF8914CE5D5D504E5C3F1F9736DA62CFC11E00BCDDB8CC8A9466349744C1F75EBDA4DF09BA8A9E8C7A7E9991989E20E5DBDD6A6003664ED8F7A04A8DBE0DF6EAD9B9AA858342E47399053949D2C146EDB85DE4B176BB0965FBAC19BD19AA918E27FA50C1D22402E144464C
310
59462568E704B6E71915404CB72B8FF4EDE184DDAF753F284990D2C6926782963815403548A70C657FDEF80D2D9CEAA2AE4C1C76F60BFE74219A06527D6582DF6412526107381E55E353090704D085B52408D0933C4ED159D79BDA71BB4BC506F4831350EB6F979CD22D69BF7AC49B91A2C0A9DDA3D5CA36AD20FC478E37E6
310
1844E2352865EBCB6EA275A652E3836BE04EFB400BF1A2556F515F1FBB35B2AB35BD889C744FFA1004B5544B121E57F70215746DD2F5E2C1412B602CBF19455AC6C8E5E9922C4E01E65215385004546899059180EAFCF7A707CE7017CD8CDB0410789AB32C63B91E5CEBBBACB17AC6CD347A022D5075FD106377347AAABA7E
310
7D11590744509B44E205134DC1290F06580320F78E537D3D73540E06CB970B431F185308AD40BBD794D6D77003C5A36E8EAA54BA64597CD8F83BD552A080A365F7FF06504B0304140006080000CC70623B000000000000000000000000350000006662782F39464131463745442D413632322D343644302D413938332D3331
310
353338454246344243312F76657274696365732E62696E504B0304140006080800CC70623BF270F1330600000004000000360000006662782F39464131463745442D413632322D343644302D413938332D3331353338454246344243312F747269616E676C65732E62696E636660600000504B0304140006080000CC70623B
310
000000000000000000000000370000006662782F39464131463745442D413632322D343644302D413938332D3331353338454246344243312F617474726962757465732E62696E504B0304140006080800CC70623B08DA0BD19000000041010000360000006662782F39464131463745442D413632322D343644302D413938
310
332D3331353338454246344243312F6469726563746F72792E786D6C858F410AC3201045AF22B36F53E9A60B35CBEEBAE80D244E44489C6234F4F835464A48035D0DF398FF9F8AF63D0E6CC63039F212F8F9020C7D47C6792B21C5FE7403D62A1188E2E60C98D7234A5830286103A55745067B9D86B8A3CF9C7F90C11DE607
310
FB144396D7B6A82D282E9A152AD114D5EF2CB866EEE831B8EEA07A7BB5A8D7D61A2BAAEB7FD5F70921FF497D00504B0304140006080800CC70623B0D6EF93BFE000000A00100003B0000006662782F39464131463745442D413632322D343644302D413938332D3331353338454246344243312F7265736F75726365732F63
310
6F72652E786D6C8D50596E833010BD0A9ADFCA60B334011947A8694ED00B586642AC041B79A97AFC9A40A5F6AF3F33A3B7689E1E3F7DCD8FEC139DD7D6F4C0720A191A65476DA61E62B892236427C19DB5E1970C322367EC618541F0C9D9B8EC90B226A009093576C41D94DE63804C3DD2D18357379C652E63480A7FCF17A9
310
EE72C29CE5894E3AC17D702940B63D59270887DE46A7D0F36263058F518FBB468FE9A7BE6A7420864373B8D4873369AA8691FA421B3294352543C5CAF65C0F6FEF43CB8BD52C78D0F34F46E550061C419494B6843142CB0F5677F4B52BEB177AEC28E5C52AFF638ACBF84F53D42654E51E77B379102C05791282176B5F693D
310
CB4C7BED567C03504B010214000A0000080000CC70623B3DEE336E79000000790000001B00000000000000000000000000000000006175746F6465736B2D64657369676E2D7061636B6167652E786D6C504B01021400140006080800CC70623BD486FD9CA0000000F40000001300000000000000000000000000B20000005B
310
436F6E74656E745F54797065735D2E786D6C504B01021400140006080800CC70623B1EC5D7A3EB0000007C010000080000000000000000000000000083010000636F72652E786D6C504B01021400140006080800CC70623B55019EA25F0000007C000000070000000000000000000000000094020000636E782E786D6C504B
310
01021400140006080800CC70623B8C9102E971010000D40300000C00000000000000000000000000180300006662782F636F72652E786D6C504B01021400140006080800CC70623BFFEA85907E0000009D0000000B00000000000000000000000000B30400006662782F636E782E786D6C504B01021400140006080800CC70
310
623B4FEEA4082C0100001202000031000000000000000000000000005A0500006662782F39464131463745442D413632322D343644302D413938332D3331353338454246344243312F636F72652E786D6C504B01021400140006080800CC70623BAD7543B64E010000330300003000000000000000000000000000D5060000
310
6662782F39464131463745442D413632322D343644302D413938332D3331353338454246344243312F636E782E786D6C504B01021400140006080800CC70623B16AB87BA640500003C1000003400000000000000000000000000710800006662782F39464131463745442D413632322D343644302D413938332D3331353338
310
454246344243312F6F626A656374732E786D6C504B01021400140006080000CC70623B0000000000000000000000003500000000000000000000000000270E00006662782F39464131463745442D413632322D343644302D413938332D3331353338454246344243312F76657274696365732E62696E504B01021400140006
310
080800CC70623BF270F133060000000400000036000000000000000000000000007A0E00006662782F39464131463745442D413632322D343644302D413938332D3331353338454246344243312F747269616E676C65732E62696E504B01021400140006080000CC70623B0000000000000000000000003700000000000000
310
000000000000D40E00006662782F39464131463745442D413632322D343644302D413938332D3331353338454246344243312F617474726962757465732E62696E504B01021400140006080800CC70623B08DA0BD190000000410100003600000000000000000000000000290F00006662782F39464131463745442D413632
310
322D343644302D413938332D3331353338454246344243312F6469726563746F72792E786D6C504B01021400140006080800CC70623B0D6EF93BFE000000A00100003B000000000000000000000000000D1000006662782F39464131463745442D413632322D343644302D413938332D3331353338454246344243312F7265
310
736F75726365732F636F72652E786D6C504B0506000000000E000E0080040000641100000000
  0
XRECORD
  5
1686
102
{ACAD_REACTORS
330
173
102
}
330
173
100
AcDbXrecord
280
     1
102
MATERIAL
148
0.0
149
0.0
149
0.0
 93
        0
 94
       63
282
     0
 72
     1
 77
     1
171
     1
175
     1
179
     1
273
     0
  0
XRECORD
  5
175
102
{ACAD_REACTORS
330
173
102
}
330
173
100
AcDbXrecord
280
     1
270
     1
271
     1
  0
XRECORD
  5
174
102
{ACAD_REACTORS
330
173
102
}
330
173
100
AcDbXrecord
280
     1
270
     1
271
     1
  0
XRECORD
  5
1FB
102
{ACAD_REACTORS
330
173
102
}
330
173
100
AcDbXrecord
280
     1
 70
     0
 90
1673772943
  1
ECE7A1D2-D628-4531-984C-D00F80459256
310
504B03040A0000080000CC70623B3DEE336E79000000790000001B0000006175746F6465736B2D64657369676E2D7061636B6167652E786D6C3C3F786D6C2076657273696F6E3D22312E302220656E636F64696E673D227574662D3822203F3E3C666F726D6174733E3C666F726D61743E687474703A2F2F736368656D612E
310
6175746F6465736B2E636F6D2F64657369676E2D7061636B6167652F323030393C2F666F726D61743E3C2F666F726D6174733E504B0304140006080800CC70623BD486FD9CA0000000F4000000130000005B436F6E74656E745F54797065735D2E786D6C7D8EC10E82300C865F65E91D8A1E8C310C0EEA1BF002731658846E
310
D98AC1B77784ABF1D8FE5FBFBF75BBCE937A534CCEB38643598122B6FEE978D0B0485F9C41B54DDD7D022595594E1A469170414C76A4D9A4D207E29CF43ECE46F218070CC6BECC4078ACAA135ACF422C856C0E68EA1BF5669944DDD7BCDE7B1F8E415D77AECB980613C2E4AC91FC167A2B244592486606FC29C8FD7F045B9A
310
EF7053A7E60B504B0304140006080800CC70623BD9DDAED0EC0000007C01000008000000636F72652E786D6C8D90416EC3201045AF82665B61836D9CD8C2444DD39CA01740405C94182C03558F5F9C3852BBEB6A467FFE9B197D7EF89E6EE8CB2CC17A37002D0820E394D7D68D03A478C17B4007C117EFE32F1B20272733C0
310
2A83E0E3E2D3BC49CABB685CCCAAF3DA6CA20CC14440EA969B0182FA34932C648AD911AEC52CD5558EA6A0CF2EC329598D1E47ACCEFBECC59A050463A7EA5833865FEBDD0E37353BE3EE8DBDE3F6786A48D375FBF6CC78B9C282473B3DEFABC5C86834888A900E538A49F5419B9EB47DD5BC907D4F082F57FB1F28CDFA9F50
310
B22ED6D5F6EE030B20687EE43E10BC5CB3C8E51E54AE6B6EE207504B0304140006080800CC70623B55019EA25F0000007C00000007000000636E782E786D6C4DCB3B0E80201045D1AD90E915ED2CF8AC45050C11660C8261F98AB1B07AC9C97D42D718D865D3E909258CFD00CCE24AC6E326A164D74DC0B4128928FF326038
310
472BA13128B1252AC747C6BAB984FC68F0B87FE8960A5C09FE86CFB69FBA01504B0304140006080800CC70623BA24EB22D72010000D40300000C0000006662782F636F72652E786D6CC5535B6E833010BC8AE5DF0A6C5E49888CA3A6694ED00B38E05014B091B1518EDFE511A5A9D228FD2A1F60CDEC7A67C6986DCE4D8D7A
310
69BA4AAB0C073EC548AA5C17952A33ECECD15B61B4E1CC686DBF9561A44423333CC098B3D268D7CE50AE9595CA02AA74216750749DB418E5352C32DCE59FB211BE70162ABA93DF8AFC244AE9073ED050C759670D0840D390E18DF9F1706664C23973AE2A66B62A605A75ACA4C13C4976E1364A12EF355A2EBD384AF65EFA96
310
BC7B8BED2EA6719AAE16FB8491A199335B351775B991C2CA02F390D2D40B028F861F41BCA68B7518BFD0D59A524686F29B26D7164F36B94AD9289CE54E6D1DE6010819891F6E21228B3AD1831EC219194284CF98F06DD01008846CC5A1BEF83801D4CBDC6A1303536877A57A513B0953A94FC707FDBE6064EA84A9E3E6E0FA
310
EE8CF0E9198F7784A316AA0413C2C2F2E0ECA0934D1AE6D05A69BCDE9E91D2A611F573361E38FC1375157F5752AE6B6DFE4B11990F88CCBF0719EE23FF02504B0304140006080800CC70623B408A7D3B7C0000009D0000000B0000006662782F636E782E786D6C4DCCD10A83201886E15B91FFDC552A92A0064DBC8F581632
310
D3703A76F9ABD1C18E3E78F878E5F0D9027ABBFCF2292AE86E2D20171F69F6715550CB827B40839639A5F2770314A7CD293819B45C73AAFB45B35BA61ACAA1C1C7E7855C58C15BC331339661262CC762340413D68D77DA5B42298546CBE6573AF60CEB2F504B0304140006080800CC70623B449FB9BD290100001202000031
310
0000006662782F36394639363044362D344446342D343946362D394244322D3234314243333846323333332F636F72652E786D6C8D515B6EC32010BC0AE22B55850D98B871848994463E412FE002495162B07854397EA176A4F62F3F2C9A9D991D587EB84F37F0AD7D30CEF6905418026DA553C65E7A98E219ED203808EE9D
310
8B7F6810D871D23D2C3014FCE25D9A57483A1BB58D19B54EE9151C43D0110279CB971E06F9A5A7B11A53CC8C70ADE6515EC78BAE4895DB992778883E0700CB907242D17643D7E2538BD869608875438BBAE38922CAC8F1BDD90DB4691A5E2F42C153326A951B95E398B3D1FE599322163C9AE9115F7A3D46ADA0A018778810
310
84E907617BDCEE297BC5BB3DC6BC2EF47FA234AB2745C9D8D8D035EE220B50105E2F0DC1954B9FB747187D9F9D8FA0CCDB042D5FA0C015C65B42DF78BD10F3F3B363CB56C7109DCFDFBBB97E662ED92EB62D13BC2E1BCAE5777DB9966D8A1F504B0304140006080800CC70623BAD7543B64E01000033030000300000006662
310
782F36394639363044362D344446342D343946362D394244322D3234314243333846323333332F636E782E786D6CD593CD6EC32010845F0571AD6CE3D48AD20813A9873E410FBD12D82434182C7EAAE6EDBB2424CD25871E7B41D6EC30B3FA84F9E67BB2E40B4234DE8DB46F1925E094D7C6ED479AD3AE5951B2113C789FEE
310
6C943839C1488B4C05DF079FE72A69D8C96C13AAD6B8631503449F83828872B949AC57D26200B826A308D316B4064D6E46FCDA41C05550DC9E483A00797BFD207EFB092A45DE9514C1BBD22178396BD39D891265658C238DEA00936C654E5E433CB65A26D9F6EDB5EBC14EBF49A45CB856E66048291F6939A9A81BB5C89177
310
38143CA680F4AA299D66A042CEB3354A2684DC9D8D178FE0D9B8B41CAAD720F880EE7EF93C0C18769E099ECC04D5A102C8049A8A05632F4DDF376CF1DE0F6BB65C2F8627B65A33C6BB62177CEBBDAD973006829F89F22E814B54F4BC2BE347F8AA8F681390B50FA73F804400B5F542E796F19FF974E7F78DB802FE05E20750
310
4B0304140006080800CC70623B8D05915C650500003B100000340000006662782F36394639363044362D344446342D343946362D394244322D3234314243333846323333332F6F626A656374732E786D6CAD575B6FA33814FE2B887D06429276DA1565D4266D158D3A339A6846FB502932E050B66023DB74D2FDF5FB190C01
310
9276B2973C046C8ECFF53B17071F77456EBD502133CEAE6CDF9DD81665314F32965ED995DA3A17B6F5310C04E7AA47665B8C14F4CAD6DB7618A48257A5D94AE89654B91AEDDEDDFC61C998326A5B714EA4BCB265FC440BE2924AF184CA6737218AB8E976E7FA6E4338649B0A523E8D98964450A6A029F619B8588D52FE7039
310
B1BD30F0F4F730D0FF866AF6369557DB33949F31A9088B0F848DD8CCFCF9F2767A76E99CCDE733677E3EF59D9BBB9BA5E37F984D16E78BC5E5F5ED25044B25C0C96822E8D60EEFE11B91C581D77CEA34368A1F5329E68CD1B8B61F16D63A1B8E092D294B10C78C4A48EB593D192E7DED9BDEE7995E1B91FDEDD3ACEA9FE831
310
6A756F9F7D4D79F4274C90A7A04248AA51D5F8C718DAE06FB2F75AC4796EBE65D22A88A22223B995679120E2D50E41AA49C260C046A35368846B0BECD0DFF3EBEB8AD4F835768F69B9ADF25C43D30E6B646F807FAA64AD59F61715C7A54127C4AACA98BA3006A9D792DAE165E0D59B61A01FB3A9F9D838D2DAE62445C86166
310
F37564E842E7DE6A69879FEEA2DD5AE7E371E1A5E025154AC307D06A03D73EB5978C58FFA4C8E9033066E0F3BD53BEC1F39F91BE7B55103791EDE6BBB991A2046172CB4581D8B893FA674DDA17A77B3B7C413D1B511FD2743BFF8A38F03A658705E3ADF8015C3A3417FF3D7E439FF591DA0B5F18BC20C1B8981957AE6392A3
310
F43C640C01D1A0B4728E2DD4F26DB4B3C3152A252A3B4E913CEC1C72F012782FF88EFF8637AA552DBEF76408E8A8DE9E50F9E1CB3A2DA0DB1B6039A893B56063DC5B3E3FFB5F72E67AB9FEB4AEC496C4F4C1149625DD662C53E89D7BF0F6151A046260D1337DFDC94502430F83B0EE07A130A224BCAD7DAE1D9FB6CD422FF6
310
920702629C4BB9AE79C12F243C6432A6794E18E5552BA56B431AAB5D91317302B2B071E86C3A42B1A02F999E24061403B5D0EB639195DA655DD3EBEAB4FB862DDF579F014AD0E73C22F99E28DA57FB98E75C6CA2D74D53086D600F4786E0FE3144B771A8A7B900F03594DB8A633CBC49B2EDB69228BB479CF863B5E807AAAB
310
23872F6DFEB4129B949CA33823F58830E86D65621E10047D9DB34D862E8EAC3C2ABC2F7B2C40D67CDFE01F5545B92105AF983AC54D93D69E56FB8E797F88913F898A9FEC705D3F9D1B54EC8426FB500D40A03BD0119B06E1B95DDC7EB8F6975367793EBD70E66733DFB9BC982F9CE564727731999F5D4ECFCE3B8D6A4DC2A0
310
6D50FD148437D110834A64C6CDDF57FBACB5C307A2A477DFE4939736CFEF2B175371E0E10CF0DD1D5C15654E0BCA14D1E87DD02FF93782A162C0A3D95F1524A52770F972BF1EE9809D13CE7DD599467F8ECE9ADD85CE85A34CD45355448C64F9E8A031DC2D596ACC6E5DD93D9B82DE2EF5CAF81363A8E47996A0DE24564A79
310
4115AACE09C55E14540231FDA13C319787134EBF34E3A022514E5B4D9E0826E25C02D5805B15ABE1BEF51B26383D445DD9E875EE33FE4C22DA16427D65A3BCA92CA6D28DD01DF5DC53330704308475351050232CCD31583787BA75774AFB06E5070DD0C8EF484E19968C5D83BA5B90B244D31E54D55A372320FE4786B7EA58
310
44E135AA5467CB7EA333A61683CC6A8C3257034C10CF46F40EF9F5BE59BE5BD30C3C72D235E95D10345C1D45445A5F0BB47E46A5EBE5570F9380B5FA629579952296A773720405982B9DE04011506178964401AA8BDF1FBF0A8EAB6861DD6580C0E38217056766716DAEB2D6FA0917D3E4116581EADB879C4E7CFFB11EFACD
310
3D641311495D92C8676CB409A72D18610D803CE8A626049E8EC1887CB5B44CC39883690DDA8399B4B9855B481E7D71D4A9D22F96E5BB73BF5793020C02137BF837504B0304140006080000CC70623B000000000000000000000000350000006662782F36394639363044362D344446342D343946362D394244322D32343142
310
43333846323333332F76657274696365732E62696E504B0304140006080800CC70623BF270F1330600000004000000360000006662782F36394639363044362D344446342D343946362D394244322D3234314243333846323333332F747269616E676C65732E62696E636660600000504B0304140006080000CC70623B0000
310
00000000000000000000370000006662782F36394639363044362D344446342D343946362D394244322D3234314243333846323333332F617474726962757465732E62696E504B0304140006080800CC70623B08DA0BD19000000041010000360000006662782F36394639363044362D344446342D343946362D394244322D
310
3234314243333846323333332F6469726563746F72792E786D6C858F410AC3201045AF22B36F53E9A60B35CBEEBAE80D244E44489C6234F4F835464A48035D0DF398FF9F8AF63D0E6CC63039F212F8F9020C7D47C6792B21C5FE7403D62A1188E2E60C98D7234A5830286103A55745067B9D86B8A3CF9C7F90C11DE607FB14
310
4396D7B6A82D282E9A152AD114D5EF2CB866EEE831B8EEA07A7BB5A8D7D61A2BAAEB7FD5F70921FF497D00504B0304140006080800CC70623BCA768048FE000000A00100003B0000006662782F36394639363044362D344446342D343946362D394244322D3234314243333846323333332F7265736F75726365732F636F72
310
652E786D6C8D50596E833010BD0A9ADFCA60D600328E9AA639412F609909B1126CE4A5EAF16B0295DABFFECC8CDEA2797AECF8353F924FB44E193D409E5248504B332A3D0D10FC95B4901C39B3C6F85F3248B49871801506CE266BC2B243D2688FDA47549B11775038871E12F988C7004EDE7016A9083E2ADC3D5D84BC8B09
310
D33C8D74D471E6BC8D0192EDC93A815B742658898E651BCB59086ADC356A8C3FD555A1055ED7E7E254D615792D0F075295F585746FF53B694EE78A565DD736979A65AB9933AFE69F8CD2A2F038022F28ED489E135A7CE4554F9BBEA85E68DB53CAB255FEC71496F19FA6A0B42F8B3DEE6673C0F318E4497096AD7DC5F52C33
310
EEB55BFE0D504B010214000A0000080000CC70623B3DEE336E79000000790000001B00000000000000000000000000000000006175746F6465736B2D64657369676E2D7061636B6167652E786D6C504B01021400140006080800CC70623BD486FD9CA0000000F40000001300000000000000000000000000B20000005B436F
310
6E74656E745F54797065735D2E786D6C504B01021400140006080800CC70623BD9DDAED0EC0000007C010000080000000000000000000000000083010000636F72652E786D6C504B01021400140006080800CC70623B55019EA25F0000007C000000070000000000000000000000000095020000636E782E786D6C504B0102
310
1400140006080800CC70623BA24EB22D72010000D40300000C00000000000000000000000000190300006662782F636F72652E786D6C504B01021400140006080800CC70623B408A7D3B7C0000009D0000000B00000000000000000000000000B50400006662782F636E782E786D6C504B01021400140006080800CC70623B
310
449FB9BD290100001202000031000000000000000000000000005A0500006662782F36394639363044362D344446342D343946362D394244322D3234314243333846323333332F636F72652E786D6C504B01021400140006080800CC70623BAD7543B64E010000330300003000000000000000000000000000D20600006662
310
782F36394639363044362D344446342D343946362D394244322D3234314243333846323333332F636E782E786D6C504B01021400140006080800CC70623B8D05915C650500003B10000034000000000000000000000000006E0800006662782F36394639363044362D344446342D343946362D394244322D32343142433338
310
46323333332F6F626A656374732E786D6C504B01021400140006080000CC70623B0000000000000000000000003500000000000000000000000000250E00006662782F36394639363044362D344446342D343946362D394244322D3234314243333846323333332F76657274696365732E62696E504B010214001400060808
310
00CC70623BF270F13306000000040000003600000000000000000000000000780E00006662782F36394639363044362D344446342D343946362D394244322D3234314243333846323333332F747269616E676C65732E62696E504B01021400140006080000CC70623B00000000000000000000000037000000000000000000
310
00000000D20E00006662782F36394639363044362D344446342D343946362D394244322D3234314243333846323333332F617474726962757465732E62696E504B01021400140006080800CC70623B08DA0BD190000000410100003600000000000000000000000000270F00006662782F36394639363044362D344446342D
310
343946362D394244322D3234314243333846323333332F6469726563746F72792E786D6C504B01021400140006080800CC70623BCA768048FE000000A00100003B000000000000000000000000000B1000006662782F36394639363044362D344446342D343946362D394244322D3234314243333846323333332F7265736F
310
75726365732F636F72652E786D6C504B0506000000000E000E0080040000621100000000
  0
XRECORD
  5
176
102
{ACAD_REACTORS
330
173
102
}
330
173
100
AcDbXrecord
280
     1
270
     1
271
     1
  0
XRECORD
  5
177
102
{ACAD_REACTORS
330
173
102
}
330
173
100
AcDbXrecord
280
     1
270
     1
271
     1
  0
XRECORD
  5
16A8
102
{ACAD_REACTORS
330
16A7
102
}
330
16A7
100
AcDbXrecord
280
     1
102
ACAD_ROUNDTRIP_2012_MLEADER_STYLE
298
     1
  0
XRECORD
  5
16BA
102
{ACAD_REACTORS
330
16B9
102
}
330
16B9
100
AcDbXrecord
280
     1
102
DISPLAYNAME
  1
Metric50
102
FLAGS
 90
        0
  0
CELLSTYLEMAP
  5
167A
102
{ACAD_REACTORS
330
162
102
}
330
162
100
AcDbCellStyleMap
 90
        3
300
CELLSTYLE
  1
TABLEFORMAT_BEGIN
 90
        5
170
     1
 91
        0
 92
    32768
 62
   257
 93
        1
300
CONTENTFORMAT
  1
CONTENTFORMAT_BEGIN
 90
        0
 91
        0
 92
      512
 93
        0
300

 40
0.0
140
1.0
 94
        5
 62
     0
340
11
144
6.0
309
CONTENTFORMAT_END
171
     1
301
MARGIN
  1
CELLMARGIN_BEGIN
 40
1.5
 40
1.5
 40
1.5
 40
1.5
 40
4.5
 40
4.5
309
CELLMARGIN_END
 94
        6
 95
        1
302
GRIDFORMAT
  1
GRIDFORMAT_BEGIN
 90
        0
 91
        1
 62
     0
 92
       -2
340
14
 93
        0
 40
1.125
309
GRIDFORMAT_END
 95
        2
302
GRIDFORMAT
  1
GRIDFORMAT_BEGIN
 90
        0
 91
        1
 62
     0
 92
       -2
340
14
 93
        0
 40
1.125
309
GRIDFORMAT_END
 95
        4
302
GRIDFORMAT
  1
GRIDFORMAT_BEGIN
 90
        0
 91
        1
 62
     0
 92
       -2
340
14
 93
        0
 40
1.125
309
GRIDFORMAT_END
 95
        8
302
GRIDFORMAT
  1
GRIDFORMAT_BEGIN
 90
        0
 91
        1
 62
     0
 92
       -2
340
14
 93
        0
 40
1.125
309
GRIDFORMAT_END
 95
       16
302
GRIDFORMAT
  1
GRIDFORMAT_BEGIN
 90
        0
 91
        1
 62
     0
 92
       -2
340
14
 93
        0
 40
1.125
309
GRIDFORMAT_END
 95
       32
302
GRIDFORMAT
  1
GRIDFORMAT_BEGIN
 90
        0
 91
        1
 62
     0
 92
       -2
340
14
 93
        0
 40
1.125
309
GRIDFORMAT_END
309
TABLEFORMAT_END
  1
CELLSTYLE_BEGIN
 90
        1
 91
        1
300
_TITLE
309
CELLSTYLE_END
300
CELLSTYLE
  1
TABLEFORMAT_BEGIN
 90
        5
170
     1
 91
        0
 92
        0
 62
   257
 93
        1
300
CONTENTFORMAT
  1
CONTENTFORMAT_BEGIN
 90
        0
 91
        0
 92
      512
 93
        0
300

 40
0.0
140
1.0
 94
        5
 62
     0
340
11
144
4.5
309
CONTENTFORMAT_END
171
     1
301
MARGIN
  1
CELLMARGIN_BEGIN
 40
1.5
 40
1.5
 40
1.5
 40
1.5
 40
4.5
 40
4.5
309
CELLMARGIN_END
 94
        6
 95
        1
302
GRIDFORMAT
  1
GRIDFORMAT_BEGIN
 90
        0
 91
        1
 62
     0
 92
       -2
340
14
 93
        0
 40
1.125
309
GRIDFORMAT_END
 95
        2
302
GRIDFORMAT
  1
GRIDFORMAT_BEGIN
 90
        0
 91
        1
 62
     0
 92
       -2
340
14
 93
        0
 40
1.125
309
GRIDFORMAT_END
 95
        4
302
GRIDFORMAT
  1
GRIDFORMAT_BEGIN
 90
        0
 91
        1
 62
     0
 92
       -2
340
14
 93
        0
 40
1.125
309
GRIDFORMAT_END
 95
        8
302
GRIDFORMAT
  1
GRIDFORMAT_BEGIN
 90
        0
 91
        1
 62
     0
 92
       -2
340
14
 93
        0
 40
1.125
309
GRIDFORMAT_END
 95
       16
302
GRIDFORMAT
  1
GRIDFORMAT_BEGIN
 90
        0
 91
        1
 62
     0
 92
       -2
340
14
 93
        0
 40
1.125
309
GRIDFORMAT_END
 95
       32
302
GRIDFORMAT
  1
GRIDFORMAT_BEGIN
 90
        0
 91
        1
 62
     0
 92
       -2
340
14
 93
        0
 40
1.125
309
GRIDFORMAT_END
309
TABLEFORMAT_END
  1
CELLSTYLE_BEGIN
 90
        2
 91
        1
300
_HEADER
309
CELLSTYLE_END
300
CELLSTYLE
  1
TABLEFORMAT_BEGIN
 90
        5
170
     1
 91
        0
 92
        0
 62
   257
 93
        1
300
CONTENTFORMAT
  1
CONTENTFORMAT_BEGIN
 90
        0
 91
        0
 92
      512
 93
        0
300

 40
0.0
140
1.0
 94
        2
 62
     0
340
11
144
4.5
309
CONTENTFORMAT_END
171
     1
301
MARGIN
  1
CELLMARGIN_BEGIN
 40
1.5
 40
1.5
 40
1.5
 40
1.5
 40
4.5
 40
4.5
309
CELLMARGIN_END
 94
        6
 95
        1
302
GRIDFORMAT
  1
GRIDFORMAT_BEGIN
 90
        0
 91
        1
 62
     0
 92
       -2
340
14
 93
        0
 40
1.125
309
GRIDFORMAT_END
 95
        2
302
GRIDFORMAT
  1
GRIDFORMAT_BEGIN
 90
        0
 91
        1
 62
     0
 92
       -2
340
14
 93
        0
 40
1.125
309
GRIDFORMAT_END
 95
        4
302
GRIDFORMAT
  1
GRIDFORMAT_BEGIN
 90
        0
 91
        1
 62
     0
 92
       -2
340
14
 93
        0
 40
1.125
309
GRIDFORMAT_END
 95
        8
302
GRIDFORMAT
  1
GRIDFORMAT_BEGIN
 90
        0
 91
        1
 62
     0
 92
       -2
340
14
 93
        0
 40
1.125
309
GRIDFORMAT_END
 95
       16
302
GRIDFORMAT
  1
GRIDFORMAT_BEGIN
 90
        0
 91
        1
 62
     0
 92
       -2
340
14
 93
        0
 40
1.125
309
GRIDFORMAT_END
 95
       32
302
GRIDFORMAT
  1
GRIDFORMAT_BEGIN
 90
        0
 91
        1
 62
     0
 92
       -2
340
14
 93
        0
 40
1.125
309
GRIDFORMAT_END
309
TABLEFORMAT_END
  1
CELLSTYLE_BEGIN
 90
        3
 91
        2
300
_DATA
309
CELLSTYLE_END
  0
XRECORD
  5
167F
102
{ACAD_REACTORS
330
162
102
}
330
162
100
AcDbXrecord
280
     1
102
ACAD_ROUNDTRIP_PRE2007_TABLESTYLE
 90
      512
 91
        0
  1

 92
      512
 93
        0
  2

 94
      512
 95
        0
  3

  0
XRECORD
  5
1692
102
{ACAD_REACTORS
330
1691
102
}
330
1691
100
AcDbXrecord
280
     1
102
RTVSPost2010Prop28
280
     1
102
RTVSPost2010PropOp28
 70
     1
102
RTVSPost2010Prop29
280
     1
102
RTVSPost2010PropOp29
 70
     1
102
RTVSPost2010Prop30
280
     0
102
RTVSPost2010PropOp30
 70
     1
102
RTVSPost2010Prop31
280
     0
102
RTVSPost2010PropOp31
 70
     1
102
RTVSPost2010Prop32
280
     0
102
RTVSPost2010PropOp32
 70
     1
102
RTVSPost2010Prop33
280
     0
102
RTVSPost2010PropOp33
 70
     1
102
RTVSPost2010Prop34
280
     0
102
RTVSPost2010PropOp34
 70
     1
102
RTVSPost2010Prop35
280
     0
102
RTVSPost2010PropOp35
 70
     1
102
RTVSPost2010Prop36
280
     0
102
RTVSPost2010PropOp36
 70
     1
102
RTVSPost2010Prop37
 90
       50
102
RTVSPost2010PropOp37
 70
     1
102
RTVSPost2010Prop38
140
0.0
102
RTVSPost2010PropOp38
 70
     1
102
RTVSPost2010Prop39
140
1.0
102
RTVSPost2010PropOp39
 70
     1
102
RTVSPost2010Prop40
 90
        0
102
RTVSPost2010PropOp40
 70
     1
102
RTVSPost2010Prop41ColorIndex
 90
       18
102
RTVSPost2010Prop41ColorRGB
 90
        0
102
RTVSPost2010PropOp41
 70
     1
102
RTVSPost2010Prop42
 90
       50
102
RTVSPost2010PropOp42
 70
     1
102
RTVSPost2010Prop43
 90
        3
102
RTVSPost2010PropOp43
 70
     1
102
RTVSPost2010Prop44ColorIndex
 90
        5
102
RTVSPost2010Prop44ColorRGB
 90
      255
102
RTVSPost2010PropOp44
 70
     1
102
RTVSPost2010Prop45
280
     0
102
RTVSPost2010PropOp45
 70
     1
102
RTVSPost2010Prop46
 90
       50
102
RTVSPost2010PropOp46
 70
     1
102
RTVSPost2010Prop47
 90
       50
102
RTVSPost2010PropOp47
 70
     1
102
RTVSPost2010Prop48
 90
       50
102
RTVSPost2010PropOp48
 70
     1
102
RTVSPost2010Prop49
280
     0
102
RTVSPost2010PropOp49
 70
     1
102
RTVSPost2010Prop50
 90
       50
102
RTVSPost2010PropOp50
 70
     1
102
RTVSPost2010Prop51ColorIndex
 90
      256
102
RTVSPost2010Prop51ColorRGB
 90
-16777216
102
RTVSPost2010PropOp51
 70
     0
102
RTVSPost2010Prop52
140
1.0
102
RTVSPost2010PropOp52
 70
     0
102
RTVSPost2010Prop53
 90
        2
102
RTVSPost2010PropOp53
 70
     1
102
RTVSPost2010Prop54
  1
strokes_ogs.tif
102
RTVSPost2010PropOp54
 70
     1
102
RTVSPost2010Prop55
280
     0
102
RTVSPost2010PropOp55
 70
     1
102
RTVSPost2010Prop56
140
1.0
102
RTVSPost2010PropOp56
 70
     1
102
RTVSPost2010Prop57
140
1.0
102
RTVSPost2010PropOp57
 70
     1
102
RTVSPropertyOp0
 70
     1
102
RTVSPropertyOp1
 70
     1
102
RTVSPropertyOp2
 70
     1
102
RTVSPropertyOp3
 70
     1
102
RTVSPropertyOp4
 70
     1
102
RTVSPropertyOp5
 70
     1
102
RTVSPropertyOp6
 70
     1
102
RTVSPropertyOp7
 70
     1
102
RTVSPropertyOp8
 70
     1
102
RTVSPropertyOp9
 70
     1
102
RTVSPropertyOp10
 70
     1
102
RTVSPropertyOp11
 70
     1
102
RTVSPropertyOp12
 70
     1
102
RTVSPropertyOp13
 70
     1
102
RTVSPropertyOp14
 70
     1
102
RTVSPropertyOp15
 70
     1
102
RTVSPropertyOp16
 70
     1
102
RTVSPropertyOp17
 70
     1
102
RTVSPropertyOp18
 70
     1
102
RTVSPropertyOp19
 70
     1
102
RTVSPropertyOp20
 70
     1
102
RTVSPropertyOp21
 70
     1
102
RTVSPropertyOp22
 70
     1
102
RTVSPropertyOp23
 70
     1
102
RTVSPropertyOp24
 70
     1
102
RTVSPropertyOp25
 70
     1
102
RTVSPropertyOp26
 70
     1
102
RTVSPropertyOp27
 70
     1
102
RTVSPropertyOp28
 70
     1
102
RTVSPropertyOp29
 70
     1
102
RTVSPropertyOp30
 70
     1
102
RTVSPropertyOp31
 70
     1
102
RTVSPropertyOp32
 70
     1
102
RTVSPropertyOp33
 70
     1
102
RTVSPropertyOp34
 70
     1
102
RTVSPropertyOp35
 70
     1
102
RTVSPropertyOp36
 70
     1
102
RTVSPropertyOp37
 70
     1
102
RTVSPropertyOp38
 70
     1
102
RTVSPropertyOp39
 70
     1
102
RTVSPropertyOp40
 70
     1
102
RTVSPropertyOp41
 70
     1
102
RTVSPropertyOp42
 70
     1
102
RTVSPropertyOp43
 70
     1
102
RTVSPropertyOp44
 70
     1
102
RTVSPropertyOp45
 70
     1
102
RTVSPropertyOp46
 70
     1
102
RTVSPropertyOp47
 70
     1
102
RTVSPropertyOp48
 70
     1
102
RTVSPropertyOp49
 70
     1
102
RTVSPropertyOp50
 70
     1
102
RTVSPropertyOp51
 70
     0
102
RTVSPropertyOp52
 70
     0
102
RTVSPropertyOp53
 70
     1
102
RTVSPropertyOp54
 70
     1
102
RTVSPropertyOp55
 70
     1
102
RTVSPropertyOp56
 70
     1
102
RTVSPropertyOp57
 70
     1
102
RTVSPropertyOp58
 70
     1
102
RTVSPropertyOp59
 70
     1
102
RTVSPropertyOp60
 70
     1
102
RTVSPropertyOp61
 70
     1
102
RTVSPropertyOp62
 70
     1
  0
XRECORD
  5
1690
102
{ACAD_REACTORS
330
168F
102
}
330
168F
100
AcDbXrecord
280
     1
102
RTVSPost2010Prop28
280
     0
102
RTVSPost2010PropOp28
 70
     1
102
RTVSPost2010Prop29
280
     1
102
RTVSPost2010PropOp29
 70
     1
102
RTVSPost2010Prop30
280
     1
102
RTVSPost2010PropOp30
 70
     1
102
RTVSPost2010Prop31
280
     0
102
RTVSPost2010PropOp31
 70
     1
102
RTVSPost2010Prop32
280
     0
102
RTVSPost2010PropOp32
 70
     1
102
RTVSPost2010Prop33
280
     0
102
RTVSPost2010PropOp33
 70
     1
102
RTVSPost2010Prop34
280
     0
102
RTVSPost2010PropOp34
 70
     1
102
RTVSPost2010Prop35
280
     0
102
RTVSPost2010PropOp35
 70
     1
102
RTVSPost2010Prop36
280
     0
102
RTVSPost2010PropOp36
 70
     1
102
RTVSPost2010Prop37
 90
       50
102
RTVSPost2010PropOp37
 70
     1
102
RTVSPost2010Prop38
140
0.0
102
RTVSPost2010PropOp38
 70
     1
102
RTVSPost2010Prop39
140
1.0
102
RTVSPost2010PropOp39
 70
     1
102
RTVSPost2010Prop40
 90
        0
102
RTVSPost2010PropOp40
 70
     1
102
RTVSPost2010Prop41ColorIndex
 90
       18
102
RTVSPost2010Prop41ColorRGB
 90
        0
102
RTVSPost2010PropOp41
 70
     1
102
RTVSPost2010Prop42
 90
       50
102
RTVSPost2010PropOp42
 70
     1
102
RTVSPost2010Prop43
 90
        3
102
RTVSPost2010PropOp43
 70
     1
102
RTVSPost2010Prop44ColorIndex
 90
        5
102
RTVSPost2010Prop44ColorRGB
 90
      255
102
RTVSPost2010PropOp44
 70
     1
102
RTVSPost2010Prop45
280
     0
102
RTVSPost2010PropOp45
 70
     1
102
RTVSPost2010Prop46
 90
       50
102
RTVSPost2010PropOp46
 70
     1
102
RTVSPost2010Prop47
 90
       50
102
RTVSPost2010PropOp47
 70
     1
102
RTVSPost2010Prop48
 90
       50
102
RTVSPost2010PropOp48
 70
     1
102
RTVSPost2010Prop49
280
     0
102
RTVSPost2010PropOp49
 70
     1
102
RTVSPost2010Prop50
 90
       50
102
RTVSPost2010PropOp50
 70
     1
102
RTVSPost2010Prop51ColorIndex
 90
      256
102
RTVSPost2010Prop51ColorRGB
 90
-16777216
102
RTVSPost2010PropOp51
 70
     0
102
RTVSPost2010Prop52
140
1.0
102
RTVSPost2010PropOp52
 70
     0
102
RTVSPost2010Prop53
 90
        2
102
RTVSPost2010PropOp53
 70
     1
102
RTVSPost2010Prop54
  1
strokes_ogs.tif
102
RTVSPost2010PropOp54
 70
     1
102
RTVSPost2010Prop55
280
     0
102
RTVSPost2010PropOp55
 70
     1
102
RTVSPost2010Prop56
140
1.0
102
RTVSPost2010PropOp56
 70
     1
102
RTVSPost2010Prop57
140
1.0
102
RTVSPost2010PropOp57
 70
     1
102
RTVSPropertyOp0
 70
     1
102
RTVSPropertyOp1
 70
     1
102
RTVSPropertyOp2
 70
     1
102
RTVSPropertyOp3
 70
     1
102
RTVSPropertyOp4
 70
     1
102
RTVSPropertyOp5
 70
     1
102
RTVSPropertyOp6
 70
     1
102
RTVSPropertyOp7
 70
     1
102
RTVSPropertyOp8
 70
     1
102
RTVSPropertyOp9
 70
     1
102
RTVSPropertyOp10
 70
     1
102
RTVSPropertyOp11
 70
     1
102
RTVSPropertyOp12
 70
     1
102
RTVSPropertyOp13
 70
     1
102
RTVSPropertyOp14
 70
     1
102
RTVSPropertyOp15
 70
     1
102
RTVSPropertyOp16
 70
     1
102
RTVSPropertyOp17
 70
     1
102
RTVSPropertyOp18
 70
     1
102
RTVSPropertyOp19
 70
     1
102
RTVSPropertyOp20
 70
     1
102
RTVSPropertyOp21
 70
     1
102
RTVSPropertyOp22
 70
     1
102
RTVSPropertyOp23
 70
     1
102
RTVSPropertyOp24
 70
     1
102
RTVSPropertyOp25
 70
     1
102
RTVSPropertyOp26
 70
     1
102
RTVSPropertyOp27
 70
     1
102
RTVSPropertyOp28
 70
     1
102
RTVSPropertyOp29
 70
     1
102
RTVSPropertyOp30
 70
     1
102
RTVSPropertyOp31
 70
     1
102
RTVSPropertyOp32
 70
     1
102
RTVSPropertyOp33
 70
     1
102
RTVSPropertyOp34
 70
     1
102
RTVSPropertyOp35
 70
     1
102
RTVSPropertyOp36
 70
     1
102
RTVSPropertyOp37
 70
     1
102
RTVSPropertyOp38
 70
     1
102
RTVSPropertyOp39
 70
     1
102
RTVSPropertyOp40
 70
     1
102
RTVSPropertyOp41
 70
     1
102
RTVSPropertyOp42
 70
     1
102
RTVSPropertyOp43
 70
     1
102
RTVSPropertyOp44
 70
     1
102
RTVSPropertyOp45
 70
     1
102
RTVSPropertyOp46
 70
     1
102
RTVSPropertyOp47
 70
     1
102
RTVSPropertyOp48
 70
     1
102
RTVSPropertyOp49
 70
     1
102
RTVSPropertyOp50
 70
     1
102
RTVSPropertyOp51
 70
     0
102
RTVSPropertyOp52
 70
     0
102
RTVSPropertyOp53
 70
     1
102
RTVSPropertyOp54
 70
     1
102
RTVSPropertyOp55
 70
     1
102
RTVSPropertyOp56
 70
     1
102
RTVSPropertyOp57
 70
     1
102
RTVSPropertyOp58
 70
     1
102
RTVSPropertyOp59
 70
     1
102
RTVSPropertyOp60
 70
     1
102
RTVSPropertyOp61
 70
     1
102
RTVSPropertyOp62
 70
     1
  0
XRECORD
  5
169E
102
{ACAD_REACTORS
330
169D
102
}
330
169D
100
AcDbXrecord
280
     1
102
RTVSPost2010Prop28
280
     0
102
RTVSPost2010PropOp28
 70
     1
102
RTVSPost2010Prop29
280
     1
102
RTVSPost2010PropOp29
 70
     1
102
RTVSPost2010Prop30
280
     1
102
RTVSPost2010PropOp30
 70
     1
102
RTVSPost2010Prop31
280
     0
102
RTVSPost2010PropOp31
 70
     1
102
RTVSPost2010Prop32
280
     0
102
RTVSPost2010PropOp32
 70
     1
102
RTVSPost2010Prop33
280
     0
102
RTVSPost2010PropOp33
 70
     1
102
RTVSPost2010Prop34
280
     0
102
RTVSPost2010PropOp34
 70
     1
102
RTVSPost2010Prop35
280
     0
102
RTVSPost2010PropOp35
 70
     1
102
RTVSPost2010Prop36
280
     0
102
RTVSPost2010PropOp36
 70
     1
102
RTVSPost2010Prop37
 90
       50
102
RTVSPost2010PropOp37
 70
     1
102
RTVSPost2010Prop38
140
0.0
102
RTVSPost2010PropOp38
 70
     1
102
RTVSPost2010Prop39
140
1.0
102
RTVSPost2010PropOp39
 70
     1
102
RTVSPost2010Prop40
 90
        0
102
RTVSPost2010PropOp40
 70
     1
102
RTVSPost2010Prop41ColorIndex
 90
       18
102
RTVSPost2010Prop41ColorRGB
 90
        0
102
RTVSPost2010PropOp41
 70
     1
102
RTVSPost2010Prop42
 90
       50
102
RTVSPost2010PropOp42
 70
     1
102
RTVSPost2010Prop43
 90
        3
102
RTVSPost2010PropOp43
 70
     1
102
RTVSPost2010Prop44ColorIndex
 90
        5
102
RTVSPost2010Prop44ColorRGB
 90
      255
102
RTVSPost2010PropOp44
 70
     1
102
RTVSPost2010Prop45
280
     0
102
RTVSPost2010PropOp45
 70
     1
102
RTVSPost2010Prop46
 90
       50
102
RTVSPost2010PropOp46
 70
     1
102
RTVSPost2010Prop47
 90
       50
102
RTVSPost2010PropOp47
 70
     1
102
RTVSPost2010Prop48
 90
       50
102
RTVSPost2010PropOp48
 70
     1
102
RTVSPost2010Prop49
280
     0
102
RTVSPost2010PropOp49
 70
     1
102
RTVSPost2010Prop50
 90
       50
102
RTVSPost2010PropOp50
 70
     1
102
RTVSPost2010Prop51ColorIndex
 90
      256
102
RTVSPost2010Prop51ColorRGB
 90
-16777216
102
RTVSPost2010PropOp51
 70
     0
102
RTVSPost2010Prop52
140
1.0
102
RTVSPost2010PropOp52
 70
     0
102
RTVSPost2010Prop53
 90
        2
102
RTVSPost2010PropOp53
 70
     1
102
RTVSPost2010Prop54
  1
strokes_ogs.tif
102
RTVSPost2010PropOp54
 70
     1
102
RTVSPost2010Prop55
280
     0
102
RTVSPost2010PropOp55
 70
     1
102
RTVSPost2010Prop56
140
1.0
102
RTVSPost2010PropOp56
 70
     1
102
RTVSPost2010Prop57
140
1.0
102
RTVSPost2010PropOp57
 70
     1
102
RTVSPropertyOp0
 70
     1
102
RTVSPropertyOp1
 70
     1
102
RTVSPropertyOp2
 70
     1
102
RTVSPropertyOp3
 70
     1
102
RTVSPropertyOp4
 70
     1
102
RTVSPropertyOp5
 70
     1
102
RTVSPropertyOp6
 70
     1
102
RTVSPropertyOp7
 70
     1
102
RTVSPropertyOp8
 70
     1
102
RTVSPropertyOp9
 70
     1
102
RTVSPropertyOp10
 70
     1
102
RTVSPropertyOp11
 70
     1
102
RTVSPropertyOp12
 70
     1
102
RTVSPropertyOp13
 70
     1
102
RTVSPropertyOp14
 70
     1
102
RTVSPropertyOp15
 70
     1
102
RTVSPropertyOp16
 70
     1
102
RTVSPropertyOp17
 70
     1
102
RTVSPropertyOp18
 70
     1
102
RTVSPropertyOp19
 70
     1
102
RTVSPropertyOp20
 70
     1
102
RTVSPropertyOp21
 70
     1
102
RTVSPropertyOp22
 70
     1
102
RTVSPropertyOp23
 70
     1
102
RTVSPropertyOp24
 70
     1
102
RTVSPropertyOp25
 70
     1
102
RTVSPropertyOp26
 70
     1
102
RTVSPropertyOp27
 70
     1
102
RTVSPropertyOp28
 70
     1
102
RTVSPropertyOp29
 70
     1
102
RTVSPropertyOp30
 70
     1
102
RTVSPropertyOp31
 70
     1
102
RTVSPropertyOp32
 70
     1
102
RTVSPropertyOp33
 70
     1
102
RTVSPropertyOp34
 70
     1
102
RTVSPropertyOp35
 70
     1
102
RTVSPropertyOp36
 70
     1
102
RTVSPropertyOp37
 70
     1
102
RTVSPropertyOp38
 70
     1
102
RTVSPropertyOp39
 70
     1
102
RTVSPropertyOp40
 70
     1
102
RTVSPropertyOp41
 70
     1
102
RTVSPropertyOp42
 70
     1
102
RTVSPropertyOp43
 70
     1
102
RTVSPropertyOp44
 70
     1
102
RTVSPropertyOp45
 70
     1
102
RTVSPropertyOp46
 70
     1
102
RTVSPropertyOp47
 70
     1
102
RTVSPropertyOp48
 70
     1
102
RTVSPropertyOp49
 70
     1
102
RTVSPropertyOp50
 70
     1
102
RTVSPropertyOp51
 70
     0
102
RTVSPropertyOp52
 70
     0
102
RTVSPropertyOp53
 70
     1
102
RTVSPropertyOp54
 70
     1
102
RTVSPropertyOp55
 70
     1
102
RTVSPropertyOp56
 70
     1
102
RTVSPropertyOp57
 70
     1
102
RTVSPropertyOp58
 70
     1
102
RTVSPropertyOp59
 70
     1
102
RTVSPropertyOp60
 70
     1
102
RTVSPropertyOp61
 70
     1
102
RTVSPropertyOp62
 70
     1
  0
XRECORD
  5
16A6
102
{ACAD_REACTORS
330
16A5
102
}
330
16A5
100
AcDbXrecord
280
     1
102
RTVSPost2010Prop28
280
     0
102
RTVSPost2010PropOp28
 70
     1
102
RTVSPost2010Prop29
280
     1
102
RTVSPost2010PropOp29
 70
     1
102
RTVSPost2010Prop30
280
     1
102
RTVSPost2010PropOp30
 70
     1
102
RTVSPost2010Prop31
280
     0
102
RTVSPost2010PropOp31
 70
     1
102
RTVSPost2010Prop32
280
     0
102
RTVSPost2010PropOp32
 70
     1
102
RTVSPost2010Prop33
280
     0
102
RTVSPost2010PropOp33
 70
     1
102
RTVSPost2010Prop34
280
     0
102
RTVSPost2010PropOp34
 70
     1
102
RTVSPost2010Prop35
280
     0
102
RTVSPost2010PropOp35
 70
     1
102
RTVSPost2010Prop36
280
     0
102
RTVSPost2010PropOp36
 70
     1
102
RTVSPost2010Prop37
 90
       50
102
RTVSPost2010PropOp37
 70
     1
102
RTVSPost2010Prop38
140
0.0
102
RTVSPost2010PropOp38
 70
     1
102
RTVSPost2010Prop39
140
1.0
102
RTVSPost2010PropOp39
 70
     1
102
RTVSPost2010Prop40
 90
        0
102
RTVSPost2010PropOp40
 70
     1
102
RTVSPost2010Prop41ColorIndex
 90
       18
102
RTVSPost2010Prop41ColorRGB
 90
        0
102
RTVSPost2010PropOp41
 70
     1
102
RTVSPost2010Prop42
 90
       50
102
RTVSPost2010PropOp42
 70
     1
102
RTVSPost2010Prop43
 90
        3
102
RTVSPost2010PropOp43
 70
     1
102
RTVSPost2010Prop44ColorIndex
 90
        5
102
RTVSPost2010Prop44ColorRGB
 90
      255
102
RTVSPost2010PropOp44
 70
     1
102
RTVSPost2010Prop45
280
     0
102
RTVSPost2010PropOp45
 70
     1
102
RTVSPost2010Prop46
 90
       50
102
RTVSPost2010PropOp46
 70
     1
102
RTVSPost2010Prop47
 90
       50
102
RTVSPost2010PropOp47
 70
     1
102
RTVSPost2010Prop48
 90
       50
102
RTVSPost2010PropOp48
 70
     1
102
RTVSPost2010Prop49
280
     0
102
RTVSPost2010PropOp49
 70
     1
102
RTVSPost2010Prop50
 90
       50
102
RTVSPost2010PropOp50
 70
     1
102
RTVSPost2010Prop51ColorIndex
 90
      256
102
RTVSPost2010Prop51ColorRGB
 90
-16777216
102
RTVSPost2010PropOp51
 70
     0
102
RTVSPost2010Prop52
140
1.0
102
RTVSPost2010PropOp52
 70
     0
102
RTVSPost2010Prop53
 90
        2
102
RTVSPost2010PropOp53
 70
     1
102
RTVSPost2010Prop54
  1
strokes_ogs.tif
102
RTVSPost2010PropOp54
 70
     1
102
RTVSPost2010Prop55
280
     0
102
RTVSPost2010PropOp55
 70
     1
102
RTVSPost2010Prop56
140
1.0
102
RTVSPost2010PropOp56
 70
     1
102
RTVSPost2010Prop57
140
1.0
102
RTVSPost2010PropOp57
 70
     1
102
RTVSPropertyOp0
 70
     1
102
RTVSPropertyOp1
 70
     1
102
RTVSPropertyOp2
 70
     1
102
RTVSPropertyOp3
 70
     1
102
RTVSPropertyOp4
 70
     1
102
RTVSPropertyOp5
 70
     1
102
RTVSPropertyOp6
 70
     1
102
RTVSPropertyOp7
 70
     1
102
RTVSPropertyOp8
 70
     1
102
RTVSPropertyOp9
 70
     1
102
RTVSPropertyOp10
 70
     1
102
RTVSPropertyOp11
 70
     1
102
RTVSPropertyOp12
 70
     1
102
RTVSPropertyOp13
 70
     1
102
RTVSPropertyOp14
 70
     1
102
RTVSPropertyOp15
 70
     1
102
RTVSPropertyOp16
 70
     1
102
RTVSPropertyOp17
 70
     1
102
RTVSPropertyOp18
 70
     1
102
RTVSPropertyOp19
 70
     1
102
RTVSPropertyOp20
 70
     1
102
RTVSPropertyOp21
 70
     1
102
RTVSPropertyOp22
 70
     1
102
RTVSPropertyOp23
 70
     1
102
RTVSPropertyOp24
 70
     1
102
RTVSPropertyOp25
 70
     1
102
RTVSPropertyOp26
 70
     1
102
RTVSPropertyOp27
 70
     1
102
RTVSPropertyOp28
 70
     1
102
RTVSPropertyOp29
 70
     1
102
RTVSPropertyOp30
 70
     1
102
RTVSPropertyOp31
 70
     1
102
RTVSPropertyOp32
 70
     1
102
RTVSPropertyOp33
 70
     1
102
RTVSPropertyOp34
 70
     1
102
RTVSPropertyOp35
 70
     1
102
RTVSPropertyOp36
 70
     1
102
RTVSPropertyOp37
 70
     1
102
RTVSPropertyOp38
 70
     1
102
RTVSPropertyOp39
 70
     1
102
RTVSPropertyOp40
 70
     1
102
RTVSPropertyOp41
 70
     1
102
RTVSPropertyOp42
 70
     1
102
RTVSPropertyOp43
 70
     1
102
RTVSPropertyOp44
 70
     1
102
RTVSPropertyOp45
 70
     1
102
RTVSPropertyOp46
 70
     1
102
RTVSPropertyOp47
 70
     1
102
RTVSPropertyOp48
 70
     1
102
RTVSPropertyOp49
 70
     1
102
RTVSPropertyOp50
 70
     1
102
RTVSPropertyOp51
 70
     0
102
RTVSPropertyOp52
 70
     0
102
RTVSPropertyOp53
 70
     1
102
RTVSPropertyOp54
 70
     1
102
RTVSPropertyOp55
 70
     1
102
RTVSPropertyOp56
 70
     1
102
RTVSPropertyOp57
 70
     1
102
RTVSPropertyOp58
 70
     1
102
RTVSPropertyOp59
 70
     1
102
RTVSPropertyOp60
 70
     1
102
RTVSPropertyOp61
 70
     1
102
RTVSPropertyOp62
 70
     1
  0
XRECORD
  5
1698
102
{ACAD_REACTORS
330
1697
102
}
330
1697
100
AcDbXrecord
280
     1
102
RTVSPost2010Prop28
280
     0
102
RTVSPost2010PropOp28
 70
     1
102
RTVSPost2010Prop29
280
     1
102
RTVSPost2010PropOp29
 70
     1
102
RTVSPost2010Prop30
280
     1
102
RTVSPost2010PropOp30
 70
     1
102
RTVSPost2010Prop31
280
     0
102
RTVSPost2010PropOp31
 70
     1
102
RTVSPost2010Prop32
280
     0
102
RTVSPost2010PropOp32
 70
     1
102
RTVSPost2010Prop33
280
     0
102
RTVSPost2010PropOp33
 70
     1
102
RTVSPost2010Prop34
280
     0
102
RTVSPost2010PropOp34
 70
     1
102
RTVSPost2010Prop35
280
     0
102
RTVSPost2010PropOp35
 70
     1
102
RTVSPost2010Prop36
280
     0
102
RTVSPost2010PropOp36
 70
     1
102
RTVSPost2010Prop37
 90
       50
102
RTVSPost2010PropOp37
 70
     1
102
RTVSPost2010Prop38
140
0.0
102
RTVSPost2010PropOp38
 70
     1
102
RTVSPost2010Prop39
140
1.0
102
RTVSPost2010PropOp39
 70
     1
102
RTVSPost2010Prop40
 90
        0
102
RTVSPost2010PropOp40
 70
     1
102
RTVSPost2010Prop41ColorIndex
 90
       18
102
RTVSPost2010Prop41ColorRGB
 90
        0
102
RTVSPost2010PropOp41
 70
     1
102
RTVSPost2010Prop42
 90
       50
102
RTVSPost2010PropOp42
 70
     1
102
RTVSPost2010Prop43
 90
        3
102
RTVSPost2010PropOp43
 70
     1
102
RTVSPost2010Prop44ColorIndex
 90
        5
102
RTVSPost2010Prop44ColorRGB
 90
      255
102
RTVSPost2010PropOp44
 70
     1
102
RTVSPost2010Prop45
280
     0
102
RTVSPost2010PropOp45
 70
     1
102
RTVSPost2010Prop46
 90
       50
102
RTVSPost2010PropOp46
 70
     1
102
RTVSPost2010Prop47
 90
       50
102
RTVSPost2010PropOp47
 70
     1
102
RTVSPost2010Prop48
 90
       50
102
RTVSPost2010PropOp48
 70
     1
102
RTVSPost2010Prop49
280
     0
102
RTVSPost2010PropOp49
 70
     1
102
RTVSPost2010Prop50
 90
       50
102
RTVSPost2010PropOp50
 70
     1
102
RTVSPost2010Prop51ColorIndex
 90
      256
102
RTVSPost2010Prop51ColorRGB
 90
-16777216
102
RTVSPost2010PropOp51
 70
     0
102
RTVSPost2010Prop52
140
1.0
102
RTVSPost2010PropOp52
 70
     0
102
RTVSPost2010Prop53
 90
        2
102
RTVSPost2010PropOp53
 70
     1
102
RTVSPost2010Prop54
  1
strokes_ogs.tif
102
RTVSPost2010PropOp54
 70
     1
102
RTVSPost2010Prop55
280
     0
102
RTVSPost2010PropOp55
 70
     1
102
RTVSPost2010Prop56
140
1.0
102
RTVSPost2010PropOp56
 70
     1
102
RTVSPost2010Prop57
140
1.0
102
RTVSPost2010PropOp57
 70
     1
102
RTVSPropertyOp0
 70
     1
102
RTVSPropertyOp1
 70
     1
102
RTVSPropertyOp2
 70
     1
102
RTVSPropertyOp3
 70
     1
102
RTVSPropertyOp4
 70
     1
102
RTVSPropertyOp5
 70
     1
102
RTVSPropertyOp6
 70
     1
102
RTVSPropertyOp7
 70
     1
102
RTVSPropertyOp8
 70
     1
102
RTVSPropertyOp9
 70
     1
102
RTVSPropertyOp10
 70
     1
102
RTVSPropertyOp11
 70
     1
102
RTVSPropertyOp12
 70
     1
102
RTVSPropertyOp13
 70
     1
102
RTVSPropertyOp14
 70
     1
102
RTVSPropertyOp15
 70
     1
102
RTVSPropertyOp16
 70
     1
102
RTVSPropertyOp17
 70
     1
102
RTVSPropertyOp18
 70
     1
102
RTVSPropertyOp19
 70
     1
102
RTVSPropertyOp20
 70
     1
102
RTVSPropertyOp21
 70
     1
102
RTVSPropertyOp22
 70
     1
102
RTVSPropertyOp23
 70
     1
102
RTVSPropertyOp24
 70
     1
102
RTVSPropertyOp25
 70
     1
102
RTVSPropertyOp26
 70
     1
102
RTVSPropertyOp27
 70
     1
102
RTVSPropertyOp28
 70
     1
102
RTVSPropertyOp29
 70
     1
102
RTVSPropertyOp30
 70
     1
102
RTVSPropertyOp31
 70
     1
102
RTVSPropertyOp32
 70
     1
102
RTVSPropertyOp33
 70
     1
102
RTVSPropertyOp34
 70
     1
102
RTVSPropertyOp35
 70
     1
102
RTVSPropertyOp36
 70
     1
102
RTVSPropertyOp37
 70
     1
102
RTVSPropertyOp38
 70
     1
102
RTVSPropertyOp39
 70
     1
102
RTVSPropertyOp40
 70
     1
102
RTVSPropertyOp41
 70
     1
102
RTVSPropertyOp42
 70
     1
102
RTVSPropertyOp43
 70
     1
102
RTVSPropertyOp44
 70
     1
102
RTVSPropertyOp45
 70
     1
102
RTVSPropertyOp46
 70
     1
102
RTVSPropertyOp47
 70
     1
102
RTVSPropertyOp48
 70
     1
102
RTVSPropertyOp49
 70
     1
102
RTVSPropertyOp50
 70
     1
102
RTVSPropertyOp51
 70
     0
102
RTVSPropertyOp52
 70
     0
102
RTVSPropertyOp53
 70
     1
102
RTVSPropertyOp54
 70
     1
102
RTVSPropertyOp55
 70
     1
102
RTVSPropertyOp56
 70
     1
102
RTVSPropertyOp57
 70
     1
102
RTVSPropertyOp58
 70
     1
102
RTVSPropertyOp59
 70
     1
102
RTVSPropertyOp60
 70
     1
102
RTVSPropertyOp61
 70
     1
102
RTVSPropertyOp62
 70
     1
  0
XRECORD
  5
169C
102
{ACAD_REACTORS
330
169B
102
}
330
169B
100
AcDbXrecord
280
     1
102
RTVSPost2010Prop28
280
     0
102
RTVSPost2010PropOp28
 70
     1
102
RTVSPost2010Prop29
280
     1
102
RTVSPost2010PropOp29
 70
     1
102
RTVSPost2010Prop30
280
     1
102
RTVSPost2010PropOp30
 70
     1
102
RTVSPost2010Prop31
280
     0
102
RTVSPost2010PropOp31
 70
     1
102
RTVSPost2010Prop32
280
     0
102
RTVSPost2010PropOp32
 70
     1
102
RTVSPost2010Prop33
280
     0
102
RTVSPost2010PropOp33
 70
     1
102
RTVSPost2010Prop34
280
     0
102
RTVSPost2010PropOp34
 70
     1
102
RTVSPost2010Prop35
280
     0
102
RTVSPost2010PropOp35
 70
     1
102
RTVSPost2010Prop36
280
     0
102
RTVSPost2010PropOp36
 70
     1
102
RTVSPost2010Prop37
 90
       50
102
RTVSPost2010PropOp37
 70
     1
102
RTVSPost2010Prop38
140
0.0
102
RTVSPost2010PropOp38
 70
     1
102
RTVSPost2010Prop39
140
1.0
102
RTVSPost2010PropOp39
 70
     1
102
RTVSPost2010Prop40
 90
        0
102
RTVSPost2010PropOp40
 70
     1
102
RTVSPost2010Prop41ColorIndex
 90
       18
102
RTVSPost2010Prop41ColorRGB
 90
        0
102
RTVSPost2010PropOp41
 70
     1
102
RTVSPost2010Prop42
 90
       50
102
RTVSPost2010PropOp42
 70
     1
102
RTVSPost2010Prop43
 90
        3
102
RTVSPost2010PropOp43
 70
     1
102
RTVSPost2010Prop44ColorIndex
 90
        5
102
RTVSPost2010Prop44ColorRGB
 90
      255
102
RTVSPost2010PropOp44
 70
     1
102
RTVSPost2010Prop45
280
     0
102
RTVSPost2010PropOp45
 70
     1
102
RTVSPost2010Prop46
 90
       50
102
RTVSPost2010PropOp46
 70
     1
102
RTVSPost2010Prop47
 90
       50
102
RTVSPost2010PropOp47
 70
     1
102
RTVSPost2010Prop48
 90
       50
102
RTVSPost2010PropOp48
 70
     1
102
RTVSPost2010Prop49
280
     0
102
RTVSPost2010PropOp49
 70
     1
102
RTVSPost2010Prop50
 90
       50
102
RTVSPost2010PropOp50
 70
     1
102
RTVSPost2010Prop51ColorIndex
 90
      256
102
RTVSPost2010Prop51ColorRGB
 90
-16777216
102
RTVSPost2010PropOp51
 70
     0
102
RTVSPost2010Prop52
140
1.0
102
RTVSPost2010PropOp52
 70
     0
102
RTVSPost2010Prop53
 90
        2
102
RTVSPost2010PropOp53
 70
     1
102
RTVSPost2010Prop54
  1
strokes_ogs.tif
102
RTVSPost2010PropOp54
 70
     1
102
RTVSPost2010Prop55
280
     0
102
RTVSPost2010PropOp55
 70
     1
102
RTVSPost2010Prop56
140
1.0
102
RTVSPost2010PropOp56
 70
     1
102
RTVSPost2010Prop57
140
1.0
102
RTVSPost2010PropOp57
 70
     1
102
RTVSPropertyOp0
 70
     1
102
RTVSPropertyOp1
 70
     1
102
RTVSPropertyOp2
 70
     1
102
RTVSPropertyOp3
 70
     1
102
RTVSPropertyOp4
 70
     1
102
RTVSPropertyOp5
 70
     1
102
RTVSPropertyOp6
 70
     1
102
RTVSPropertyOp7
 70
     1
102
RTVSPropertyOp8
 70
     1
102
RTVSPropertyOp9
 70
     1
102
RTVSPropertyOp10
 70
     1
102
RTVSPropertyOp11
 70
     1
102
RTVSPropertyOp12
 70
     1
102
RTVSPropertyOp13
 70
     1
102
RTVSPropertyOp14
 70
     1
102
RTVSPropertyOp15
 70
     1
102
RTVSPropertyOp16
 70
     1
102
RTVSPropertyOp17
 70
     1
102
RTVSPropertyOp18
 70
     1
102
RTVSPropertyOp19
 70
     1
102
RTVSPropertyOp20
 70
     1
102
RTVSPropertyOp21
 70
     1
102
RTVSPropertyOp22
 70
     1
102
RTVSPropertyOp23
 70
     1
102
RTVSPropertyOp24
 70
     1
102
RTVSPropertyOp25
 70
     1
102
RTVSPropertyOp26
 70
     1
102
RTVSPropertyOp27
 70
     1
102
RTVSPropertyOp28
 70
     1
102
RTVSPropertyOp29
 70
     1
102
RTVSPropertyOp30
 70
     1
102
RTVSPropertyOp31
 70
     1
102
RTVSPropertyOp32
 70
     1
102
RTVSPropertyOp33
 70
     1
102
RTVSPropertyOp34
 70
     1
102
RTVSPropertyOp35
 70
     1
102
RTVSPropertyOp36
 70
     1
102
RTVSPropertyOp37
 70
     1
102
RTVSPropertyOp38
 70
     1
102
RTVSPropertyOp39
 70
     1
102
RTVSPropertyOp40
 70
     1
102
RTVSPropertyOp41
 70
     1
102
RTVSPropertyOp42
 70
     1
102
RTVSPropertyOp43
 70
     1
102
RTVSPropertyOp44
 70
     1
102
RTVSPropertyOp45
 70
     1
102
RTVSPropertyOp46
 70
     1
102
RTVSPropertyOp47
 70
     1
102
RTVSPropertyOp48
 70
     1
102
RTVSPropertyOp49
 70
     1
102
RTVSPropertyOp50
 70
     1
102
RTVSPropertyOp51
 70
     0
102
RTVSPropertyOp52
 70
     0
102
RTVSPropertyOp53
 70
     1
102
RTVSPropertyOp54
 70
     1
102
RTVSPropertyOp55
 70
     1
102
RTVSPropertyOp56
 70
     1
102
RTVSPropertyOp57
 70
     1
102
RTVSPropertyOp58
 70
     1
102
RTVSPropertyOp59
 70
     1
102
RTVSPropertyOp60
 70
     1
102
RTVSPropertyOp61
 70
     1
102
RTVSPropertyOp62
 70
     1
  0
XRECORD
  5
16AE
102
{ACAD_REACTORS
330
16AD
102
}
330
16AD
100
AcDbXrecord
280
     1
102
RTVSPost2010Prop28
280
     0
102
RTVSPost2010PropOp28
 70
     1
102
RTVSPost2010Prop29
280
     1
102
RTVSPost2010PropOp29
 70
     1
102
RTVSPost2010Prop30
280
     1
102
RTVSPost2010PropOp30
 70
     1
102
RTVSPost2010Prop31
280
     0
102
RTVSPost2010PropOp31
 70
     1
102
RTVSPost2010Prop32
280
     0
102
RTVSPost2010PropOp32
 70
     1
102
RTVSPost2010Prop33
280
     0
102
RTVSPost2010PropOp33
 70
     1
102
RTVSPost2010Prop34
280
     0
102
RTVSPost2010PropOp34
 70
     1
102
RTVSPost2010Prop35
280
     0
102
RTVSPost2010PropOp35
 70
     1
102
RTVSPost2010Prop36
280
     0
102
RTVSPost2010PropOp36
 70
     1
102
RTVSPost2010Prop37
 90
       50
102
RTVSPost2010PropOp37
 70
     1
102
RTVSPost2010Prop38
140
0.0
102
RTVSPost2010PropOp38
 70
     1
102
RTVSPost2010Prop39
140
1.0
102
RTVSPost2010PropOp39
 70
     1
102
RTVSPost2010Prop40
 90
        0
102
RTVSPost2010PropOp40
 70
     1
102
RTVSPost2010Prop41ColorIndex
 90
       18
102
RTVSPost2010Prop41ColorRGB
 90
        0
102
RTVSPost2010PropOp41
 70
     1
102
RTVSPost2010Prop42
 90
       50
102
RTVSPost2010PropOp42
 70
     1
102
RTVSPost2010Prop43
 90
        3
102
RTVSPost2010PropOp43
 70
     1
102
RTVSPost2010Prop44ColorIndex
 90
        5
102
RTVSPost2010Prop44ColorRGB
 90
      255
102
RTVSPost2010PropOp44
 70
     1
102
RTVSPost2010Prop45
280
     0
102
RTVSPost2010PropOp45
 70
     1
102
RTVSPost2010Prop46
 90
       50
102
RTVSPost2010PropOp46
 70
     1
102
RTVSPost2010Prop47
 90
       50
102
RTVSPost2010PropOp47
 70
     1
102
RTVSPost2010Prop48
 90
       50
102
RTVSPost2010PropOp48
 70
     1
102
RTVSPost2010Prop49
280
     0
102
RTVSPost2010PropOp49
 70
     1
102
RTVSPost2010Prop50
 90
       50
102
RTVSPost2010PropOp50
 70
     1
102
RTVSPost2010Prop51ColorIndex
 90
      256
102
RTVSPost2010Prop51ColorRGB
 90
-16777216
102
RTVSPost2010PropOp51
 70
     0
102
RTVSPost2010Prop52
140
1.0
102
RTVSPost2010PropOp52
 70
     0
102
RTVSPost2010Prop53
 90
        2
102
RTVSPost2010PropOp53
 70
     1
102
RTVSPost2010Prop54
  1
strokes_ogs.tif
102
RTVSPost2010PropOp54
 70
     1
102
RTVSPost2010Prop55
280
     0
102
RTVSPost2010PropOp55
 70
     1
102
RTVSPost2010Prop56
140
1.0
102
RTVSPost2010PropOp56
 70
     1
102
RTVSPost2010Prop57
140
1.0
102
RTVSPost2010PropOp57
 70
     1
102
RTVSPropertyOp0
 70
     0
102
RTVSPropertyOp1
 70
     0
102
RTVSPropertyOp2
 70
     0
102
RTVSPropertyOp3
 70
     0
102
RTVSPropertyOp4
 70
     0
102
RTVSPropertyOp5
 70
     0
102
RTVSPropertyOp6
 70
     0
102
RTVSPropertyOp7
 70
     0
102
RTVSPropertyOp8
 70
     0
102
RTVSPropertyOp9
 70
     0
102
RTVSPropertyOp10
 70
     0
102
RTVSPropertyOp11
 70
     0
102
RTVSPropertyOp12
 70
     0
102
RTVSPropertyOp13
 70
     0
102
RTVSPropertyOp14
 70
     2
102
RTVSPropertyOp15
 70
     0
102
RTVSPropertyOp16
 70
     0
102
RTVSPropertyOp17
 70
     0
102
RTVSPropertyOp18
 70
     0
102
RTVSPropertyOp19
 70
     0
102
RTVSPropertyOp20
 70
     0
102
RTVSPropertyOp21
 70
     0
102
RTVSPropertyOp22
 70
     0
102
RTVSPropertyOp23
 70
     0
102
RTVSPropertyOp24
 70
     0
102
RTVSPropertyOp25
 70
     0
102
RTVSPropertyOp26
 70
     0
102
RTVSPropertyOp27
 70
     0
102
RTVSPropertyOp28
 70
     1
102
RTVSPropertyOp29
 70
     1
102
RTVSPropertyOp30
 70
     1
102
RTVSPropertyOp31
 70
     1
102
RTVSPropertyOp32
 70
     1
102
RTVSPropertyOp33
 70
     1
102
RTVSPropertyOp34
 70
     1
102
RTVSPropertyOp35
 70
     1
102
RTVSPropertyOp36
 70
     1
102
RTVSPropertyOp37
 70
     1
102
RTVSPropertyOp38
 70
     1
102
RTVSPropertyOp39
 70
     1
102
RTVSPropertyOp40
 70
     1
102
RTVSPropertyOp41
 70
     1
102
RTVSPropertyOp42
 70
     1
102
RTVSPropertyOp43
 70
     1
102
RTVSPropertyOp44
 70
     1
102
RTVSPropertyOp45
 70
     1
102
RTVSPropertyOp46
 70
     1
102
RTVSPropertyOp47
 70
     1
102
RTVSPropertyOp48
 70
     1
102
RTVSPropertyOp49
 70
     1
102
RTVSPropertyOp50
 70
     1
102
RTVSPropertyOp51
 70
     0
102
RTVSPropertyOp52
 70
     0
102
RTVSPropertyOp53
 70
     1
102
RTVSPropertyOp54
 70
     1
102
RTVSPropertyOp55
 70
     1
102
RTVSPropertyOp56
 70
     1
102
RTVSPropertyOp57
 70
     1
102
RTVSPropertyOp58
 70
     1
102
RTVSPropertyOp59
 70
     1
102
RTVSPropertyOp60
 70
     1
102
RTVSPropertyOp61
 70
     1
102
RTVSPropertyOp62
 70
     1
  0
XRECORD
  5
16A4
102
{ACAD_REACTORS
330
16A3
102
}
330
16A3
100
AcDbXrecord
280
     1
102
RTVSPost2010Prop28
280
     0
102
RTVSPost2010PropOp28
 70
     1
102
RTVSPost2010Prop29
280
     1
102
RTVSPost2010PropOp29
 70
     1
102
RTVSPost2010Prop30
280
     1
102
RTVSPost2010PropOp30
 70
     1
102
RTVSPost2010Prop31
280
     0
102
RTVSPost2010PropOp31
 70
     1
102
RTVSPost2010Prop32
280
     0
102
RTVSPost2010PropOp32
 70
     1
102
RTVSPost2010Prop33
280
     0
102
RTVSPost2010PropOp33
 70
     1
102
RTVSPost2010Prop34
280
     0
102
RTVSPost2010PropOp34
 70
     1
102
RTVSPost2010Prop35
280
     0
102
RTVSPost2010PropOp35
 70
     1
102
RTVSPost2010Prop36
280
     0
102
RTVSPost2010PropOp36
 70
     1
102
RTVSPost2010Prop37
 90
       50
102
RTVSPost2010PropOp37
 70
     1
102
RTVSPost2010Prop38
140
0.0
102
RTVSPost2010PropOp38
 70
     1
102
RTVSPost2010Prop39
140
1.0
102
RTVSPost2010PropOp39
 70
     1
102
RTVSPost2010Prop40
 90
        0
102
RTVSPost2010PropOp40
 70
     1
102
RTVSPost2010Prop41ColorIndex
 90
       18
102
RTVSPost2010Prop41ColorRGB
 90
        0
102
RTVSPost2010PropOp41
 70
     1
102
RTVSPost2010Prop42
 90
       50
102
RTVSPost2010PropOp42
 70
     1
102
RTVSPost2010Prop43
 90
        3
102
RTVSPost2010PropOp43
 70
     1
102
RTVSPost2010Prop44ColorIndex
 90
        5
102
RTVSPost2010Prop44ColorRGB
 90
      255
102
RTVSPost2010PropOp44
 70
     1
102
RTVSPost2010Prop45
280
     0
102
RTVSPost2010PropOp45
 70
     1
102
RTVSPost2010Prop46
 90
       50
102
RTVSPost2010PropOp46
 70
     1
102
RTVSPost2010Prop47
 90
       50
102
RTVSPost2010PropOp47
 70
     1
102
RTVSPost2010Prop48
 90
       50
102
RTVSPost2010PropOp48
 70
     1
102
RTVSPost2010Prop49
280
     0
102
RTVSPost2010PropOp49
 70
     1
102
RTVSPost2010Prop50
 90
       50
102
RTVSPost2010PropOp50
 70
     1
102
RTVSPost2010Prop51ColorIndex
 90
      256
102
RTVSPost2010Prop51ColorRGB
 90
-16777216
102
RTVSPost2010PropOp51
 70
     0
102
RTVSPost2010Prop52
140
1.0
102
RTVSPost2010PropOp52
 70
     0
102
RTVSPost2010Prop53
 90
        2
102
RTVSPost2010PropOp53
 70
     1
102
RTVSPost2010Prop54
  1
strokes_ogs.tif
102
RTVSPost2010PropOp54
 70
     1
102
RTVSPost2010Prop55
280
     0
102
RTVSPost2010PropOp55
 70
     1
102
RTVSPost2010Prop56
140
1.0
102
RTVSPost2010PropOp56
 70
     1
102
RTVSPost2010Prop57
140
1.0
102
RTVSPost2010PropOp57
 70
     1
102
RTVSPropertyOp0
 70
     1
102
RTVSPropertyOp1
 70
     1
102
RTVSPropertyOp2
 70
     1
102
RTVSPropertyOp3
 70
     1
102
RTVSPropertyOp4
 70
     1
102
RTVSPropertyOp5
 70
     1
102
RTVSPropertyOp6
 70
     1
102
RTVSPropertyOp7
 70
     1
102
RTVSPropertyOp8
 70
     1
102
RTVSPropertyOp9
 70
     1
102
RTVSPropertyOp10
 70
     1
102
RTVSPropertyOp11
 70
     1
102
RTVSPropertyOp12
 70
     1
102
RTVSPropertyOp13
 70
     1
102
RTVSPropertyOp14
 70
     1
102
RTVSPropertyOp15
 70
     1
102
RTVSPropertyOp16
 70
     1
102
RTVSPropertyOp17
 70
     1
102
RTVSPropertyOp18
 70
     1
102
RTVSPropertyOp19
 70
     1
102
RTVSPropertyOp20
 70
     1
102
RTVSPropertyOp21
 70
     1
102
RTVSPropertyOp22
 70
     1
102
RTVSPropertyOp23
 70
     1
102
RTVSPropertyOp24
 70
     1
102
RTVSPropertyOp25
 70
     1
102
RTVSPropertyOp26
 70
     1
102
RTVSPropertyOp27
 70
     1
102
RTVSPropertyOp28
 70
     1
102
RTVSPropertyOp29
 70
     1
102
RTVSPropertyOp30
 70
     1
102
RTVSPropertyOp31
 70
     1
102
RTVSPropertyOp32
 70
     1
102
RTVSPropertyOp33
 70
     1
102
RTVSPropertyOp34
 70
     1
102
RTVSPropertyOp35
 70
     1
102
RTVSPropertyOp36
 70
     1
102
RTVSPropertyOp37
 70
     1
102
RTVSPropertyOp38
 70
     1
102
RTVSPropertyOp39
 70
     1
102
RTVSPropertyOp40
 70
     1
102
RTVSPropertyOp41
 70
     1
102
RTVSPropertyOp42
 70
     1
102
RTVSPropertyOp43
 70
     1
102
RTVSPropertyOp44
 70
     1
102
RTVSPropertyOp45
 70
     1
102
RTVSPropertyOp46
 70
     1
102
RTVSPropertyOp47
 70
     1
102
RTVSPropertyOp48
 70
     1
102
RTVSPropertyOp49
 70
     1
102
RTVSPropertyOp50
 70
     1
102
RTVSPropertyOp51
 70
     0
102
RTVSPropertyOp52
 70
     0
102
RTVSPropertyOp53
 70
     1
102
RTVSPropertyOp54
 70
     1
102
RTVSPropertyOp55
 70
     1
102
RTVSPropertyOp56
 70
     1
102
RTVSPropertyOp57
 70
     1
102
RTVSPropertyOp58
 70
     1
102
RTVSPropertyOp59
 70
     1
102
RTVSPropertyOp60
 70
     1
102
RTVSPropertyOp61
 70
     1
102
RTVSPropertyOp62
 70
     1
  0
XRECORD
  5
1688
102
{ACAD_REACTORS
330
1687
102
}
330
1687
100
AcDbXrecord
280
     1
102
RTVSPost2010Prop28
280
     0
102
RTVSPost2010PropOp28
 70
     1
102
RTVSPost2010Prop29
280
     1
102
RTVSPost2010PropOp29
 70
     1
102
RTVSPost2010Prop30
280
     1
102
RTVSPost2010PropOp30
 70
     1
102
RTVSPost2010Prop31
280
     0
102
RTVSPost2010PropOp31
 70
     1
102
RTVSPost2010Prop32
280
     0
102
RTVSPost2010PropOp32
 70
     1
102
RTVSPost2010Prop33
280
     0
102
RTVSPost2010PropOp33
 70
     1
102
RTVSPost2010Prop34
280
     0
102
RTVSPost2010PropOp34
 70
     1
102
RTVSPost2010Prop35
280
     0
102
RTVSPost2010PropOp35
 70
     1
102
RTVSPost2010Prop36
280
     0
102
RTVSPost2010PropOp36
 70
     1
102
RTVSPost2010Prop37
 90
       50
102
RTVSPost2010PropOp37
 70
     1
102
RTVSPost2010Prop38
140
0.0
102
RTVSPost2010PropOp38
 70
     1
102
RTVSPost2010Prop39
140
1.0
102
RTVSPost2010PropOp39
 70
     1
102
RTVSPost2010Prop40
 90
        0
102
RTVSPost2010PropOp40
 70
     1
102
RTVSPost2010Prop41ColorIndex
 90
       18
102
RTVSPost2010Prop41ColorRGB
 90
        0
102
RTVSPost2010PropOp41
 70
     1
102
RTVSPost2010Prop42
 90
       50
102
RTVSPost2010PropOp42
 70
     1
102
RTVSPost2010Prop43
 90
        3
102
RTVSPost2010PropOp43
 70
     1
102
RTVSPost2010Prop44ColorIndex
 90
        5
102
RTVSPost2010Prop44ColorRGB
 90
      255
102
RTVSPost2010PropOp44
 70
     1
102
RTVSPost2010Prop45
280
     0
102
RTVSPost2010PropOp45
 70
     1
102
RTVSPost2010Prop46
 90
       50
102
RTVSPost2010PropOp46
 70
     1
102
RTVSPost2010Prop47
 90
       50
102
RTVSPost2010PropOp47
 70
     1
102
RTVSPost2010Prop48
 90
       50
102
RTVSPost2010PropOp48
 70
     1
102
RTVSPost2010Prop49
280
     0
102
RTVSPost2010PropOp49
 70
     1
102
RTVSPost2010Prop50
 90
       50
102
RTVSPost2010PropOp50
 70
     1
102
RTVSPost2010Prop51ColorIndex
 90
      256
102
RTVSPost2010Prop51ColorRGB
 90
-16777216
102
RTVSPost2010PropOp51
 70
     0
102
RTVSPost2010Prop52
140
1.0
102
RTVSPost2010PropOp52
 70
     0
102
RTVSPost2010Prop53
 90
        2
102
RTVSPost2010PropOp53
 70
     1
102
RTVSPost2010Prop54
  1
strokes_ogs.tif
102
RTVSPost2010PropOp54
 70
     1
102
RTVSPost2010Prop55
280
     0
102
RTVSPost2010PropOp55
 70
     1
102
RTVSPost2010Prop56
140
1.0
102
RTVSPost2010PropOp56
 70
     1
102
RTVSPost2010Prop57
140
1.0
102
RTVSPost2010PropOp57
 70
     1
102
RTVSPropertyOp0
 70
     1
102
RTVSPropertyOp1
 70
     1
102
RTVSPropertyOp2
 70
     1
102
RTVSPropertyOp3
 70
     1
102
RTVSPropertyOp4
 70
     1
102
RTVSPropertyOp5
 70
     1
102
RTVSPropertyOp6
 70
     1
102
RTVSPropertyOp7
 70
     1
102
RTVSPropertyOp8
 70
     1
102
RTVSPropertyOp9
 70
     1
102
RTVSPropertyOp10
 70
     1
102
RTVSPropertyOp11
 70
     1
102
RTVSPropertyOp12
 70
     1
102
RTVSPropertyOp13
 70
     1
102
RTVSPropertyOp14
 70
     1
102
RTVSPropertyOp15
 70
     1
102
RTVSPropertyOp16
 70
     1
102
RTVSPropertyOp17
 70
     1
102
RTVSPropertyOp18
 70
     1
102
RTVSPropertyOp19
 70
     1
102
RTVSPropertyOp20
 70
     1
102
RTVSPropertyOp21
 70
     1
102
RTVSPropertyOp22
 70
     1
102
RTVSPropertyOp23
 70
     1
102
RTVSPropertyOp24
 70
     1
102
RTVSPropertyOp25
 70
     1
102
RTVSPropertyOp26
 70
     1
102
RTVSPropertyOp27
 70
     1
102
RTVSPropertyOp28
 70
     1
102
RTVSPropertyOp29
 70
     1
102
RTVSPropertyOp30
 70
     1
102
RTVSPropertyOp31
 70
     1
102
RTVSPropertyOp32
 70
     1
102
RTVSPropertyOp33
 70
     1
102
RTVSPropertyOp34
 70
     1
102
RTVSPropertyOp35
 70
     1
102
RTVSPropertyOp36
 70
     1
102
RTVSPropertyOp37
 70
     1
102
RTVSPropertyOp38
 70
     1
102
RTVSPropertyOp39
 70
     1
102
RTVSPropertyOp40
 70
     1
102
RTVSPropertyOp41
 70
     1
102
RTVSPropertyOp42
 70
     1
102
RTVSPropertyOp43
 70
     1
102
RTVSPropertyOp44
 70
     1
102
RTVSPropertyOp45
 70
     1
102
RTVSPropertyOp46
 70
     1
102
RTVSPropertyOp47
 70
     1
102
RTVSPropertyOp48
 70
     1
102
RTVSPropertyOp49
 70
     1
102
RTVSPropertyOp50
 70
     1
102
RTVSPropertyOp51
 70
     0
102
RTVSPropertyOp52
 70
     0
102
RTVSPropertyOp53
 70
     1
102
RTVSPropertyOp54
 70
     1
102
RTVSPropertyOp55
 70
     1
102
RTVSPropertyOp56
 70
     1
102
RTVSPropertyOp57
 70
     1
102
RTVSPropertyOp58
 70
     1
102
RTVSPropertyOp59
 70
     1
102
RTVSPropertyOp60
 70
     1
102
RTVSPropertyOp61
 70
     1
102
RTVSPropertyOp62
 70
     1
  0
XRECORD
  5
168A
102
{ACAD_REACTORS
330
1689
102
}
330
1689
100
AcDbXrecord
280
     1
102
RTVSPost2010Prop28
280
     0
102
RTVSPost2010PropOp28
 70
     1
102
RTVSPost2010Prop29
280
     1
102
RTVSPost2010PropOp29
 70
     1
102
RTVSPost2010Prop30
280
     1
102
RTVSPost2010PropOp30
 70
     1
102
RTVSPost2010Prop31
280
     0
102
RTVSPost2010PropOp31
 70
     1
102
RTVSPost2010Prop32
280
     0
102
RTVSPost2010PropOp32
 70
     1
102
RTVSPost2010Prop33
280
     0
102
RTVSPost2010PropOp33
 70
     1
102
RTVSPost2010Prop34
280
     0
102
RTVSPost2010PropOp34
 70
     1
102
RTVSPost2010Prop35
280
     0
102
RTVSPost2010PropOp35
 70
     1
102
RTVSPost2010Prop36
280
     0
102
RTVSPost2010PropOp36
 70
     1
102
RTVSPost2010Prop37
 90
       50
102
RTVSPost2010PropOp37
 70
     1
102
RTVSPost2010Prop38
140
0.0
102
RTVSPost2010PropOp38
 70
     1
102
RTVSPost2010Prop39
140
1.0
102
RTVSPost2010PropOp39
 70
     1
102
RTVSPost2010Prop40
 90
        0
102
RTVSPost2010PropOp40
 70
     1
102
RTVSPost2010Prop41ColorIndex
 90
       18
102
RTVSPost2010Prop41ColorRGB
 90
        0
102
RTVSPost2010PropOp41
 70
     1
102
RTVSPost2010Prop42
 90
       50
102
RTVSPost2010PropOp42
 70
     1
102
RTVSPost2010Prop43
 90
        3
102
RTVSPost2010PropOp43
 70
     1
102
RTVSPost2010Prop44ColorIndex
 90
        5
102
RTVSPost2010Prop44ColorRGB
 90
      255
102
RTVSPost2010PropOp44
 70
     1
102
RTVSPost2010Prop45
280
     0
102
RTVSPost2010PropOp45
 70
     1
102
RTVSPost2010Prop46
 90
       50
102
RTVSPost2010PropOp46
 70
     1
102
RTVSPost2010Prop47
 90
       50
102
RTVSPost2010PropOp47
 70
     1
102
RTVSPost2010Prop48
 90
       50
102
RTVSPost2010PropOp48
 70
     1
102
RTVSPost2010Prop49
280
     0
102
RTVSPost2010PropOp49
 70
     1
102
RTVSPost2010Prop50
 90
       50
102
RTVSPost2010PropOp50
 70
     1
102
RTVSPost2010Prop51ColorIndex
 90
      256
102
RTVSPost2010Prop51ColorRGB
 90
-16777216
102
RTVSPost2010PropOp51
 70
     0
102
RTVSPost2010Prop52
140
1.0
102
RTVSPost2010PropOp52
 70
     0
102
RTVSPost2010Prop53
 90
        2
102
RTVSPost2010PropOp53
 70
     1
102
RTVSPost2010Prop54
  1
strokes_ogs.tif
102
RTVSPost2010PropOp54
 70
     1
102
RTVSPost2010Prop55
280
     0
102
RTVSPost2010PropOp55
 70
     1
102
RTVSPost2010Prop56
140
1.0
102
RTVSPost2010PropOp56
 70
     1
102
RTVSPost2010Prop57
140
1.0
102
RTVSPost2010PropOp57
 70
     1
102
RTVSPropertyOp0
 70
     1
102
RTVSPropertyOp1
 70
     1
102
RTVSPropertyOp2
 70
     1
102
RTVSPropertyOp3
 70
     1
102
RTVSPropertyOp4
 70
     1
102
RTVSPropertyOp5
 70
     1
102
RTVSPropertyOp6
 70
     1
102
RTVSPropertyOp7
 70
     1
102
RTVSPropertyOp8
 70
     1
102
RTVSPropertyOp9
 70
     1
102
RTVSPropertyOp10
 70
     1
102
RTVSPropertyOp11
 70
     1
102
RTVSPropertyOp12
 70
     1
102
RTVSPropertyOp13
 70
     1
102
RTVSPropertyOp14
 70
     1
102
RTVSPropertyOp15
 70
     1
102
RTVSPropertyOp16
 70
     1
102
RTVSPropertyOp17
 70
     1
102
RTVSPropertyOp18
 70
     1
102
RTVSPropertyOp19
 70
     1
102
RTVSPropertyOp20
 70
     1
102
RTVSPropertyOp21
 70
     1
102
RTVSPropertyOp22
 70
     1
102
RTVSPropertyOp23
 70
     1
102
RTVSPropertyOp24
 70
     1
102
RTVSPropertyOp25
 70
     1
102
RTVSPropertyOp26
 70
     1
102
RTVSPropertyOp27
 70
     1
102
RTVSPropertyOp28
 70
     1
102
RTVSPropertyOp29
 70
     1
102
RTVSPropertyOp30
 70
     1
102
RTVSPropertyOp31
 70
     1
102
RTVSPropertyOp32
 70
     1
102
RTVSPropertyOp33
 70
     1
102
RTVSPropertyOp34
 70
     1
102
RTVSPropertyOp35
 70
     1
102
RTVSPropertyOp36
 70
     1
102
RTVSPropertyOp37
 70
     1
102
RTVSPropertyOp38
 70
     1
102
RTVSPropertyOp39
 70
     1
102
RTVSPropertyOp40
 70
     1
102
RTVSPropertyOp41
 70
     1
102
RTVSPropertyOp42
 70
     1
102
RTVSPropertyOp43
 70
     1
102
RTVSPropertyOp44
 70
     1
102
RTVSPropertyOp45
 70
     1
102
RTVSPropertyOp46
 70
     1
102
RTVSPropertyOp47
 70
     1
102
RTVSPropertyOp48
 70
     1
102
RTVSPropertyOp49
 70
     1
102
RTVSPropertyOp50
 70
     1
102
RTVSPropertyOp51
 70
     0
102
RTVSPropertyOp52
 70
     0
102
RTVSPropertyOp53
 70
     1
102
RTVSPropertyOp54
 70
     1
102
RTVSPropertyOp55
 70
     1
102
RTVSPropertyOp56
 70
     1
102
RTVSPropertyOp57
 70
     1
102
RTVSPropertyOp58
 70
     1
102
RTVSPropertyOp59
 70
     1
102
RTVSPropertyOp60
 70
     1
102
RTVSPropertyOp61
 70
     1
102
RTVSPropertyOp62
 70
     1
  0
XRECORD
  5
168C
102
{ACAD_REACTORS
330
168B
102
}
330
168B
100
AcDbXrecord
280
     1
102
RTVSPost2010Prop28
280
     0
102
RTVSPost2010PropOp28
 70
     1
102
RTVSPost2010Prop29
280
     1
102
RTVSPost2010PropOp29
 70
     1
102
RTVSPost2010Prop30
280
     1
102
RTVSPost2010PropOp30
 70
     1
102
RTVSPost2010Prop31
280
     0
102
RTVSPost2010PropOp31
 70
     1
102
RTVSPost2010Prop32
280
     0
102
RTVSPost2010PropOp32
 70
     1
102
RTVSPost2010Prop33
280
     0
102
RTVSPost2010PropOp33
 70
     1
102
RTVSPost2010Prop34
280
     0
102
RTVSPost2010PropOp34
 70
     1
102
RTVSPost2010Prop35
280
     0
102
RTVSPost2010PropOp35
 70
     1
102
RTVSPost2010Prop36
280
     0
102
RTVSPost2010PropOp36
 70
     1
102
RTVSPost2010Prop37
 90
       50
102
RTVSPost2010PropOp37
 70
     1
102
RTVSPost2010Prop38
140
0.0
102
RTVSPost2010PropOp38
 70
     1
102
RTVSPost2010Prop39
140
1.0
102
RTVSPost2010PropOp39
 70
     1
102
RTVSPost2010Prop40
 90
        0
102
RTVSPost2010PropOp40
 70
     1
102
RTVSPost2010Prop41ColorIndex
 90
       18
102
RTVSPost2010Prop41ColorRGB
 90
        0
102
RTVSPost2010PropOp41
 70
     1
102
RTVSPost2010Prop42
 90
       50
102
RTVSPost2010PropOp42
 70
     1
102
RTVSPost2010Prop43
 90
        3
102
RTVSPost2010PropOp43
 70
     1
102
RTVSPost2010Prop44ColorIndex
 90
        5
102
RTVSPost2010Prop44ColorRGB
 90
      255
102
RTVSPost2010PropOp44
 70
     1
102
RTVSPost2010Prop45
280
     0
102
RTVSPost2010PropOp45
 70
     1
102
RTVSPost2010Prop46
 90
       50
102
RTVSPost2010PropOp46
 70
     1
102
RTVSPost2010Prop47
 90
       50
102
RTVSPost2010PropOp47
 70
     1
102
RTVSPost2010Prop48
 90
       50
102
RTVSPost2010PropOp48
 70
     1
102
RTVSPost2010Prop49
280
     0
102
RTVSPost2010PropOp49
 70
     1
102
RTVSPost2010Prop50
 90
       50
102
RTVSPost2010PropOp50
 70
     1
102
RTVSPost2010Prop51ColorIndex
 90
      256
102
RTVSPost2010Prop51ColorRGB
 90
-16777216
102
RTVSPost2010PropOp51
 70
     0
102
RTVSPost2010Prop52
140
1.0
102
RTVSPost2010PropOp52
 70
     0
102
RTVSPost2010Prop53
 90
        2
102
RTVSPost2010PropOp53
 70
     1
102
RTVSPost2010Prop54
  1
strokes_ogs.tif
102
RTVSPost2010PropOp54
 70
     1
102
RTVSPost2010Prop55
280
     0
102
RTVSPost2010PropOp55
 70
     1
102
RTVSPost2010Prop56
140
1.0
102
RTVSPost2010PropOp56
 70
     1
102
RTVSPost2010Prop57
140
1.0
102
RTVSPost2010PropOp57
 70
     1
102
RTVSPropertyOp0
 70
     1
102
RTVSPropertyOp1
 70
     1
102
RTVSPropertyOp2
 70
     1
102
RTVSPropertyOp3
 70
     1
102
RTVSPropertyOp4
 70
     1
102
RTVSPropertyOp5
 70
     1
102
RTVSPropertyOp6
 70
     1
102
RTVSPropertyOp7
 70
     1
102
RTVSPropertyOp8
 70
     1
102
RTVSPropertyOp9
 70
     1
102
RTVSPropertyOp10
 70
     1
102
RTVSPropertyOp11
 70
     1
102
RTVSPropertyOp12
 70
     1
102
RTVSPropertyOp13
 70
     1
102
RTVSPropertyOp14
 70
     1
102
RTVSPropertyOp15
 70
     1
102
RTVSPropertyOp16
 70
     1
102
RTVSPropertyOp17
 70
     1
102
RTVSPropertyOp18
 70
     1
102
RTVSPropertyOp19
 70
     1
102
RTVSPropertyOp20
 70
     1
102
RTVSPropertyOp21
 70
     1
102
RTVSPropertyOp22
 70
     1
102
RTVSPropertyOp23
 70
     1
102
RTVSPropertyOp24
 70
     1
102
RTVSPropertyOp25
 70
     1
102
RTVSPropertyOp26
 70
     1
102
RTVSPropertyOp27
 70
     1
102
RTVSPropertyOp28
 70
     1
102
RTVSPropertyOp29
 70
     1
102
RTVSPropertyOp30
 70
     1
102
RTVSPropertyOp31
 70
     1
102
RTVSPropertyOp32
 70
     1
102
RTVSPropertyOp33
 70
     1
102
RTVSPropertyOp34
 70
     1
102
RTVSPropertyOp35
 70
     1
102
RTVSPropertyOp36
 70
     1
102
RTVSPropertyOp37
 70
     1
102
RTVSPropertyOp38
 70
     1
102
RTVSPropertyOp39
 70
     1
102
RTVSPropertyOp40
 70
     1
102
RTVSPropertyOp41
 70
     1
102
RTVSPropertyOp42
 70
     1
102
RTVSPropertyOp43
 70
     1
102
RTVSPropertyOp44
 70
     1
102
RTVSPropertyOp45
 70
     1
102
RTVSPropertyOp46
 70
     1
102
RTVSPropertyOp47
 70
     1
102
RTVSPropertyOp48
 70
     1
102
RTVSPropertyOp49
 70
     1
102
RTVSPropertyOp50
 70
     1
102
RTVSPropertyOp51
 70
     0
102
RTVSPropertyOp52
 70
     0
102
RTVSPropertyOp53
 70
     1
102
RTVSPropertyOp54
 70
     1
102
RTVSPropertyOp55
 70
     1
102
RTVSPropertyOp56
 70
     1
102
RTVSPropertyOp57
 70
     1
102
RTVSPropertyOp58
 70
     1
102
RTVSPropertyOp59
 70
     1
102
RTVSPropertyOp60
 70
     1
102
RTVSPropertyOp61
 70
     1
102
RTVSPropertyOp62
 70
     1
  0
XRECORD
  5
168E
102
{ACAD_REACTORS
330
168D
102
}
330
168D
100
AcDbXrecord
280
     1
102
RTVSPost2010Prop28
280
     0
102
RTVSPost2010PropOp28
 70
     1
102
RTVSPost2010Prop29
280
     1
102
RTVSPost2010PropOp29
 70
     1
102
RTVSPost2010Prop30
280
     1
102
RTVSPost2010PropOp30
 70
     1
102
RTVSPost2010Prop31
280
     0
102
RTVSPost2010PropOp31
 70
     1
102
RTVSPost2010Prop32
280
     0
102
RTVSPost2010PropOp32
 70
     1
102
RTVSPost2010Prop33
280
     0
102
RTVSPost2010PropOp33
 70
     1
102
RTVSPost2010Prop34
280
     0
102
RTVSPost2010PropOp34
 70
     1
102
RTVSPost2010Prop35
280
     0
102
RTVSPost2010PropOp35
 70
     1
102
RTVSPost2010Prop36
280
     0
102
RTVSPost2010PropOp36
 70
     1
102
RTVSPost2010Prop37
 90
       50
102
RTVSPost2010PropOp37
 70
     1
102
RTVSPost2010Prop38
140
0.0
102
RTVSPost2010PropOp38
 70
     1
102
RTVSPost2010Prop39
140
1.0
102
RTVSPost2010PropOp39
 70
     1
102
RTVSPost2010Prop40
 90
        0
102
RTVSPost2010PropOp40
 70
     1
102
RTVSPost2010Prop41ColorIndex
 90
       18
102
RTVSPost2010Prop41ColorRGB
 90
        0
102
RTVSPost2010PropOp41
 70
     1
102
RTVSPost2010Prop42
 90
       50
102
RTVSPost2010PropOp42
 70
     1
102
RTVSPost2010Prop43
 90
        3
102
RTVSPost2010PropOp43
 70
     1
102
RTVSPost2010Prop44ColorIndex
 90
        5
102
RTVSPost2010Prop44ColorRGB
 90
      255
102
RTVSPost2010PropOp44
 70
     1
102
RTVSPost2010Prop45
280
     0
102
RTVSPost2010PropOp45
 70
     1
102
RTVSPost2010Prop46
 90
       50
102
RTVSPost2010PropOp46
 70
     1
102
RTVSPost2010Prop47
 90
       50
102
RTVSPost2010PropOp47
 70
     1
102
RTVSPost2010Prop48
 90
       50
102
RTVSPost2010PropOp48
 70
     1
102
RTVSPost2010Prop49
280
     0
102
RTVSPost2010PropOp49
 70
     1
102
RTVSPost2010Prop50
 90
       50
102
RTVSPost2010PropOp50
 70
     1
102
RTVSPost2010Prop51ColorIndex
 90
      256
102
RTVSPost2010Prop51ColorRGB
 90
-16777216
102
RTVSPost2010PropOp51
 70
     0
102
RTVSPost2010Prop52
140
1.0
102
RTVSPost2010PropOp52
 70
     0
102
RTVSPost2010Prop53
 90
        2
102
RTVSPost2010PropOp53
 70
     1
102
RTVSPost2010Prop54
  1
strokes_ogs.tif
102
RTVSPost2010PropOp54
 70
     1
102
RTVSPost2010Prop55
280
     0
102
RTVSPost2010PropOp55
 70
     1
102
RTVSPost2010Prop56
140
1.0
102
RTVSPost2010PropOp56
 70
     1
102
RTVSPost2010Prop57
140
1.0
102
RTVSPost2010PropOp57
 70
     1
102
RTVSPropertyOp0
 70
     1
102
RTVSPropertyOp1
 70
     1
102
RTVSPropertyOp2
 70
     1
102
RTVSPropertyOp3
 70
     1
102
RTVSPropertyOp4
 70
     1
102
RTVSPropertyOp5
 70
     1
102
RTVSPropertyOp6
 70
     1
102
RTVSPropertyOp7
 70
     1
102
RTVSPropertyOp8
 70
     1
102
RTVSPropertyOp9
 70
     1
102
RTVSPropertyOp10
 70
     1
102
RTVSPropertyOp11
 70
     1
102
RTVSPropertyOp12
 70
     1
102
RTVSPropertyOp13
 70
     1
102
RTVSPropertyOp14
 70
     1
102
RTVSPropertyOp15
 70
     1
102
RTVSPropertyOp16
 70
     1
102
RTVSPropertyOp17
 70
     1
102
RTVSPropertyOp18
 70
     1
102
RTVSPropertyOp19
 70
     1
102
RTVSPropertyOp20
 70
     1
102
RTVSPropertyOp21
 70
     1
102
RTVSPropertyOp22
 70
     1
102
RTVSPropertyOp23
 70
     1
102
RTVSPropertyOp24
 70
     1
102
RTVSPropertyOp25
 70
     1
102
RTVSPropertyOp26
 70
     1
102
RTVSPropertyOp27
 70
     1
102
RTVSPropertyOp28
 70
     1
102
RTVSPropertyOp29
 70
     1
102
RTVSPropertyOp30
 70
     1
102
RTVSPropertyOp31
 70
     1
102
RTVSPropertyOp32
 70
     1
102
RTVSPropertyOp33
 70
     1
102
RTVSPropertyOp34
 70
     1
102
RTVSPropertyOp35
 70
     1
102
RTVSPropertyOp36
 70
     1
102
RTVSPropertyOp37
 70
     1
102
RTVSPropertyOp38
 70
     1
102
RTVSPropertyOp39
 70
     1
102
RTVSPropertyOp40
 70
     1
102
RTVSPropertyOp41
 70
     1
102
RTVSPropertyOp42
 70
     1
102
RTVSPropertyOp43
 70
     1
102
RTVSPropertyOp44
 70
     1
102
RTVSPropertyOp45
 70
     1
102
RTVSPropertyOp46
 70
     1
102
RTVSPropertyOp47
 70
     1
102
RTVSPropertyOp48
 70
     1
102
RTVSPropertyOp49
 70
     1
102
RTVSPropertyOp50
 70
     1
102
RTVSPropertyOp51
 70
     0
102
RTVSPropertyOp52
 70
     0
102
RTVSPropertyOp53
 70
     1
102
RTVSPropertyOp54
 70
     1
102
RTVSPropertyOp55
 70
     1
102
RTVSPropertyOp56
 70
     1
102
RTVSPropertyOp57
 70
     1
102
RTVSPropertyOp58
 70
     1
102
RTVSPropertyOp59
 70
     1
102
RTVSPropertyOp60
 70
     1
102
RTVSPropertyOp61
 70
     1
102
RTVSPropertyOp62
 70
     1
  0
XRECORD
  5
1696
102
{ACAD_REACTORS
330
1695
102
}
330
1695
100
AcDbXrecord
280
     1
102
RTVSPost2010Prop28
280
     0
102
RTVSPost2010PropOp28
 70
     1
102
RTVSPost2010Prop29
280
     1
102
RTVSPost2010PropOp29
 70
     1
102
RTVSPost2010Prop30
280
     1
102
RTVSPost2010PropOp30
 70
     1
102
RTVSPost2010Prop31
280
     0
102
RTVSPost2010PropOp31
 70
     1
102
RTVSPost2010Prop32
280
     0
102
RTVSPost2010PropOp32
 70
     1
102
RTVSPost2010Prop33
280
     0
102
RTVSPost2010PropOp33
 70
     1
102
RTVSPost2010Prop34
280
     0
102
RTVSPost2010PropOp34
 70
     1
102
RTVSPost2010Prop35
280
     0
102
RTVSPost2010PropOp35
 70
     1
102
RTVSPost2010Prop36
280
     0
102
RTVSPost2010PropOp36
 70
     1
102
RTVSPost2010Prop37
 90
       50
102
RTVSPost2010PropOp37
 70
     1
102
RTVSPost2010Prop38
140
0.0
102
RTVSPost2010PropOp38
 70
     1
102
RTVSPost2010Prop39
140
1.0
102
RTVSPost2010PropOp39
 70
     1
102
RTVSPost2010Prop40
 90
        0
102
RTVSPost2010PropOp40
 70
     1
102
RTVSPost2010Prop41ColorIndex
 90
       18
102
RTVSPost2010Prop41ColorRGB
 90
        0
102
RTVSPost2010PropOp41
 70
     1
102
RTVSPost2010Prop42
 90
       50
102
RTVSPost2010PropOp42
 70
     1
102
RTVSPost2010Prop43
 90
        3
102
RTVSPost2010PropOp43
 70
     1
102
RTVSPost2010Prop44ColorIndex
 90
        5
102
RTVSPost2010Prop44ColorRGB
 90
      255
102
RTVSPost2010PropOp44
 70
     1
102
RTVSPost2010Prop45
280
     0
102
RTVSPost2010PropOp45
 70
     1
102
RTVSPost2010Prop46
 90
       50
102
RTVSPost2010PropOp46
 70
     1
102
RTVSPost2010Prop47
 90
       50
102
RTVSPost2010PropOp47
 70
     1
102
RTVSPost2010Prop48
 90
       50
102
RTVSPost2010PropOp48
 70
     1
102
RTVSPost2010Prop49
280
     0
102
RTVSPost2010PropOp49
 70
     1
102
RTVSPost2010Prop50
 90
       50
102
RTVSPost2010PropOp50
 70
     1
102
RTVSPost2010Prop51ColorIndex
 90
      256
102
RTVSPost2010Prop51ColorRGB
 90
-16777216
102
RTVSPost2010PropOp51
 70
     0
102
RTVSPost2010Prop52
140
1.0
102
RTVSPost2010PropOp52
 70
     0
102
RTVSPost2010Prop53
 90
        2
102
RTVSPost2010PropOp53
 70
     1
102
RTVSPost2010Prop54
  1
strokes_ogs.tif
102
RTVSPost2010PropOp54
 70
     1
102
RTVSPost2010Prop55
280
     0
102
RTVSPost2010PropOp55
 70
     1
102
RTVSPost2010Prop56
140
1.0
102
RTVSPost2010PropOp56
 70
     1
102
RTVSPost2010Prop57
140
1.0
102
RTVSPost2010PropOp57
 70
     1
102
RTVSPropertyOp0
 70
     1
102
RTVSPropertyOp1
 70
     1
102
RTVSPropertyOp2
 70
     1
102
RTVSPropertyOp3
 70
     1
102
RTVSPropertyOp4
 70
     1
102
RTVSPropertyOp5
 70
     1
102
RTVSPropertyOp6
 70
     1
102
RTVSPropertyOp7
 70
     1
102
RTVSPropertyOp8
 70
     1
102
RTVSPropertyOp9
 70
     1
102
RTVSPropertyOp10
 70
     1
102
RTVSPropertyOp11
 70
     1
102
RTVSPropertyOp12
 70
     1
102
RTVSPropertyOp13
 70
     1
102
RTVSPropertyOp14
 70
     1
102
RTVSPropertyOp15
 70
     1
102
RTVSPropertyOp16
 70
     1
102
RTVSPropertyOp17
 70
     1
102
RTVSPropertyOp18
 70
     1
102
RTVSPropertyOp19
 70
     1
102
RTVSPropertyOp20
 70
     1
102
RTVSPropertyOp21
 70
     1
102
RTVSPropertyOp22
 70
     1
102
RTVSPropertyOp23
 70
     1
102
RTVSPropertyOp24
 70
     1
102
RTVSPropertyOp25
 70
     1
102
RTVSPropertyOp26
 70
     1
102
RTVSPropertyOp27
 70
     1
102
RTVSPropertyOp28
 70
     1
102
RTVSPropertyOp29
 70
     1
102
RTVSPropertyOp30
 70
     1
102
RTVSPropertyOp31
 70
     1
102
RTVSPropertyOp32
 70
     1
102
RTVSPropertyOp33
 70
     1
102
RTVSPropertyOp34
 70
     1
102
RTVSPropertyOp35
 70
     1
102
RTVSPropertyOp36
 70
     1
102
RTVSPropertyOp37
 70
     1
102
RTVSPropertyOp38
 70
     1
102
RTVSPropertyOp39
 70
     1
102
RTVSPropertyOp40
 70
     1
102
RTVSPropertyOp41
 70
     1
102
RTVSPropertyOp42
 70
     1
102
RTVSPropertyOp43
 70
     1
102
RTVSPropertyOp44
 70
     1
102
RTVSPropertyOp45
 70
     1
102
RTVSPropertyOp46
 70
     1
102
RTVSPropertyOp47
 70
     1
102
RTVSPropertyOp48
 70
     1
102
RTVSPropertyOp49
 70
     1
102
RTVSPropertyOp50
 70
     1
102
RTVSPropertyOp51
 70
     0
102
RTVSPropertyOp52
 70
     0
102
RTVSPropertyOp53
 70
     1
102
RTVSPropertyOp54
 70
     1
102
RTVSPropertyOp55
 70
     1
102
RTVSPropertyOp56
 70
     1
102
RTVSPropertyOp57
 70
     1
102
RTVSPropertyOp58
 70
     1
102
RTVSPropertyOp59
 70
     1
102
RTVSPropertyOp60
 70
     1
102
RTVSPropertyOp61
 70
     1
102
RTVSPropertyOp62
 70
     1
  0
XRECORD
  5
16AA
102
{ACAD_REACTORS
330
16A9
102
}
330
16A9
100
AcDbXrecord
280
     1
102
RTVSPost2010Prop28
280
     0
102
RTVSPost2010PropOp28
 70
     1
102
RTVSPost2010Prop29
280
     1
102
RTVSPost2010PropOp29
 70
     1
102
RTVSPost2010Prop30
280
     1
102
RTVSPost2010PropOp30
 70
     1
102
RTVSPost2010Prop31
280
     0
102
RTVSPost2010PropOp31
 70
     1
102
RTVSPost2010Prop32
280
     0
102
RTVSPost2010PropOp32
 70
     1
102
RTVSPost2010Prop33
280
     0
102
RTVSPost2010PropOp33
 70
     1
102
RTVSPost2010Prop34
280
     0
102
RTVSPost2010PropOp34
 70
     1
102
RTVSPost2010Prop35
280
     0
102
RTVSPost2010PropOp35
 70
     1
102
RTVSPost2010Prop36
280
     0
102
RTVSPost2010PropOp36
 70
     1
102
RTVSPost2010Prop37
 90
       50
102
RTVSPost2010PropOp37
 70
     1
102
RTVSPost2010Prop38
140
0.0
102
RTVSPost2010PropOp38
 70
     1
102
RTVSPost2010Prop39
140
1.0
102
RTVSPost2010PropOp39
 70
     1
102
RTVSPost2010Prop40
 90
        0
102
RTVSPost2010PropOp40
 70
     1
102
RTVSPost2010Prop41ColorIndex
 90
       18
102
RTVSPost2010Prop41ColorRGB
 90
        0
102
RTVSPost2010PropOp41
 70
     1
102
RTVSPost2010Prop42
 90
       50
102
RTVSPost2010PropOp42
 70
     1
102
RTVSPost2010Prop43
 90
        3
102
RTVSPost2010PropOp43
 70
     1
102
RTVSPost2010Prop44ColorIndex
 90
        5
102
RTVSPost2010Prop44ColorRGB
 90
      255
102
RTVSPost2010PropOp44
 70
     1
102
RTVSPost2010Prop45
280
     0
102
RTVSPost2010PropOp45
 70
     1
102
RTVSPost2010Prop46
 90
       50
102
RTVSPost2010PropOp46
 70
     1
102
RTVSPost2010Prop47
 90
       50
102
RTVSPost2010PropOp47
 70
     1
102
RTVSPost2010Prop48
 90
       50
102
RTVSPost2010PropOp48
 70
     1
102
RTVSPost2010Prop49
280
     0
102
RTVSPost2010PropOp49
 70
     1
102
RTVSPost2010Prop50
 90
       50
102
RTVSPost2010PropOp50
 70
     1
102
RTVSPost2010Prop51ColorIndex
 90
      256
102
RTVSPost2010Prop51ColorRGB
 90
-16777216
102
RTVSPost2010PropOp51
 70
     0
102
RTVSPost2010Prop52
140
1.0
102
RTVSPost2010PropOp52
 70
     0
102
RTVSPost2010Prop53
 90
        2
102
RTVSPost2010PropOp53
 70
     1
102
RTVSPost2010Prop54
  1
strokes_ogs.tif
102
RTVSPost2010PropOp54
 70
     1
102
RTVSPost2010Prop55
280
     0
102
RTVSPost2010PropOp55
 70
     1
102
RTVSPost2010Prop56
140
1.0
102
RTVSPost2010PropOp56
 70
     1
102
RTVSPost2010Prop57
140
1.0
102
RTVSPost2010PropOp57
 70
     1
102
RTVSPropertyOp0
 70
     0
102
RTVSPropertyOp1
 70
     0
102
RTVSPropertyOp2
 70
     0
102
RTVSPropertyOp3
 70
     0
102
RTVSPropertyOp4
 70
     0
102
RTVSPropertyOp5
 70
     0
102
RTVSPropertyOp6
 70
     0
102
RTVSPropertyOp7
 70
     0
102
RTVSPropertyOp8
 70
     0
102
RTVSPropertyOp9
 70
     0
102
RTVSPropertyOp10
 70
     0
102
RTVSPropertyOp11
 70
     0
102
RTVSPropertyOp12
 70
     0
102
RTVSPropertyOp13
 70
     0
102
RTVSPropertyOp14
 70
     2
102
RTVSPropertyOp15
 70
     0
102
RTVSPropertyOp16
 70
     0
102
RTVSPropertyOp17
 70
     0
102
RTVSPropertyOp18
 70
     0
102
RTVSPropertyOp19
 70
     0
102
RTVSPropertyOp20
 70
     0
102
RTVSPropertyOp21
 70
     0
102
RTVSPropertyOp22
 70
     0
102
RTVSPropertyOp23
 70
     0
102
RTVSPropertyOp24
 70
     0
102
RTVSPropertyOp25
 70
     0
102
RTVSPropertyOp26
 70
     0
102
RTVSPropertyOp27
 70
     0
102
RTVSPropertyOp28
 70
     1
102
RTVSPropertyOp29
 70
     1
102
RTVSPropertyOp30
 70
     1
102
RTVSPropertyOp31
 70
     1
102
RTVSPropertyOp32
 70
     1
102
RTVSPropertyOp33
 70
     1
102
RTVSPropertyOp34
 70
     1
102
RTVSPropertyOp35
 70
     1
102
RTVSPropertyOp36
 70
     1
102
RTVSPropertyOp37
 70
     1
102
RTVSPropertyOp38
 70
     1
102
RTVSPropertyOp39
 70
     1
102
RTVSPropertyOp40
 70
     1
102
RTVSPropertyOp41
 70
     1
102
RTVSPropertyOp42
 70
     1
102
RTVSPropertyOp43
 70
     1
102
RTVSPropertyOp44
 70
     1
102
RTVSPropertyOp45
 70
     1
102
RTVSPropertyOp46
 70
     1
102
RTVSPropertyOp47
 70
     1
102
RTVSPropertyOp48
 70
     1
102
RTVSPropertyOp49
 70
     1
102
RTVSPropertyOp50
 70
     1
102
RTVSPropertyOp51
 70
     0
102
RTVSPropertyOp52
 70
     0
102
RTVSPropertyOp53
 70
     1
102
RTVSPropertyOp54
 70
     1
102
RTVSPropertyOp55
 70
     1
102
RTVSPropertyOp56
 70
     1
102
RTVSPropertyOp57
 70
     1
102
RTVSPropertyOp58
 70
     1
102
RTVSPropertyOp59
 70
     1
102
RTVSPropertyOp60
 70
     1
102
RTVSPropertyOp61
 70
     1
102
RTVSPropertyOp62
 70
     1
  0
XRECORD
  5
16A2
102
{ACAD_REACTORS
330
16A1
102
}
330
16A1
100
AcDbXrecord
280
     1
102
RTVSPost2010Prop28
280
     0
102
RTVSPost2010PropOp28
 70
     1
102
RTVSPost2010Prop29
280
     1
102
RTVSPost2010PropOp29
 70
     1
102
RTVSPost2010Prop30
280
     1
102
RTVSPost2010PropOp30
 70
     1
102
RTVSPost2010Prop31
280
     0
102
RTVSPost2010PropOp31
 70
     1
102
RTVSPost2010Prop32
280
     0
102
RTVSPost2010PropOp32
 70
     1
102
RTVSPost2010Prop33
280
     0
102
RTVSPost2010PropOp33
 70
     1
102
RTVSPost2010Prop34
280
     0
102
RTVSPost2010PropOp34
 70
     1
102
RTVSPost2010Prop35
280
     0
102
RTVSPost2010PropOp35
 70
     1
102
RTVSPost2010Prop36
280
     0
102
RTVSPost2010PropOp36
 70
     1
102
RTVSPost2010Prop37
 90
       50
102
RTVSPost2010PropOp37
 70
     1
102
RTVSPost2010Prop38
140
0.0
102
RTVSPost2010PropOp38
 70
     1
102
RTVSPost2010Prop39
140
1.0
102
RTVSPost2010PropOp39
 70
     1
102
RTVSPost2010Prop40
 90
        0
102
RTVSPost2010PropOp40
 70
     1
102
RTVSPost2010Prop41ColorIndex
 90
       18
102
RTVSPost2010Prop41ColorRGB
 90
        0
102
RTVSPost2010PropOp41
 70
     1
102
RTVSPost2010Prop42
 90
       50
102
RTVSPost2010PropOp42
 70
     1
102
RTVSPost2010Prop43
 90
        3
102
RTVSPost2010PropOp43
 70
     1
102
RTVSPost2010Prop44ColorIndex
 90
        5
102
RTVSPost2010Prop44ColorRGB
 90
      255
102
RTVSPost2010PropOp44
 70
     1
102
RTVSPost2010Prop45
280
     0
102
RTVSPost2010PropOp45
 70
     1
102
RTVSPost2010Prop46
 90
       50
102
RTVSPost2010PropOp46
 70
     1
102
RTVSPost2010Prop47
 90
       50
102
RTVSPost2010PropOp47
 70
     1
102
RTVSPost2010Prop48
 90
       50
102
RTVSPost2010PropOp48
 70
     1
102
RTVSPost2010Prop49
280
     0
102
RTVSPost2010PropOp49
 70
     1
102
RTVSPost2010Prop50
 90
       50
102
RTVSPost2010PropOp50
 70
     1
102
RTVSPost2010Prop51ColorIndex
 90
      256
102
RTVSPost2010Prop51ColorRGB
 90
-16777216
102
RTVSPost2010PropOp51
 70
     0
102
RTVSPost2010Prop52
140
1.0
102
RTVSPost2010PropOp52
 70
     0
102
RTVSPost2010Prop53
 90
        2
102
RTVSPost2010PropOp53
 70
     1
102
RTVSPost2010Prop54
  1
strokes_ogs.tif
102
RTVSPost2010PropOp54
 70
     1
102
RTVSPost2010Prop55
280
     0
102
RTVSPost2010PropOp55
 70
     1
102
RTVSPost2010Prop56
140
1.0
102
RTVSPost2010PropOp56
 70
     1
102
RTVSPost2010Prop57
140
1.0
102
RTVSPost2010PropOp57
 70
     1
102
RTVSPropertyOp0
 70
     1
102
RTVSPropertyOp1
 70
     1
102
RTVSPropertyOp2
 70
     1
102
RTVSPropertyOp3
 70
     1
102
RTVSPropertyOp4
 70
     1
102
RTVSPropertyOp5
 70
     1
102
RTVSPropertyOp6
 70
     1
102
RTVSPropertyOp7
 70
     1
102
RTVSPropertyOp8
 70
     1
102
RTVSPropertyOp9
 70
     1
102
RTVSPropertyOp10
 70
     1
102
RTVSPropertyOp11
 70
     1
102
RTVSPropertyOp12
 70
     1
102
RTVSPropertyOp13
 70
     1
102
RTVSPropertyOp14
 70
     1
102
RTVSPropertyOp15
 70
     1
102
RTVSPropertyOp16
 70
     1
102
RTVSPropertyOp17
 70
     1
102
RTVSPropertyOp18
 70
     1
102
RTVSPropertyOp19
 70
     1
102
RTVSPropertyOp20
 70
     1
102
RTVSPropertyOp21
 70
     1
102
RTVSPropertyOp22
 70
     1
102
RTVSPropertyOp23
 70
     1
102
RTVSPropertyOp24
 70
     1
102
RTVSPropertyOp25
 70
     1
102
RTVSPropertyOp26
 70
     1
102
RTVSPropertyOp27
 70
     1
102
RTVSPropertyOp28
 70
     1
102
RTVSPropertyOp29
 70
     1
102
RTVSPropertyOp30
 70
     1
102
RTVSPropertyOp31
 70
     1
102
RTVSPropertyOp32
 70
     1
102
RTVSPropertyOp33
 70
     1
102
RTVSPropertyOp34
 70
     1
102
RTVSPropertyOp35
 70
     1
102
RTVSPropertyOp36
 70
     1
102
RTVSPropertyOp37
 70
     1
102
RTVSPropertyOp38
 70
     1
102
RTVSPropertyOp39
 70
     1
102
RTVSPropertyOp40
 70
     1
102
RTVSPropertyOp41
 70
     1
102
RTVSPropertyOp42
 70
     1
102
RTVSPropertyOp43
 70
     1
102
RTVSPropertyOp44
 70
     1
102
RTVSPropertyOp45
 70
     1
102
RTVSPropertyOp46
 70
     1
102
RTVSPropertyOp47
 70
     1
102
RTVSPropertyOp48
 70
     1
102
RTVSPropertyOp49
 70
     1
102
RTVSPropertyOp50
 70
     1
102
RTVSPropertyOp51
 70
     0
102
RTVSPropertyOp52
 70
     0
102
RTVSPropertyOp53
 70
     1
102
RTVSPropertyOp54
 70
     1
102
RTVSPropertyOp55
 70
     1
102
RTVSPropertyOp56
 70
     1
102
RTVSPropertyOp57
 70
     1
102
RTVSPropertyOp58
 70
     1
102
RTVSPropertyOp59
 70
     1
102
RTVSPropertyOp60
 70
     1
102
RTVSPropertyOp61
 70
     1
102
RTVSPropertyOp62
 70
     1
  0
XRECORD
  5
16AC
102
{ACAD_REACTORS
330
16AB
102
}
330
16AB
100
AcDbXrecord
280
     1
102
RTVSPost2010Prop28
280
     0
102
RTVSPost2010PropOp28
 70
     1
102
RTVSPost2010Prop29
280
     1
102
RTVSPost2010PropOp29
 70
     1
102
RTVSPost2010Prop30
280
     1
102
RTVSPost2010PropOp30
 70
     1
102
RTVSPost2010Prop31
280
     0
102
RTVSPost2010PropOp31
 70
     1
102
RTVSPost2010Prop32
280
     0
102
RTVSPost2010PropOp32
 70
     1
102
RTVSPost2010Prop33
280
     0
102
RTVSPost2010PropOp33
 70
     1
102
RTVSPost2010Prop34
280
     0
102
RTVSPost2010PropOp34
 70
     1
102
RTVSPost2010Prop35
280
     0
102
RTVSPost2010PropOp35
 70
     1
102
RTVSPost2010Prop36
280
     0
102
RTVSPost2010PropOp36
 70
     1
102
RTVSPost2010Prop37
 90
       50
102
RTVSPost2010PropOp37
 70
     1
102
RTVSPost2010Prop38
140
0.0
102
RTVSPost2010PropOp38
 70
     1
102
RTVSPost2010Prop39
140
1.0
102
RTVSPost2010PropOp39
 70
     1
102
RTVSPost2010Prop40
 90
        0
102
RTVSPost2010PropOp40
 70
     1
102
RTVSPost2010Prop41ColorIndex
 90
       18
102
RTVSPost2010Prop41ColorRGB
 90
        0
102
RTVSPost2010PropOp41
 70
     1
102
RTVSPost2010Prop42
 90
       50
102
RTVSPost2010PropOp42
 70
     1
102
RTVSPost2010Prop43
 90
        3
102
RTVSPost2010PropOp43
 70
     1
102
RTVSPost2010Prop44ColorIndex
 90
        5
102
RTVSPost2010Prop44ColorRGB
 90
      255
102
RTVSPost2010PropOp44
 70
     1
102
RTVSPost2010Prop45
280
     0
102
RTVSPost2010PropOp45
 70
     1
102
RTVSPost2010Prop46
 90
       50
102
RTVSPost2010PropOp46
 70
     1
102
RTVSPost2010Prop47
 90
       50
102
RTVSPost2010PropOp47
 70
     1
102
RTVSPost2010Prop48
 90
       50
102
RTVSPost2010PropOp48
 70
     1
102
RTVSPost2010Prop49
280
     0
102
RTVSPost2010PropOp49
 70
     1
102
RTVSPost2010Prop50
 90
       50
102
RTVSPost2010PropOp50
 70
     1
102
RTVSPost2010Prop51ColorIndex
 90
      256
102
RTVSPost2010Prop51ColorRGB
 90
-16777216
102
RTVSPost2010PropOp51
 70
     0
102
RTVSPost2010Prop52
140
1.0
102
RTVSPost2010PropOp52
 70
     0
102
RTVSPost2010Prop53
 90
        2
102
RTVSPost2010PropOp53
 70
     1
102
RTVSPost2010Prop54
  1
strokes_ogs.tif
102
RTVSPost2010PropOp54
 70
     1
102
RTVSPost2010Prop55
280
     0
102
RTVSPost2010PropOp55
 70
     1
102
RTVSPost2010Prop56
140
1.0
102
RTVSPost2010PropOp56
 70
     1
102
RTVSPost2010Prop57
140
1.0
102
RTVSPost2010PropOp57
 70
     1
102
RTVSPropertyOp0
 70
     0
102
RTVSPropertyOp1
 70
     0
102
RTVSPropertyOp2
 70
     0
102
RTVSPropertyOp3
 70
     0
102
RTVSPropertyOp4
 70
     0
102
RTVSPropertyOp5
 70
     0
102
RTVSPropertyOp6
 70
     0
102
RTVSPropertyOp7
 70
     0
102
RTVSPropertyOp8
 70
     0
102
RTVSPropertyOp9
 70
     0
102
RTVSPropertyOp10
 70
     0
102
RTVSPropertyOp11
 70
     0
102
RTVSPropertyOp12
 70
     0
102
RTVSPropertyOp13
 70
     0
102
RTVSPropertyOp14
 70
     2
102
RTVSPropertyOp15
 70
     0
102
RTVSPropertyOp16
 70
     0
102
RTVSPropertyOp17
 70
     0
102
RTVSPropertyOp18
 70
     0
102
RTVSPropertyOp19
 70
     0
102
RTVSPropertyOp20
 70
     0
102
RTVSPropertyOp21
 70
     0
102
RTVSPropertyOp22
 70
     0
102
RTVSPropertyOp23
 70
     0
102
RTVSPropertyOp24
 70
     0
102
RTVSPropertyOp25
 70
     0
102
RTVSPropertyOp26
 70
     0
102
RTVSPropertyOp27
 70
     0
102
RTVSPropertyOp28
 70
     1
102
RTVSPropertyOp29
 70
     1
102
RTVSPropertyOp30
 70
     1
102
RTVSPropertyOp31
 70
     1
102
RTVSPropertyOp32
 70
     1
102
RTVSPropertyOp33
 70
     1
102
RTVSPropertyOp34
 70
     1
102
RTVSPropertyOp35
 70
     1
102
RTVSPropertyOp36
 70
     1
102
RTVSPropertyOp37
 70
     1
102
RTVSPropertyOp38
 70
     1
102
RTVSPropertyOp39
 70
     1
102
RTVSPropertyOp40
 70
     1
102
RTVSPropertyOp41
 70
     1
102
RTVSPropertyOp42
 70
     1
102
RTVSPropertyOp43
 70
     1
102
RTVSPropertyOp44
 70
     1
102
RTVSPropertyOp45
 70
     1
102
RTVSPropertyOp46
 70
     1
102
RTVSPropertyOp47
 70
     1
102
RTVSPropertyOp48
 70
     1
102
RTVSPropertyOp49
 70
     1
102
RTVSPropertyOp50
 70
     1
102
RTVSPropertyOp51
 70
     0
102
RTVSPropertyOp52
 70
     0
102
RTVSPropertyOp53
 70
     1
102
RTVSPropertyOp54
 70
     1
102
RTVSPropertyOp55
 70
     1
102
RTVSPropertyOp56
 70
     1
102
RTVSPropertyOp57
 70
     1
102
RTVSPropertyOp58
 70
     1
102
RTVSPropertyOp59
 70
     1
102
RTVSPropertyOp60
 70
     1
102
RTVSPropertyOp61
 70
     1
102
RTVSPropertyOp62
 70
     1
  0
XRECORD
  5
169A
102
{ACAD_REACTORS
330
1699
102
}
330
1699
100
AcDbXrecord
280
     1
102
RTVSPost2010Prop28
280
     0
102
RTVSPost2010PropOp28
 70
     1
102
RTVSPost2010Prop29
280
     1
102
RTVSPost2010PropOp29
 70
     1
102
RTVSPost2010Prop30
280
     1
102
RTVSPost2010PropOp30
 70
     1
102
RTVSPost2010Prop31
280
     0
102
RTVSPost2010PropOp31
 70
     1
102
RTVSPost2010Prop32
280
     0
102
RTVSPost2010PropOp32
 70
     1
102
RTVSPost2010Prop33
280
     0
102
RTVSPost2010PropOp33
 70
     1
102
RTVSPost2010Prop34
280
     0
102
RTVSPost2010PropOp34
 70
     1
102
RTVSPost2010Prop35
280
     0
102
RTVSPost2010PropOp35
 70
     1
102
RTVSPost2010Prop36
280
     0
102
RTVSPost2010PropOp36
 70
     1
102
RTVSPost2010Prop37
 90
       50
102
RTVSPost2010PropOp37
 70
     1
102
RTVSPost2010Prop38
140
0.0
102
RTVSPost2010PropOp38
 70
     1
102
RTVSPost2010Prop39
140
1.0
102
RTVSPost2010PropOp39
 70
     1
102
RTVSPost2010Prop40
 90
        0
102
RTVSPost2010PropOp40
 70
     1
102
RTVSPost2010Prop41ColorIndex
 90
       18
102
RTVSPost2010Prop41ColorRGB
 90
        0
102
RTVSPost2010PropOp41
 70
     1
102
RTVSPost2010Prop42
 90
       50
102
RTVSPost2010PropOp42
 70
     1
102
RTVSPost2010Prop43
 90
        3
102
RTVSPost2010PropOp43
 70
     1
102
RTVSPost2010Prop44ColorIndex
 90
        5
102
RTVSPost2010Prop44ColorRGB
 90
      255
102
RTVSPost2010PropOp44
 70
     1
102
RTVSPost2010Prop45
280
     0
102
RTVSPost2010PropOp45
 70
     1
102
RTVSPost2010Prop46
 90
       50
102
RTVSPost2010PropOp46
 70
     1
102
RTVSPost2010Prop47
 90
       50
102
RTVSPost2010PropOp47
 70
     1
102
RTVSPost2010Prop48
 90
       50
102
RTVSPost2010PropOp48
 70
     1
102
RTVSPost2010Prop49
280
     0
102
RTVSPost2010PropOp49
 70
     1
102
RTVSPost2010Prop50
 90
       50
102
RTVSPost2010PropOp50
 70
     1
102
RTVSPost2010Prop51ColorIndex
 90
      256
102
RTVSPost2010Prop51ColorRGB
 90
-16777216
102
RTVSPost2010PropOp51
 70
     0
102
RTVSPost2010Prop52
140
1.0
102
RTVSPost2010PropOp52
 70
     0
102
RTVSPost2010Prop53
 90
        2
102
RTVSPost2010PropOp53
 70
     1
102
RTVSPost2010Prop54
  1
strokes_ogs.tif
102
RTVSPost2010PropOp54
 70
     1
102
RTVSPost2010Prop55
280
     0
102
RTVSPost2010PropOp55
 70
     1
102
RTVSPost2010Prop56
140
1.0
102
RTVSPost2010PropOp56
 70
     1
102
RTVSPost2010Prop57
140
1.0
102
RTVSPost2010PropOp57
 70
     1
102
RTVSPropertyOp0
 70
     1
102
RTVSPropertyOp1
 70
     1
102
RTVSPropertyOp2
 70
     1
102
RTVSPropertyOp3
 70
     1
102
RTVSPropertyOp4
 70
     1
102
RTVSPropertyOp5
 70
     1
102
RTVSPropertyOp6
 70
     1
102
RTVSPropertyOp7
 70
     1
102
RTVSPropertyOp8
 70
     1
102
RTVSPropertyOp9
 70
     1
102
RTVSPropertyOp10
 70
     1
102
RTVSPropertyOp11
 70
     1
102
RTVSPropertyOp12
 70
     1
102
RTVSPropertyOp13
 70
     1
102
RTVSPropertyOp14
 70
     1
102
RTVSPropertyOp15
 70
     1
102
RTVSPropertyOp16
 70
     1
102
RTVSPropertyOp17
 70
     1
102
RTVSPropertyOp18
 70
     1
102
RTVSPropertyOp19
 70
     1
102
RTVSPropertyOp20
 70
     1
102
RTVSPropertyOp21
 70
     1
102
RTVSPropertyOp22
 70
     1
102
RTVSPropertyOp23
 70
     1
102
RTVSPropertyOp24
 70
     1
102
RTVSPropertyOp25
 70
     1
102
RTVSPropertyOp26
 70
     1
102
RTVSPropertyOp27
 70
     1
102
RTVSPropertyOp28
 70
     1
102
RTVSPropertyOp29
 70
     1
102
RTVSPropertyOp30
 70
     1
102
RTVSPropertyOp31
 70
     1
102
RTVSPropertyOp32
 70
     1
102
RTVSPropertyOp33
 70
     1
102
RTVSPropertyOp34
 70
     1
102
RTVSPropertyOp35
 70
     1
102
RTVSPropertyOp36
 70
     1
102
RTVSPropertyOp37
 70
     1
102
RTVSPropertyOp38
 70
     1
102
RTVSPropertyOp39
 70
     1
102
RTVSPropertyOp40
 70
     1
102
RTVSPropertyOp41
 70
     1
102
RTVSPropertyOp42
 70
     1
102
RTVSPropertyOp43
 70
     1
102
RTVSPropertyOp44
 70
     1
102
RTVSPropertyOp45
 70
     1
102
RTVSPropertyOp46
 70
     1
102
RTVSPropertyOp47
 70
     1
102
RTVSPropertyOp48
 70
     1
102
RTVSPropertyOp49
 70
     1
102
RTVSPropertyOp50
 70
     1
102
RTVSPropertyOp51
 70
     0
102
RTVSPropertyOp52
 70
     0
102
RTVSPropertyOp53
 70
     1
102
RTVSPropertyOp54
 70
     1
102
RTVSPropertyOp55
 70
     1
102
RTVSPropertyOp56
 70
     1
102
RTVSPropertyOp57
 70
     1
102
RTVSPropertyOp58
 70
     1
102
RTVSPropertyOp59
 70
     1
102
RTVSPropertyOp60
 70
     1
102
RTVSPropertyOp61
 70
     1
102
RTVSPropertyOp62
 70
     1
  0
XRECORD
  5
16B8
102
{ACAD_REACTORS
330
16B7
102
}
330
16B7
100
AcDbXrecord
280
     1
102
RTVSPost2010Prop28
280
     0
102
RTVSPost2010PropOp28
 70
     1
102
RTVSPost2010Prop29
280
     1
102
RTVSPost2010PropOp29
 70
     1
102
RTVSPost2010Prop30
280
     1
102
RTVSPost2010PropOp30
 70
     1
102
RTVSPost2010Prop31
280
     0
102
RTVSPost2010PropOp31
 70
     1
102
RTVSPost2010Prop32
280
     0
102
RTVSPost2010PropOp32
 70
     1
102
RTVSPost2010Prop33
280
     0
102
RTVSPost2010PropOp33
 70
     1
102
RTVSPost2010Prop34
280
     0
102
RTVSPost2010PropOp34
 70
     1
102
RTVSPost2010Prop35
280
     0
102
RTVSPost2010PropOp35
 70
     1
102
RTVSPost2010Prop36
280
     0
102
RTVSPost2010PropOp36
 70
     1
102
RTVSPost2010Prop37
 90
       50
102
RTVSPost2010PropOp37
 70
     1
102
RTVSPost2010Prop38
140
0.0
102
RTVSPost2010PropOp38
 70
     1
102
RTVSPost2010Prop39
140
1.0
102
RTVSPost2010PropOp39
 70
     1
102
RTVSPost2010Prop40
 90
        0
102
RTVSPost2010PropOp40
 70
     1
102
RTVSPost2010Prop41ColorIndex
 90
       18
102
RTVSPost2010Prop41ColorRGB
 90
        0
102
RTVSPost2010PropOp41
 70
     1
102
RTVSPost2010Prop42
 90
       50
102
RTVSPost2010PropOp42
 70
     1
102
RTVSPost2010Prop43
 90
        3
102
RTVSPost2010PropOp43
 70
     1
102
RTVSPost2010Prop44ColorIndex
 90
        5
102
RTVSPost2010Prop44ColorRGB
 90
      255
102
RTVSPost2010PropOp44
 70
     1
102
RTVSPost2010Prop45
280
     0
102
RTVSPost2010PropOp45
 70
     1
102
RTVSPost2010Prop46
 90
       50
102
RTVSPost2010PropOp46
 70
     1
102
RTVSPost2010Prop47
 90
       50
102
RTVSPost2010PropOp47
 70
     1
102
RTVSPost2010Prop48
 90
       50
102
RTVSPost2010PropOp48
 70
     1
102
RTVSPost2010Prop49
280
     0
102
RTVSPost2010PropOp49
 70
     1
102
RTVSPost2010Prop50
 90
       50
102
RTVSPost2010PropOp50
 70
     1
102
RTVSPost2010Prop51ColorIndex
 90
      256
102
RTVSPost2010Prop51ColorRGB
 90
-16777216
102
RTVSPost2010PropOp51
 70
     0
102
RTVSPost2010Prop52
140
1.0
102
RTVSPost2010PropOp52
 70
     0
102
RTVSPost2010Prop53
 90
        2
102
RTVSPost2010PropOp53
 70
     1
102
RTVSPost2010Prop54
  1
strokes_ogs.tif
102
RTVSPost2010PropOp54
 70
     1
102
RTVSPost2010Prop55
280
     0
102
RTVSPost2010PropOp55
 70
     1
102
RTVSPost2010Prop56
140
1.0
102
RTVSPost2010PropOp56
 70
     1
102
RTVSPost2010Prop57
140
1.0
102
RTVSPost2010PropOp57
 70
     1
102
RTVSPropertyOp0
 70
     1
102
RTVSPropertyOp1
 70
     1
102
RTVSPropertyOp2
 70
     1
102
RTVSPropertyOp3
 70
     1
102
RTVSPropertyOp4
 70
     1
102
RTVSPropertyOp5
 70
     1
102
RTVSPropertyOp6
 70
     1
102
RTVSPropertyOp7
 70
     1
102
RTVSPropertyOp8
 70
     1
102
RTVSPropertyOp9
 70
     1
102
RTVSPropertyOp10
 70
     1
102
RTVSPropertyOp11
 70
     1
102
RTVSPropertyOp12
 70
     1
102
RTVSPropertyOp13
 70
     1
102
RTVSPropertyOp14
 70
     1
102
RTVSPropertyOp15
 70
     1
102
RTVSPropertyOp16
 70
     1
102
RTVSPropertyOp17
 70
     1
102
RTVSPropertyOp18
 70
     1
102
RTVSPropertyOp19
 70
     1
102
RTVSPropertyOp20
 70
     1
102
RTVSPropertyOp21
 70
     1
102
RTVSPropertyOp22
 70
     1
102
RTVSPropertyOp23
 70
     1
102
RTVSPropertyOp24
 70
     1
102
RTVSPropertyOp25
 70
     1
102
RTVSPropertyOp26
 70
     1
102
RTVSPropertyOp27
 70
     1
102
RTVSPropertyOp28
 70
     1
102
RTVSPropertyOp29
 70
     1
102
RTVSPropertyOp30
 70
     1
102
RTVSPropertyOp31
 70
     1
102
RTVSPropertyOp32
 70
     1
102
RTVSPropertyOp33
 70
     1
102
RTVSPropertyOp34
 70
     1
102
RTVSPropertyOp35
 70
     1
102
RTVSPropertyOp36
 70
     1
102
RTVSPropertyOp37
 70
     1
102
RTVSPropertyOp38
 70
     1
102
RTVSPropertyOp39
 70
     1
102
RTVSPropertyOp40
 70
     1
102
RTVSPropertyOp41
 70
     1
102
RTVSPropertyOp42
 70
     1
102
RTVSPropertyOp43
 70
     1
102
RTVSPropertyOp44
 70
     1
102
RTVSPropertyOp45
 70
     1
102
RTVSPropertyOp46
 70
     1
102
RTVSPropertyOp47
 70
     1
102
RTVSPropertyOp48
 70
     1
102
RTVSPropertyOp49
 70
     1
102
RTVSPropertyOp50
 70
     1
102
RTVSPropertyOp51
 70
     0
102
RTVSPropertyOp52
 70
     0
102
RTVSPropertyOp53
 70
     1
102
RTVSPropertyOp54
 70
     1
102
RTVSPropertyOp55
 70
     1
102
RTVSPropertyOp56
 70
     1
102
RTVSPropertyOp57
 70
     1
102
RTVSPropertyOp58
 70
     1
102
RTVSPropertyOp59
 70
     1
102
RTVSPropertyOp60
 70
     1
102
RTVSPropertyOp61
 70
     1
102
RTVSPropertyOp62
 70
     1
  0
XRECORD
  5
16B6
102
{ACAD_REACTORS
330
16B5
102
}
330
16B5
100
AcDbXrecord
280
     1
102
RTVSPost2010Prop28
280
     0
102
RTVSPost2010PropOp28
 70
     1
102
RTVSPost2010Prop29
280
     1
102
RTVSPost2010PropOp29
 70
     1
102
RTVSPost2010Prop30
280
     1
102
RTVSPost2010PropOp30
 70
     1
102
RTVSPost2010Prop31
280
     0
102
RTVSPost2010PropOp31
 70
     1
102
RTVSPost2010Prop32
280
     0
102
RTVSPost2010PropOp32
 70
     1
102
RTVSPost2010Prop33
280
     0
102
RTVSPost2010PropOp33
 70
     1
102
RTVSPost2010Prop34
280
     0
102
RTVSPost2010PropOp34
 70
     1
102
RTVSPost2010Prop35
280
     0
102
RTVSPost2010PropOp35
 70
     1
102
RTVSPost2010Prop36
280
     0
102
RTVSPost2010PropOp36
 70
     1
102
RTVSPost2010Prop37
 90
       50
102
RTVSPost2010PropOp37
 70
     1
102
RTVSPost2010Prop38
140
0.0
102
RTVSPost2010PropOp38
 70
     1
102
RTVSPost2010Prop39
140
1.0
102
RTVSPost2010PropOp39
 70
     1
102
RTVSPost2010Prop40
 90
        0
102
RTVSPost2010PropOp40
 70
     1
102
RTVSPost2010Prop41ColorIndex
 90
       18
102
RTVSPost2010Prop41ColorRGB
 90
        0
102
RTVSPost2010PropOp41
 70
     1
102
RTVSPost2010Prop42
 90
       50
102
RTVSPost2010PropOp42
 70
     1
102
RTVSPost2010Prop43
 90
        3
102
RTVSPost2010PropOp43
 70
     1
102
RTVSPost2010Prop44ColorIndex
 90
        5
102
RTVSPost2010Prop44ColorRGB
 90
      255
102
RTVSPost2010PropOp44
 70
     1
102
RTVSPost2010Prop45
280
     0
102
RTVSPost2010PropOp45
 70
     1
102
RTVSPost2010Prop46
 90
       50
102
RTVSPost2010PropOp46
 70
     1
102
RTVSPost2010Prop47
 90
       50
102
RTVSPost2010PropOp47
 70
     1
102
RTVSPost2010Prop48
 90
       50
102
RTVSPost2010PropOp48
 70
     1
102
RTVSPost2010Prop49
280
     0
102
RTVSPost2010PropOp49
 70
     1
102
RTVSPost2010Prop50
 90
       50
102
RTVSPost2010PropOp50
 70
     1
102
RTVSPost2010Prop51ColorIndex
 90
      256
102
RTVSPost2010Prop51ColorRGB
 90
-16777216
102
RTVSPost2010PropOp51
 70
     0
102
RTVSPost2010Prop52
140
1.0
102
RTVSPost2010PropOp52
 70
     0
102
RTVSPost2010Prop53
 90
        2
102
RTVSPost2010PropOp53
 70
     1
102
RTVSPost2010Prop54
  1
strokes_ogs.tif
102
RTVSPost2010PropOp54
 70
     1
102
RTVSPost2010Prop55
280
     0
102
RTVSPost2010PropOp55
 70
     1
102
RTVSPost2010Prop56
140
1.0
102
RTVSPost2010PropOp56
 70
     1
102
RTVSPost2010Prop57
140
1.0
102
RTVSPost2010PropOp57
 70
     1
102
RTVSPropertyOp0
 70
     1
102
RTVSPropertyOp1
 70
     1
102
RTVSPropertyOp2
 70
     1
102
RTVSPropertyOp3
 70
     1
102
RTVSPropertyOp4
 70
     1
102
RTVSPropertyOp5
 70
     1
102
RTVSPropertyOp6
 70
     1
102
RTVSPropertyOp7
 70
     1
102
RTVSPropertyOp8
 70
     1
102
RTVSPropertyOp9
 70
     1
102
RTVSPropertyOp10
 70
     1
102
RTVSPropertyOp11
 70
     1
102
RTVSPropertyOp12
 70
     1
102
RTVSPropertyOp13
 70
     1
102
RTVSPropertyOp14
 70
     1
102
RTVSPropertyOp15
 70
     1
102
RTVSPropertyOp16
 70
     1
102
RTVSPropertyOp17
 70
     1
102
RTVSPropertyOp18
 70
     1
102
RTVSPropertyOp19
 70
     1
102
RTVSPropertyOp20
 70
     1
102
RTVSPropertyOp21
 70
     1
102
RTVSPropertyOp22
 70
     1
102
RTVSPropertyOp23
 70
     1
102
RTVSPropertyOp24
 70
     1
102
RTVSPropertyOp25
 70
     1
102
RTVSPropertyOp26
 70
     1
102
RTVSPropertyOp27
 70
     1
102
RTVSPropertyOp28
 70
     1
102
RTVSPropertyOp29
 70
     1
102
RTVSPropertyOp30
 70
     1
102
RTVSPropertyOp31
 70
     1
102
RTVSPropertyOp32
 70
     1
102
RTVSPropertyOp33
 70
     1
102
RTVSPropertyOp34
 70
     1
102
RTVSPropertyOp35
 70
     1
102
RTVSPropertyOp36
 70
     1
102
RTVSPropertyOp37
 70
     1
102
RTVSPropertyOp38
 70
     1
102
RTVSPropertyOp39
 70
     1
102
RTVSPropertyOp40
 70
     1
102
RTVSPropertyOp41
 70
     1
102
RTVSPropertyOp42
 70
     1
102
RTVSPropertyOp43
 70
     1
102
RTVSPropertyOp44
 70
     1
102
RTVSPropertyOp45
 70
     1
102
RTVSPropertyOp46
 70
     1
102
RTVSPropertyOp47
 70
     1
102
RTVSPropertyOp48
 70
     1
102
RTVSPropertyOp49
 70
     1
102
RTVSPropertyOp50
 70
     1
102
RTVSPropertyOp51
 70
     0
102
RTVSPropertyOp52
 70
     0
102
RTVSPropertyOp53
 70
     1
102
RTVSPropertyOp54
 70
     1
102
RTVSPropertyOp55
 70
     1
102
RTVSPropertyOp56
 70
     1
102
RTVSPropertyOp57
 70
     1
102
RTVSPropertyOp58
 70
     1
102
RTVSPropertyOp59
 70
     1
102
RTVSPropertyOp60
 70
     1
102
RTVSPropertyOp61
 70
     1
102
RTVSPropertyOp62
 70
     1
  0
XRECORD
  5
16B0
102
{ACAD_REACTORS
330
16AF
102
}
330
16AF
100
AcDbXrecord
280
     1
102
RTVSPost2010Prop28
280
     0
102
RTVSPost2010PropOp28
 70
     1
102
RTVSPost2010Prop29
280
     1
102
RTVSPost2010PropOp29
 70
     1
102
RTVSPost2010Prop30
280
     1
102
RTVSPost2010PropOp30
 70
     1
102
RTVSPost2010Prop31
280
     0
102
RTVSPost2010PropOp31
 70
     1
102
RTVSPost2010Prop32
280
     0
102
RTVSPost2010PropOp32
 70
     1
102
RTVSPost2010Prop33
280
     0
102
RTVSPost2010PropOp33
 70
     1
102
RTVSPost2010Prop34
280
     0
102
RTVSPost2010PropOp34
 70
     1
102
RTVSPost2010Prop35
280
     0
102
RTVSPost2010PropOp35
 70
     1
102
RTVSPost2010Prop36
280
     0
102
RTVSPost2010PropOp36
 70
     1
102
RTVSPost2010Prop37
 90
       50
102
RTVSPost2010PropOp37
 70
     1
102
RTVSPost2010Prop38
140
0.0
102
RTVSPost2010PropOp38
 70
     1
102
RTVSPost2010Prop39
140
1.0
102
RTVSPost2010PropOp39
 70
     1
102
RTVSPost2010Prop40
 90
        0
102
RTVSPost2010PropOp40
 70
     1
102
RTVSPost2010Prop41ColorIndex
 90
       18
102
RTVSPost2010Prop41ColorRGB
 90
        0
102
RTVSPost2010PropOp41
 70
     1
102
RTVSPost2010Prop42
 90
       50
102
RTVSPost2010PropOp42
 70
     1
102
RTVSPost2010Prop43
 90
        3
102
RTVSPost2010PropOp43
 70
     1
102
RTVSPost2010Prop44ColorIndex
 90
        5
102
RTVSPost2010Prop44ColorRGB
 90
      255
102
RTVSPost2010PropOp44
 70
     1
102
RTVSPost2010Prop45
280
     0
102
RTVSPost2010PropOp45
 70
     1
102
RTVSPost2010Prop46
 90
       50
102
RTVSPost2010PropOp46
 70
     1
102
RTVSPost2010Prop47
 90
       50
102
RTVSPost2010PropOp47
 70
     1
102
RTVSPost2010Prop48
 90
       50
102
RTVSPost2010PropOp48
 70
     1
102
RTVSPost2010Prop49
280
     0
102
RTVSPost2010PropOp49
 70
     1
102
RTVSPost2010Prop50
 90
       50
102
RTVSPost2010PropOp50
 70
     1
102
RTVSPost2010Prop51ColorIndex
 90
      256
102
RTVSPost2010Prop51ColorRGB
 90
-16777216
102
RTVSPost2010PropOp51
 70
     0
102
RTVSPost2010Prop52
140
1.0
102
RTVSPost2010PropOp52
 70
     0
102
RTVSPost2010Prop53
 90
        2
102
RTVSPost2010PropOp53
 70
     1
102
RTVSPost2010Prop54
  1
strokes_ogs.tif
102
RTVSPost2010PropOp54
 70
     1
102
RTVSPost2010Prop55
280
     0
102
RTVSPost2010PropOp55
 70
     1
102
RTVSPost2010Prop56
140
1.0
102
RTVSPost2010PropOp56
 70
     1
102
RTVSPost2010Prop57
140
1.0
102
RTVSPost2010PropOp57
 70
     1
102
RTVSPropertyOp0
 70
     1
102
RTVSPropertyOp1
 70
     1
102
RTVSPropertyOp2
 70
     1
102
RTVSPropertyOp3
 70
     1
102
RTVSPropertyOp4
 70
     1
102
RTVSPropertyOp5
 70
     1
102
RTVSPropertyOp6
 70
     1
102
RTVSPropertyOp7
 70
     1
102
RTVSPropertyOp8
 70
     1
102
RTVSPropertyOp9
 70
     1
102
RTVSPropertyOp10
 70
     1
102
RTVSPropertyOp11
 70
     1
102
RTVSPropertyOp12
 70
     1
102
RTVSPropertyOp13
 70
     1
102
RTVSPropertyOp14
 70
     1
102
RTVSPropertyOp15
 70
     1
102
RTVSPropertyOp16
 70
     1
102
RTVSPropertyOp17
 70
     1
102
RTVSPropertyOp18
 70
     1
102
RTVSPropertyOp19
 70
     1
102
RTVSPropertyOp20
 70
     1
102
RTVSPropertyOp21
 70
     1
102
RTVSPropertyOp22
 70
     1
102
RTVSPropertyOp23
 70
     1
102
RTVSPropertyOp24
 70
     1
102
RTVSPropertyOp25
 70
     1
102
RTVSPropertyOp26
 70
     1
102
RTVSPropertyOp27
 70
     1
102
RTVSPropertyOp28
 70
     1
102
RTVSPropertyOp29
 70
     1
102
RTVSPropertyOp30
 70
     1
102
RTVSPropertyOp31
 70
     1
102
RTVSPropertyOp32
 70
     1
102
RTVSPropertyOp33
 70
     1
102
RTVSPropertyOp34
 70
     1
102
RTVSPropertyOp35
 70
     1
102
RTVSPropertyOp36
 70
     1
102
RTVSPropertyOp37
 70
     1
102
RTVSPropertyOp38
 70
     1
102
RTVSPropertyOp39
 70
     1
102
RTVSPropertyOp40
 70
     1
102
RTVSPropertyOp41
 70
     1
102
RTVSPropertyOp42
 70
     1
102
RTVSPropertyOp43
 70
     1
102
RTVSPropertyOp44
 70
     1
102
RTVSPropertyOp45
 70
     1
102
RTVSPropertyOp46
 70
     1
102
RTVSPropertyOp47
 70
     1
102
RTVSPropertyOp48
 70
     1
102
RTVSPropertyOp49
 70
     1
102
RTVSPropertyOp50
 70
     1
102
RTVSPropertyOp51
 70
     0
102
RTVSPropertyOp52
 70
     0
102
RTVSPropertyOp53
 70
     1
102
RTVSPropertyOp54
 70
     1
102
RTVSPropertyOp55
 70
     1
102
RTVSPropertyOp56
 70
     1
102
RTVSPropertyOp57
 70
     1
102
RTVSPropertyOp58
 70
     1
102
RTVSPropertyOp59
 70
     1
102
RTVSPropertyOp60
 70
     1
102
RTVSPropertyOp61
 70
     1
102
RTVSPropertyOp62
 70
     1
  0
XRECORD
  5
16B2
102
{ACAD_REACTORS
330
16B1
102
}
330
16B1
100
AcDbXrecord
280
     1
102
RTVSPost2010Prop28
280
     0
102
RTVSPost2010PropOp28
 70
     1
102
RTVSPost2010Prop29
280
     1
102
RTVSPost2010PropOp29
 70
     1
102
RTVSPost2010Prop30
280
     1
102
RTVSPost2010PropOp30
 70
     1
102
RTVSPost2010Prop31
280
     0
102
RTVSPost2010PropOp31
 70
     1
102
RTVSPost2010Prop32
280
     0
102
RTVSPost2010PropOp32
 70
     1
102
RTVSPost2010Prop33
280
     0
102
RTVSPost2010PropOp33
 70
     1
102
RTVSPost2010Prop34
280
     0
102
RTVSPost2010PropOp34
 70
     1
102
RTVSPost2010Prop35
280
     0
102
RTVSPost2010PropOp35
 70
     1
102
RTVSPost2010Prop36
280
     0
102
RTVSPost2010PropOp36
 70
     1
102
RTVSPost2010Prop37
 90
       50
102
RTVSPost2010PropOp37
 70
     1
102
RTVSPost2010Prop38
140
0.0
102
RTVSPost2010PropOp38
 70
     1
102
RTVSPost2010Prop39
140
1.0
102
RTVSPost2010PropOp39
 70
     1
102
RTVSPost2010Prop40
 90
        0
102
RTVSPost2010PropOp40
 70
     1
102
RTVSPost2010Prop41ColorIndex
 90
       18
102
RTVSPost2010Prop41ColorRGB
 90
        0
102
RTVSPost2010PropOp41
 70
     1
102
RTVSPost2010Prop42
 90
       50
102
RTVSPost2010PropOp42
 70
     1
102
RTVSPost2010Prop43
 90
        3
102
RTVSPost2010PropOp43
 70
     1
102
RTVSPost2010Prop44ColorIndex
 90
        5
102
RTVSPost2010Prop44ColorRGB
 90
      255
102
RTVSPost2010PropOp44
 70
     1
102
RTVSPost2010Prop45
280
     0
102
RTVSPost2010PropOp45
 70
     1
102
RTVSPost2010Prop46
 90
       50
102
RTVSPost2010PropOp46
 70
     1
102
RTVSPost2010Prop47
 90
       50
102
RTVSPost2010PropOp47
 70
     1
102
RTVSPost2010Prop48
 90
       50
102
RTVSPost2010PropOp48
 70
     1
102
RTVSPost2010Prop49
280
     0
102
RTVSPost2010PropOp49
 70
     1
102
RTVSPost2010Prop50
 90
       50
102
RTVSPost2010PropOp50
 70
     1
102
RTVSPost2010Prop51ColorIndex
 90
      256
102
RTVSPost2010Prop51ColorRGB
 90
-16777216
102
RTVSPost2010PropOp51
 70
     0
102
RTVSPost2010Prop52
140
1.0
102
RTVSPost2010PropOp52
 70
     0
102
RTVSPost2010Prop53
 90
        2
102
RTVSPost2010PropOp53
 70
     1
102
RTVSPost2010Prop54
  1
strokes_ogs.tif
102
RTVSPost2010PropOp54
 70
     1
102
RTVSPost2010Prop55
280
     0
102
RTVSPost2010PropOp55
 70
     1
102
RTVSPost2010Prop56
140
1.0
102
RTVSPost2010PropOp56
 70
     1
102
RTVSPost2010Prop57
140
1.0
102
RTVSPost2010PropOp57
 70
     1
102
RTVSPropertyOp0
 70
     1
102
RTVSPropertyOp1
 70
     1
102
RTVSPropertyOp2
 70
     1
102
RTVSPropertyOp3
 70
     1
102
RTVSPropertyOp4
 70
     1
102
RTVSPropertyOp5
 70
     1
102
RTVSPropertyOp6
 70
     1
102
RTVSPropertyOp7
 70
     1
102
RTVSPropertyOp8
 70
     1
102
RTVSPropertyOp9
 70
     1
102
RTVSPropertyOp10
 70
     1
102
RTVSPropertyOp11
 70
     1
102
RTVSPropertyOp12
 70
     1
102
RTVSPropertyOp13
 70
     1
102
RTVSPropertyOp14
 70
     1
102
RTVSPropertyOp15
 70
     1
102
RTVSPropertyOp16
 70
     1
102
RTVSPropertyOp17
 70
     1
102
RTVSPropertyOp18
 70
     1
102
RTVSPropertyOp19
 70
     1
102
RTVSPropertyOp20
 70
     1
102
RTVSPropertyOp21
 70
     1
102
RTVSPropertyOp22
 70
     1
102
RTVSPropertyOp23
 70
     1
102
RTVSPropertyOp24
 70
     1
102
RTVSPropertyOp25
 70
     1
102
RTVSPropertyOp26
 70
     1
102
RTVSPropertyOp27
 70
     1
102
RTVSPropertyOp28
 70
     1
102
RTVSPropertyOp29
 70
     1
102
RTVSPropertyOp30
 70
     1
102
RTVSPropertyOp31
 70
     1
102
RTVSPropertyOp32
 70
     1
102
RTVSPropertyOp33
 70
     1
102
RTVSPropertyOp34
 70
     1
102
RTVSPropertyOp35
 70
     1
102
RTVSPropertyOp36
 70
     1
102
RTVSPropertyOp37
 70
     1
102
RTVSPropertyOp38
 70
     1
102
RTVSPropertyOp39
 70
     1
102
RTVSPropertyOp40
 70
     1
102
RTVSPropertyOp41
 70
     1
102
RTVSPropertyOp42
 70
     1
102
RTVSPropertyOp43
 70
     1
102
RTVSPropertyOp44
 70
     1
102
RTVSPropertyOp45
 70
     1
102
RTVSPropertyOp46
 70
     1
102
RTVSPropertyOp47
 70
     1
102
RTVSPropertyOp48
 70
     1
102
RTVSPropertyOp49
 70
     1
102
RTVSPropertyOp50
 70
     1
102
RTVSPropertyOp51
 70
     0
102
RTVSPropertyOp52
 70
     0
102
RTVSPropertyOp53
 70
     1
102
RTVSPropertyOp54
 70
     1
102
RTVSPropertyOp55
 70
     1
102
RTVSPropertyOp56
 70
     1
102
RTVSPropertyOp57
 70
     1
102
RTVSPropertyOp58
 70
     1
102
RTVSPropertyOp59
 70
     1
102
RTVSPropertyOp60
 70
     1
102
RTVSPropertyOp61
 70
     1
102
RTVSPropertyOp62
 70
     1
  0
XRECORD
  5
16A0
102
{ACAD_REACTORS
330
169F
102
}
330
169F
100
AcDbXrecord
280
     1
102
RTVSPost2010Prop28
280
     0
102
RTVSPost2010PropOp28
 70
     1
102
RTVSPost2010Prop29
280
     1
102
RTVSPost2010PropOp29
 70
     1
102
RTVSPost2010Prop30
280
     1
102
RTVSPost2010PropOp30
 70
     1
102
RTVSPost2010Prop31
280
     0
102
RTVSPost2010PropOp31
 70
     1
102
RTVSPost2010Prop32
280
     0
102
RTVSPost2010PropOp32
 70
     1
102
RTVSPost2010Prop33
280
     0
102
RTVSPost2010PropOp33
 70
     1
102
RTVSPost2010Prop34
280
     0
102
RTVSPost2010PropOp34
 70
     1
102
RTVSPost2010Prop35
280
     0
102
RTVSPost2010PropOp35
 70
     1
102
RTVSPost2010Prop36
280
     0
102
RTVSPost2010PropOp36
 70
     1
102
RTVSPost2010Prop37
 90
       50
102
RTVSPost2010PropOp37
 70
     1
102
RTVSPost2010Prop38
140
0.0
102
RTVSPost2010PropOp38
 70
     1
102
RTVSPost2010Prop39
140
1.0
102
RTVSPost2010PropOp39
 70
     1
102
RTVSPost2010Prop40
 90
        0
102
RTVSPost2010PropOp40
 70
     1
102
RTVSPost2010Prop41ColorIndex
 90
       18
102
RTVSPost2010Prop41ColorRGB
 90
        0
102
RTVSPost2010PropOp41
 70
     1
102
RTVSPost2010Prop42
 90
       50
102
RTVSPost2010PropOp42
 70
     1
102
RTVSPost2010Prop43
 90
        3
102
RTVSPost2010PropOp43
 70
     1
102
RTVSPost2010Prop44ColorIndex
 90
        5
102
RTVSPost2010Prop44ColorRGB
 90
      255
102
RTVSPost2010PropOp44
 70
     1
102
RTVSPost2010Prop45
280
     0
102
RTVSPost2010PropOp45
 70
     1
102
RTVSPost2010Prop46
 90
       50
102
RTVSPost2010PropOp46
 70
     1
102
RTVSPost2010Prop47
 90
       50
102
RTVSPost2010PropOp47
 70
     1
102
RTVSPost2010Prop48
 90
       50
102
RTVSPost2010PropOp48
 70
     1
102
RTVSPost2010Prop49
280
     0
102
RTVSPost2010PropOp49
 70
     1
102
RTVSPost2010Prop50
 90
       50
102
RTVSPost2010PropOp50
 70
     1
102
RTVSPost2010Prop51ColorIndex
 90
      256
102
RTVSPost2010Prop51ColorRGB
 90
-16777216
102
RTVSPost2010PropOp51
 70
     0
102
RTVSPost2010Prop52
140
1.0
102
RTVSPost2010PropOp52
 70
     0
102
RTVSPost2010Prop53
 90
        2
102
RTVSPost2010PropOp53
 70
     1
102
RTVSPost2010Prop54
  1
strokes_ogs.tif
102
RTVSPost2010PropOp54
 70
     1
102
RTVSPost2010Prop55
280
     0
102
RTVSPost2010PropOp55
 70
     1
102
RTVSPost2010Prop56
140
1.0
102
RTVSPost2010PropOp56
 70
     1
102
RTVSPost2010Prop57
140
1.0
102
RTVSPost2010PropOp57
 70
     1
102
RTVSPropertyOp0
 70
     1
102
RTVSPropertyOp1
 70
     1
102
RTVSPropertyOp2
 70
     1
102
RTVSPropertyOp3
 70
     1
102
RTVSPropertyOp4
 70
     1
102
RTVSPropertyOp5
 70
     1
102
RTVSPropertyOp6
 70
     1
102
RTVSPropertyOp7
 70
     1
102
RTVSPropertyOp8
 70
     1
102
RTVSPropertyOp9
 70
     1
102
RTVSPropertyOp10
 70
     1
102
RTVSPropertyOp11
 70
     1
102
RTVSPropertyOp12
 70
     1
102
RTVSPropertyOp13
 70
     1
102
RTVSPropertyOp14
 70
     1
102
RTVSPropertyOp15
 70
     1
102
RTVSPropertyOp16
 70
     1
102
RTVSPropertyOp17
 70
     1
102
RTVSPropertyOp18
 70
     1
102
RTVSPropertyOp19
 70
     1
102
RTVSPropertyOp20
 70
     1
102
RTVSPropertyOp21
 70
     1
102
RTVSPropertyOp22
 70
     1
102
RTVSPropertyOp23
 70
     1
102
RTVSPropertyOp24
 70
     1
102
RTVSPropertyOp25
 70
     1
102
RTVSPropertyOp26
 70
     1
102
RTVSPropertyOp27
 70
     1
102
RTVSPropertyOp28
 70
     1
102
RTVSPropertyOp29
 70
     1
102
RTVSPropertyOp30
 70
     1
102
RTVSPropertyOp31
 70
     1
102
RTVSPropertyOp32
 70
     1
102
RTVSPropertyOp33
 70
     1
102
RTVSPropertyOp34
 70
     1
102
RTVSPropertyOp35
 70
     1
102
RTVSPropertyOp36
 70
     1
102
RTVSPropertyOp37
 70
     1
102
RTVSPropertyOp38
 70
     1
102
RTVSPropertyOp39
 70
     1
102
RTVSPropertyOp40
 70
     1
102
RTVSPropertyOp41
 70
     1
102
RTVSPropertyOp42
 70
     1
102
RTVSPropertyOp43
 70
     1
102
RTVSPropertyOp44
 70
     1
102
RTVSPropertyOp45
 70
     1
102
RTVSPropertyOp46
 70
     1
102
RTVSPropertyOp47
 70
     1
102
RTVSPropertyOp48
 70
     1
102
RTVSPropertyOp49
 70
     1
102
RTVSPropertyOp50
 70
     1
102
RTVSPropertyOp51
 70
     0
102
RTVSPropertyOp52
 70
     0
102
RTVSPropertyOp53
 70
     1
102
RTVSPropertyOp54
 70
     1
102
RTVSPropertyOp55
 70
     1
102
RTVSPropertyOp56
 70
     1
102
RTVSPropertyOp57
 70
     1
102
RTVSPropertyOp58
 70
     1
102
RTVSPropertyOp59
 70
     1
102
RTVSPropertyOp60
 70
     1
102
RTVSPropertyOp61
 70
     1
102
RTVSPropertyOp62
 70
     1
  0
XRECORD
  5
1694
102
{ACAD_REACTORS
330
1693
102
}
330
1693
100
AcDbXrecord
280
     1
102
RTVSPost2010Prop28
280
     0
102
RTVSPost2010PropOp28
 70
     1
102
RTVSPost2010Prop29
280
     1
102
RTVSPost2010PropOp29
 70
     1
102
RTVSPost2010Prop30
280
     1
102
RTVSPost2010PropOp30
 70
     1
102
RTVSPost2010Prop31
280
     0
102
RTVSPost2010PropOp31
 70
     1
102
RTVSPost2010Prop32
280
     0
102
RTVSPost2010PropOp32
 70
     1
102
RTVSPost2010Prop33
280
     0
102
RTVSPost2010PropOp33
 70
     1
102
RTVSPost2010Prop34
280
     0
102
RTVSPost2010PropOp34
 70
     1
102
RTVSPost2010Prop35
280
     0
102
RTVSPost2010PropOp35
 70
     1
102
RTVSPost2010Prop36
280
     0
102
RTVSPost2010PropOp36
 70
     1
102
RTVSPost2010Prop37
 90
       50
102
RTVSPost2010PropOp37
 70
     1
102
RTVSPost2010Prop38
140
0.0
102
RTVSPost2010PropOp38
 70
     1
102
RTVSPost2010Prop39
140
1.0
102
RTVSPost2010PropOp39
 70
     1
102
RTVSPost2010Prop40
 90
        0
102
RTVSPost2010PropOp40
 70
     1
102
RTVSPost2010Prop41ColorIndex
 90
       18
102
RTVSPost2010Prop41ColorRGB
 90
        0
102
RTVSPost2010PropOp41
 70
     1
102
RTVSPost2010Prop42
 90
       50
102
RTVSPost2010PropOp42
 70
     1
102
RTVSPost2010Prop43
 90
        3
102
RTVSPost2010PropOp43
 70
     1
102
RTVSPost2010Prop44ColorIndex
 90
        5
102
RTVSPost2010Prop44ColorRGB
 90
      255
102
RTVSPost2010PropOp44
 70
     1
102
RTVSPost2010Prop45
280
     0
102
RTVSPost2010PropOp45
 70
     1
102
RTVSPost2010Prop46
 90
       50
102
RTVSPost2010PropOp46
 70
     1
102
RTVSPost2010Prop47
 90
       50
102
RTVSPost2010PropOp47
 70
     1
102
RTVSPost2010Prop48
 90
       50
102
RTVSPost2010PropOp48
 70
     1
102
RTVSPost2010Prop49
280
     0
102
RTVSPost2010PropOp49
 70
     1
102
RTVSPost2010Prop50
 90
       50
102
RTVSPost2010PropOp50
 70
     1
102
RTVSPost2010Prop51ColorIndex
 90
      256
102
RTVSPost2010Prop51ColorRGB
 90
-16777216
102
RTVSPost2010PropOp51
 70
     0
102
RTVSPost2010Prop52
140
1.0
102
RTVSPost2010PropOp52
 70
     0
102
RTVSPost2010Prop53
 90
        2
102
RTVSPost2010PropOp53
 70
     1
102
RTVSPost2010Prop54
  1
strokes_ogs.tif
102
RTVSPost2010PropOp54
 70
     1
102
RTVSPost2010Prop55
280
     0
102
RTVSPost2010PropOp55
 70
     1
102
RTVSPost2010Prop56
140
1.0
102
RTVSPost2010PropOp56
 70
     1
102
RTVSPost2010Prop57
140
1.0
102
RTVSPost2010PropOp57
 70
     1
102
RTVSPropertyOp0
 70
     1
102
RTVSPropertyOp1
 70
     1
102
RTVSPropertyOp2
 70
     1
102
RTVSPropertyOp3
 70
     1
102
RTVSPropertyOp4
 70
     1
102
RTVSPropertyOp5
 70
     1
102
RTVSPropertyOp6
 70
     1
102
RTVSPropertyOp7
 70
     1
102
RTVSPropertyOp8
 70
     1
102
RTVSPropertyOp9
 70
     1
102
RTVSPropertyOp10
 70
     1
102
RTVSPropertyOp11
 70
     1
102
RTVSPropertyOp12
 70
     1
102
RTVSPropertyOp13
 70
     1
102
RTVSPropertyOp14
 70
     1
102
RTVSPropertyOp15
 70
     1
102
RTVSPropertyOp16
 70
     1
102
RTVSPropertyOp17
 70
     1
102
RTVSPropertyOp18
 70
     1
102
RTVSPropertyOp19
 70
     1
102
RTVSPropertyOp20
 70
     1
102
RTVSPropertyOp21
 70
     1
102
RTVSPropertyOp22
 70
     1
102
RTVSPropertyOp23
 70
     1
102
RTVSPropertyOp24
 70
     1
102
RTVSPropertyOp25
 70
     1
102
RTVSPropertyOp26
 70
     1
102
RTVSPropertyOp27
 70
     1
102
RTVSPropertyOp28
 70
     1
102
RTVSPropertyOp29
 70
     1
102
RTVSPropertyOp30
 70
     1
102
RTVSPropertyOp31
 70
     1
102
RTVSPropertyOp32
 70
     1
102
RTVSPropertyOp33
 70
     1
102
RTVSPropertyOp34
 70
     1
102
RTVSPropertyOp35
 70
     1
102
RTVSPropertyOp36
 70
     1
102
RTVSPropertyOp37
 70
     1
102
RTVSPropertyOp38
 70
     1
102
RTVSPropertyOp39
 70
     1
102
RTVSPropertyOp40
 70
     1
102
RTVSPropertyOp41
 70
     1
102
RTVSPropertyOp42
 70
     1
102
RTVSPropertyOp43
 70
     1
102
RTVSPropertyOp44
 70
     1
102
RTVSPropertyOp45
 70
     1
102
RTVSPropertyOp46
 70
     1
102
RTVSPropertyOp47
 70
     1
102
RTVSPropertyOp48
 70
     1
102
RTVSPropertyOp49
 70
     1
102
RTVSPropertyOp50
 70
     1
102
RTVSPropertyOp51
 70
     0
102
RTVSPropertyOp52
 70
     0
102
RTVSPropertyOp53
 70
     1
102
RTVSPropertyOp54
 70
     1
102
RTVSPropertyOp55
 70
     1
102
RTVSPropertyOp56
 70
     1
102
RTVSPropertyOp57
 70
     1
102
RTVSPropertyOp58
 70
     1
102
RTVSPropertyOp59
 70
     1
102
RTVSPropertyOp60
 70
     1
102
RTVSPropertyOp61
 70
     1
102
RTVSPropertyOp62
 70
     1
  0
XRECORD
  5
16B4
102
{ACAD_REACTORS
330
16B3
102
}
330
16B3
100
AcDbXrecord
280
     1
102
RTVSPost2010Prop28
280
     0
102
RTVSPost2010PropOp28
 70
     1
102
RTVSPost2010Prop29
280
     1
102
RTVSPost2010PropOp29
 70
     1
102
RTVSPost2010Prop30
280
     1
102
RTVSPost2010PropOp30
 70
     1
102
RTVSPost2010Prop31
280
     0
102
RTVSPost2010PropOp31
 70
     1
102
RTVSPost2010Prop32
280
     0
102
RTVSPost2010PropOp32
 70
     1
102
RTVSPost2010Prop33
280
     0
102
RTVSPost2010PropOp33
 70
     1
102
RTVSPost2010Prop34
280
     0
102
RTVSPost2010PropOp34
 70
     1
102
RTVSPost2010Prop35
280
     0
102
RTVSPost2010PropOp35
 70
     1
102
RTVSPost2010Prop36
280
     0
102
RTVSPost2010PropOp36
 70
     1
102
RTVSPost2010Prop37
 90
       50
102
RTVSPost2010PropOp37
 70
     1
102
RTVSPost2010Prop38
140
0.0
102
RTVSPost2010PropOp38
 70
     1
102
RTVSPost2010Prop39
140
1.0
102
RTVSPost2010PropOp39
 70
     1
102
RTVSPost2010Prop40
 90
        0
102
RTVSPost2010PropOp40
 70
     1
102
RTVSPost2010Prop41ColorIndex
 90
       18
102
RTVSPost2010Prop41ColorRGB
 90
        0
102
RTVSPost2010PropOp41
 70
     1
102
RTVSPost2010Prop42
 90
       50
102
RTVSPost2010PropOp42
 70
     1
102
RTVSPost2010Prop43
 90
        3
102
RTVSPost2010PropOp43
 70
     1
102
RTVSPost2010Prop44ColorIndex
 90
        5
102
RTVSPost2010Prop44ColorRGB
 90
      255
102
RTVSPost2010PropOp44
 70
     1
102
RTVSPost2010Prop45
280
     0
102
RTVSPost2010PropOp45
 70
     1
102
RTVSPost2010Prop46
 90
       50
102
RTVSPost2010PropOp46
 70
     1
102
RTVSPost2010Prop47
 90
       50
102
RTVSPost2010PropOp47
 70
     1
102
RTVSPost2010Prop48
 90
       50
102
RTVSPost2010PropOp48
 70
     1
102
RTVSPost2010Prop49
280
     0
102
RTVSPost2010PropOp49
 70
     1
102
RTVSPost2010Prop50
 90
       50
102
RTVSPost2010PropOp50
 70
     1
102
RTVSPost2010Prop51ColorIndex
 90
      256
102
RTVSPost2010Prop51ColorRGB
 90
-16777216
102
RTVSPost2010PropOp51
 70
     0
102
RTVSPost2010Prop52
140
1.0
102
RTVSPost2010PropOp52
 70
     0
102
RTVSPost2010Prop53
 90
        2
102
RTVSPost2010PropOp53
 70
     1
102
RTVSPost2010Prop54
  1
strokes_ogs.tif
102
RTVSPost2010PropOp54
 70
     1
102
RTVSPost2010Prop55
280
     0
102
RTVSPost2010PropOp55
 70
     1
102
RTVSPost2010Prop56
140
1.0
102
RTVSPost2010PropOp56
 70
     1
102
RTVSPost2010Prop57
140
1.0
102
RTVSPost2010PropOp57
 70
     1
102
RTVSPropertyOp0
 70
     1
102
RTVSPropertyOp1
 70
     1
102
RTVSPropertyOp2
 70
     1
102
RTVSPropertyOp3
 70
     1
102
RTVSPropertyOp4
 70
     1
102
RTVSPropertyOp5
 70
     1
102
RTVSPropertyOp6
 70
     1
102
RTVSPropertyOp7
 70
     1
102
RTVSPropertyOp8
 70
     1
102
RTVSPropertyOp9
 70
     1
102
RTVSPropertyOp10
 70
     1
102
RTVSPropertyOp11
 70
     1
102
RTVSPropertyOp12
 70
     1
102
RTVSPropertyOp13
 70
     1
102
RTVSPropertyOp14
 70
     1
102
RTVSPropertyOp15
 70
     1
102
RTVSPropertyOp16
 70
     1
102
RTVSPropertyOp17
 70
     1
102
RTVSPropertyOp18
 70
     1
102
RTVSPropertyOp19
 70
     1
102
RTVSPropertyOp20
 70
     1
102
RTVSPropertyOp21
 70
     1
102
RTVSPropertyOp22
 70
     1
102
RTVSPropertyOp23
 70
     1
102
RTVSPropertyOp24
 70
     1
102
RTVSPropertyOp25
 70
     1
102
RTVSPropertyOp26
 70
     1
102
RTVSPropertyOp27
 70
     1
102
RTVSPropertyOp28
 70
     1
102
RTVSPropertyOp29
 70
     1
102
RTVSPropertyOp30
 70
     1
102
RTVSPropertyOp31
 70
     1
102
RTVSPropertyOp32
 70
     1
102
RTVSPropertyOp33
 70
     1
102
RTVSPropertyOp34
 70
     1
102
RTVSPropertyOp35
 70
     1
102
RTVSPropertyOp36
 70
     1
102
RTVSPropertyOp37
 70
     1
102
RTVSPropertyOp38
 70
     1
102
RTVSPropertyOp39
 70
     1
102
RTVSPropertyOp40
 70
     1
102
RTVSPropertyOp41
 70
     1
102
RTVSPropertyOp42
 70
     1
102
RTVSPropertyOp43
 70
     1
102
RTVSPropertyOp44
 70
     1
102
RTVSPropertyOp45
 70
     1
102
RTVSPropertyOp46
 70
     1
102
RTVSPropertyOp47
 70
     1
102
RTVSPropertyOp48
 70
     1
102
RTVSPropertyOp49
 70
     1
102
RTVSPropertyOp50
 70
     1
102
RTVSPropertyOp51
 70
     0
102
RTVSPropertyOp52
 70
     0
102
RTVSPropertyOp53
 70
     1
102
RTVSPropertyOp54
 70
     1
102
RTVSPropertyOp55
 70
     1
102
RTVSPropertyOp56
 70
     1
102
RTVSPropertyOp57
 70
     1
102
RTVSPropertyOp58
 70
     1
102
RTVSPropertyOp59
 70
     1
102
RTVSPropertyOp60
 70
     1
102
RTVSPropertyOp61
 70
     1
102
RTVSPropertyOp62
 70
     1
  0
ENDSEC
  0
EOF
