  0
SECTION
  2
HEADER
  9
$ACADVER
  1
AC1015
  9
$ACADMAINTVER
 70
    18
  9
$DWGCODEPAGE
  3
ANSI_1252
  9
$INSBASE
 10
0.0
 20
0.0
 30
0.0
  9
$EXTMIN
 10
-220.6320183219296
 20
-327.4812924143408
 30
-0.0015258207003583
  9
$EXTMAX
 10
261.5258796996506
 20
379.1037147763461
 30
0.0000000349246037
  9
$LIMMIN
 10
0.0
 20
0.0
  9
$LIMMAX
 10
420.0
 20
297.0
  9
$ORTHOMODE
 70
     0
  9
$REGENMODE
 70
     1
  9
$FILLMODE
 70
     1
  9
$QTEXTMODE
 70
     0
  9
$MIRRTEXT
 70
     0
  9
$LTSCALE
 40
1.0
  9
$ATTMODE
 70
     1
  9
$TEXTSIZE
 40
2.5
  9
$TRACEWID
 40
1.0
  9
$TEXTSTYLE
  7
Standard
  9
$CLAYER
  8
0
  9
$CELTYPE
  6
ByLayer
  9
$CECOLOR
 62
   256
  9
$CELTSCALE
 40
1.0
  9
$DISPSILH
 70
     0
  9
$DIMSCALE
 40
1.0
  9
$DIMASZ
 40
2.5
  9
$DIMEXO
 40
0.625
  9
$DIMDLI
 40
3.75
  9
$DIMRND
 40
0.0
  9
$DIMDLE
 40
0.0
  9
$DIMEXE
 40
1.25
  9
$DIMTP
 40
0.0
  9
$DIMTM
 40
0.0
  9
$DIMTXT
 40
2.5
  9
$DIMCEN
 40
2.5
  9
$DIMTSZ
 40
0.0
  9
$DIMTOL
 70
     0
  9
$DIMLIM
 70
     0
  9
$DIMTIH
 70
     0
  9
$DIMTOH
 70
     0
  9
$DIMSE1
 70
     0
  9
$DIMSE2
 70
     0
  9
$DIMTAD
 70
     1
  9
$DIMZIN
 70
     8
  9
$DIMBLK
  1

  9
$DIMASO
 70
     1
  9
$DIMSHO
 70
     1
  9
$DIMPOST
  1

  9
$DIMAPOST
  1

  9
$DIMALT
 70
     0
  9
$DIMALTD
 70
     3
  9
$DIMALTF
 40
0.03937007874016
  9
$DIMLFAC
 40
1.0
  9
$DIMTOFL
 70
     1
  9
$DIMTVP
 40
0.0
  9
$DIMTIX
 70
     0
  9
$DIMSOXD
 70
     0
  9
$DIMSAH
 70
     0
  9
$DIMBLK1
  1

  9
$DIMBLK2
  1

  9
$DIMSTYLE
  2
ISO-25
  9
$DIMCLRD
 70
     0
  9
$DIMCLRE
 70
     0
  9
$DIMCLRT
 70
     0
  9
$DIMTFAC
 40
1.0
  9
$DIMGAP
 40
0.625
  9
$DIMJUST
 70
     0
  9
$DIMSD1
 70
     0
  9
$DIMSD2
 70
     0
  9
$DIMTOLJ
 70
     0
  9
$DIMTZIN
 70
     8
  9
$DIMALTZ
 70
     0
  9
$DIMALTTZ
 70
     0
  9
$DIMUPT
 70
     0
  9
$DIMDEC
 70
     2
  9
$DIMTDEC
 70
     2
  9
$DIMALTU
 70
     2
  9
$DIMALTTD
 70
     3
  9
$DIMTXSTY
  7
Standard
  9
$DIMAUNIT
 70
     0
  9
$DIMADEC
 70
     0
  9
$DIMALTRND
 40
0.0
  9
$DIMAZIN
 70
     0
  9
$DIMDSEP
 70
    44
  9
$DIMATFIT
 70
     3
  9
$DIMFRAC
 70
     0
  9
$DIMLDRBLK
  1

  9
$DIMLUNIT
 70
     2
  9
$DIMLWD
 70
    -2
  9
$DIMLWE
 70
    -2
  9
$DIMTMOVE
 70
     0
  9
$LUNITS
 70
     2
  9
$LUPREC
 70
     4
  9
$SKETCHINC
 40
1.0
  9
$FILLETRAD
 40
0.0
  9
$AUNITS
 70
     0
  9
$AUPREC
 70
     0
  9
$MENU
  1
.
  9
$ELEVATION
 40
0.0
  9
$PELEVATION
 40
0.0
  9
$THICKNESS
 40
0.0
  9
$LIMCHECK
 70
     0
  9
$CHAMFERA
 40
0.0
  9
$CHAMFERB
 40
0.0
  9
$CHAMFERC
 40
0.0
  9
$CHAMFERD
 40
0.0
  9
$SKPOLY
 70
     0
  9
$TDCREATE
 40
2460398.356956019
  9
$TDUCREATE
 40
2460398.065289352
  9
$TDUPDATE
 40
2460398.376145833
  9
$TDUUPDATE
 40
2460398.084479167
  9
$TDINDWG
 40
0.0080787037
  9
$TDUSRTIMER
 40
0.0080787037
  9
$USRTIMER
 70
     1
  9
$ANGBASE
 50
0.0
  9
$ANGDIR
 70
     0
  9
$PDMODE
 70
     0
  9
$PDSIZE
 40
0.0
  9
$PLINEWID
 40
0.0
  9
$SPLFRAME
 70
     0
  9
$SPLINETYPE
 70
     6
  9
$SPLINESEGS
 70
     8
  9
$HANDSEED
  5
BE57
  9
$SURFTAB1
 70
     6
  9
$SURFTAB2
 70
     6
  9
$SURFTYPE
 70
     6
  9
$SURFU
 70
     6
  9
$SURFV
 70
     6
  9
$UCSBASE
  2

  9
$UCSNAME
  2

  9
$UCSORG
 10
0.0
 20
0.0
 30
0.0
  9
$UCSXDIR
 10
1.0
 20
0.0
 30
0.0
  9
$UCSYDIR
 10
0.0
 20
1.0
 30
0.0
  9
$UCSORTHOREF
  2

  9
$UCSORTHOVIEW
 70
     0
  9
$UCSORGTOP
 10
0.0
 20
0.0
 30
0.0
  9
$UCSORGBOTTOM
 10
0.0
 20
0.0
 30
0.0
  9
$UCSORGLEFT
 10
0.0
 20
0.0
 30
0.0
  9
$UCSORGRIGHT
 10
0.0
 20
0.0
 30
0.0
  9
$UCSORGFRONT
 10
0.0
 20
0.0
 30
0.0
  9
$UCSORGBACK
 10
0.0
 20
0.0
 30
0.0
  9
$PUCSBASE
  2

  9
$PUCSNAME
  2

  9
$PUCSORG
 10
0.0
 20
0.0
 30
0.0
  9
$PUCSXDIR
 10
1.0
 20
0.0
 30
0.0
  9
$PUCSYDIR
 10
0.0
 20
1.0
 30
0.0
  9
$PUCSORTHOREF
  2

  9
$PUCSORTHOVIEW
 70
     0
  9
$PUCSORGTOP
 10
0.0
 20
0.0
 30
0.0
  9
$PUCSORGBOTTOM
 10
0.0
 20
0.0
 30
0.0
  9
$PUCSORGLEFT
 10
0.0
 20
0.0
 30
0.0
  9
$PUCSORGRIGHT
 10
0.0
 20
0.0
 30
0.0
  9
$PUCSORGFRONT
 10
0.0
 20
0.0
 30
0.0
  9
$PUCSORGBACK
 10
0.0
 20
0.0
 30
0.0
  9
$USERI1
 70
     0
  9
$USERI2
 70
     0
  9
$USERI3
 70
     0
  9
$USERI4
 70
     0
  9
$USERI5
 70
     0
  9
$USERR1
 40
0.0
  9
$USERR2
 40
0.0
  9
$USERR3
 40
0.0
  9
$USERR4
 40
0.0
  9
$USERR5
 40
0.0
  9
$WORLDVIEW
 70
     1
  9
$SHADEDGE
 70
     3
  9
$SHADEDIF
 70
    70
  9
$TILEMODE
 70
     1
  9
$MAXACTVP
 70
    48
  9
$PINSBASE
 10
0.0
 20
0.0
 30
0.0
  9
$PLIMCHECK
 70
     0
  9
$PEXTMIN
 10
0.0
 20
0.0
 30
0.0
  9
$PEXTMAX
 10
0.0
 20
0.0
 30
0.0
  9
$PLIMMIN
 10
0.0
 20
0.0
  9
$PLIMMAX
 10
12.0
 20
9.0
  9
$UNITMODE
 70
     0
  9
$VISRETAIN
 70
     1
  9
$PLINEGEN
 70
     0
  9
$PSLTSCALE
 70
     1
  9
$TREEDEPTH
 70
  3020
  9
$CMLSTYLE
  2
Standard
  9
$CMLJUST
 70
     0
  9
$CMLSCALE
 40
20.0
  9
$PROXYGRAPHICS
 70
     1
  9
$MEASUREMENT
 70
     1
  9
$CELWEIGHT
370
    -1
  9
$ENDCAPS
280
     0
  9
$JOINSTYLE
280
     0
  9
$LWDISPLAY
290
     0
  9
$INSUNITS
 70
     4
  9
$HYPERLINKBASE
  1

  9
$STYLESHEET
  1

  9
$XEDIT
290
     1
  9
$CEPSNTYPE
380
     0
  9
$PSTYLEMODE
290
     1
  9
$FINGERPRINTGUID
  2
{6C1266EE-7BC1-BF4A-B059-A6E7702B10CE}
  9
$VERSIONGUID
  2
{6BF3F469-381C-CA42-BE1B-FB750B925409}
  9
$EXTNAMES
290
     1
  9
$PSVPSCALE
 40
0.0
  9
$OLESTARTUP
290
     0
  0
ENDSEC
  0
SECTION
  2
CLASSES
  0
CLASS
  1
ACDBDICTIONARYWDFLT
  2
AcDbDictionaryWithDefault
  3
ObjectDBX Classes
 90
        0
280
     0
281
     0
  0
CLASS
  1
ACDBPLACEHOLDER
  2
AcDbPlaceHolder
  3
ObjectDBX Classes
 90
        0
280
     0
281
     0
  0
CLASS
  1
LAYOUT
  2
AcDbLayout
  3
ObjectDBX Classes
 90
        0
280
     0
281
     0
  0
CLASS
  1
DICTIONARYVAR
  2
AcDbDictionaryVar
  3
ObjectDBX Classes
 90
        0
280
     0
281
     0
  0
CLASS
  1
TABLESTYLE
  2
AcDbTableStyle
  3
ObjectDBX Classes
 90
     4095
280
     0
281
     0
  0
CLASS
  1
MATERIAL
  2
AcDbMaterial
  3
ObjectDBX Classes
 90
     1153
280
     0
281
     0
  0
CLASS
  1
VISUALSTYLE
  2
AcDbVisualStyle
  3
ObjectDBX Classes
 90
     4095
280
     0
281
     0
  0
CLASS
  1
SCALE
  2
AcDbScale
  3
ObjectDBX Classes
 90
     1153
280
     0
281
     0
  0
CLASS
  1
MLEADERSTYLE
  2
AcDbMLeaderStyle
  3
ACDB_MLEADERSTYLE_CLASS
 90
     4095
280
     0
281
     0
  0
CLASS
  1
CELLSTYLEMAP
  2
AcDbCellStyleMap
  3
ObjectDBX Classes
 90
     1152
280
     0
281
     0
  0
CLASS
  1
EXACXREFPANELOBJECT
  2
ExAcXREFPanelObject
  3
EXAC_ESW
 90
    33793
280
     0
281
     0
  0
CLASS
  1
NPOCOLLECTION
  2
AcDbImpNonPersistentObjectsCollection
  3
ObjectDBX Classes
 90
    33921
280
     0
281
     0
  0
CLASS
  1
LAYER_INDEX
  2
AcDbLayerIndex
  3
ObjectDBX Classes
 90
    32768
280
     0
281
     0
  0
CLASS
  1
SPATIAL_INDEX
  2
AcDbSpatialIndex
  3
ObjectDBX Classes
 90
    32768
280
     0
281
     0
  0
CLASS
  1
IDBUFFER
  2
AcDbIdBuffer
  3
ObjectDBX Classes
 90
    32768
280
     0
281
     0
  0
CLASS
  1
ACDBSECTIONVIEWSTYLE
  2
AcDbSectionViewStyle
  3
ObjectDBX Classes
 90
     1025
280
     0
281
     0
  0
CLASS
  1
ACDBDETAILVIEWSTYLE
  2
AcDbDetailViewStyle
  3
ObjectDBX Classes
 90
     1025
280
     0
281
     0
  0
CLASS
  1
XRECORD
  2
AcDbXrecord
  3
ObjectDBX Classes
 90
        0
280
     0
281
     0
  0
ENDSEC
  0
SECTION
  2
TABLES
  0
TABLE
  2
VPORT
  5
8
102
{ACAD_XDICTIONARY
360
BD65
102
}
330
0
100
AcDbSymbolTable
 70
     1
  0
VPORT
  5
EA
330
8
100
AcDbSymbolTableRecord
100
AcDbViewportTableRecord
  2
*Active
 70
     0
 10
0.0
 20
0.0
 11
1.0
 21
1.0
 12
20.44693068886058
 22
25.81121118100265
 13
0.0
 23
0.0
 14
10.0
 24
10.0
 15
10.0
 25
10.0
 16
0.0
 26
0.0
 36
1.0
 17
0.0
 27
0.0
 37
0.0
 40
751.3891220709298
 41
0.9846153846153846
 42
50.0
 43
0.0
 44
0.0
 50
0.0
 51
0.0
 71
     0
 72
  1000
 73
     1
 74
     3
 75
     0
 76
     1
 77
     0
 78
     0
281
     0
 65
     1
110
0.0
120
0.0
130
0.0
111
1.0
121
0.0
131
0.0
112
0.0
122
1.0
132
0.0
 79
     0
146
0.0
1001
ACAD_NAV_VCDISPLAY
1070
     3
  0
ENDTAB
  0
TABLE
  2
LTYPE
  5
5
330
0
100
AcDbSymbolTable
 70
     1
  0
LTYPE
  5
14
330
5
100
AcDbSymbolTableRecord
100
AcDbLinetypeTableRecord
  2
ByBlock
 70
     0
  3

 72
    65
 73
     0
 40
0.0
  0
LTYPE
  5
15
330
5
100
AcDbSymbolTableRecord
100
AcDbLinetypeTableRecord
  2
ByLayer
 70
     0
  3

 72
    65
 73
     0
 40
0.0
  0
LTYPE
  5
16
330
5
100
AcDbSymbolTableRecord
100
AcDbLinetypeTableRecord
  2
Continuous
 70
     0
  3
Solid line
 72
    65
 73
     0
 40
0.0
  0
ENDTAB
  0
TABLE
  2
LAYER
  5
2
102
{ACAD_XDICTIONARY
360
1FF
102
}
330
0
100
AcDbSymbolTable
 70
     1
  0
LAYER
  5
10
102
{ACAD_XDICTIONARY
360
13C
102
}
330
2
100
AcDbSymbolTableRecord
100
AcDbLayerTableRecord
  2
0
 70
     0
 62
     7
  6
Continuous
370
    -3
390
F
  0
ENDTAB
  0
TABLE
  2
STYLE
  5
3
330
0
100
AcDbSymbolTable
 70
     1
  0
STYLE
  5
11
330
3
100
AcDbSymbolTableRecord
100
AcDbTextStyleTableRecord
  2
Standard
 70
     0
 40
0.0
 41
1.0
 50
0.0
 71
     0
 42
2.5
  3
arial.ttf
  4

1001
ACAD
1000
Arial
1071
       34
  0
ENDTAB
  0
TABLE
  2
VIEW
  5
6
330
0
100
AcDbSymbolTable
 70
     0
  0
ENDTAB
  0
TABLE
  2
UCS
  5
7
330
0
100
AcDbSymbolTable
 70
     0
  0
ENDTAB
  0
TABLE
  2
APPID
  5
9
330
0
100
AcDbSymbolTable
 70
     8
  0
APPID
  5
12
330
9
100
AcDbSymbolTableRecord
100
AcDbRegAppTableRecord
  2
ACAD
 70
     0
  0
APPID
  5
9E
330
9
100
AcDbSymbolTableRecord
100
AcDbRegAppTableRecord
  2
ACAD_PSEXT
 70
     0
  0
APPID
  5
133
330
9
100
AcDbSymbolTableRecord
100
AcDbRegAppTableRecord
  2
AcadAnnoPO
 70
     0
  0
APPID
  5
134
330
9
100
AcDbSymbolTableRecord
100
AcDbRegAppTableRecord
  2
AcadAnnotative
 70
     0
  0
APPID
  5
135
330
9
100
AcDbSymbolTableRecord
100
AcDbRegAppTableRecord
  2
ACAD_DSTYLE_DIMJAG
 70
     0
  0
APPID
  5
136
330
9
100
AcDbSymbolTableRecord
100
AcDbRegAppTableRecord
  2
ACAD_DSTYLE_DIMTALN
 70
     0
  0
APPID
  5
165
330
9
100
AcDbSymbolTableRecord
100
AcDbRegAppTableRecord
  2
ACAD_MLEADERVER
 70
     0
  0
APPID
  5
217
330
9
100
AcDbSymbolTableRecord
100
AcDbRegAppTableRecord
  2
ACAD_NAV_VCDISPLAY
 70
     0
  0
ENDTAB
  0
TABLE
  2
DIMSTYLE
  5
A
330
0
100
AcDbSymbolTable
 70
     1
100
AcDbDimStyleTable
 71
     0
  0
DIMSTYLE
105
27
330
A
100
AcDbSymbolTableRecord
100
AcDbDimStyleTableRecord
  2
ISO-25
 70
     0
 41
2.5
 42
0.625
 43
3.75
 44
1.25
 73
     0
 74
     0
 77
     1
 78
     8
140
2.5
141
2.5
143
0.03937007874016
147
0.625
171
     3
172
     1
271
     2
272
     2
274
     3
278
    44
283
     0
284
     8
340
11
  0
ENDTAB
  0
TABLE
  2
BLOCK_RECORD
  5
1
330
0
100
AcDbSymbolTable
 70
     7
  0
BLOCK_RECORD
  5
1F
102
{ACAD_XDICTIONARY
360
1CE
102
}
330
1
100
AcDbSymbolTableRecord
100
AcDbBlockTableRecord
  2
*Model_Space
340
22
  0
BLOCK_RECORD
  5
D2
102
{ACAD_XDICTIONARY
360
BD18
102
}
330
1
100
AcDbSymbolTableRecord
100
AcDbBlockTableRecord
  2
*Paper_Space
340
D3
  0
BLOCK_RECORD
  5
D6
102
{ACAD_XDICTIONARY
360
BD1A
102
}
330
1
100
AcDbSymbolTableRecord
100
AcDbBlockTableRecord
  2
*Paper_Space0
340
D7
  0
BLOCK_RECORD
  5
BB6C
330
1
100
AcDbSymbolTableRecord
100
AcDbBlockTableRecord
  2
SAE500_50_2-Front
340
0
102
{BLKREFS
331
BD0E
102
}
  0
BLOCK_RECORD
  5
BBC9
330
1
100
AcDbSymbolTableRecord
100
AcDbBlockTableRecord
  2
SAE500_50_2-Left
340
0
102
{BLKREFS
331
BD0F
102
}
  0
BLOCK_RECORD
  5
BBE9
330
1
100
AcDbSymbolTableRecord
100
AcDbBlockTableRecord
  2
SAE500_50_2-Right
340
0
102
{BLKREFS
331
BD10
102
}
  0
BLOCK_RECORD
  5
BC0A
330
1
100
AcDbSymbolTableRecord
100
AcDbBlockTableRecord
  2
SAE500_50_2-Top
340
0
102
{BLKREFS
331
BD11
102
}
  0
BLOCK_RECORD
  5
BC39
330
1
100
AcDbSymbolTableRecord
100
AcDbBlockTableRecord
  2
SAE500_50_2-Bottom
340
0
102
{BLKREFS
331
BD12
102
}
  0
BLOCK_RECORD
  5
BC6A
330
1
100
AcDbSymbolTableRecord
100
AcDbBlockTableRecord
  2
SAE500_50_2-ISO
340
0
102
{BLKREFS
331
BD13
102
}
  0
ENDTAB
  0
ENDSEC
  0
SECTION
  2
BLOCKS
  0
BLOCK
  5
20
330
1F
100
AcDbEntity
  8
0
100
AcDbBlockBegin
  2
*Model_Space
 70
     0
 10
0.0
 20
0.0
 30
0.0
  3
*Model_Space
  1

  0
ENDBLK
  5
21
330
1F
100
AcDbEntity
  8
0
100
AcDbBlockEnd
  0
BLOCK
  5
D4
330
D2
100
AcDbEntity
 67
     1
  8
0
100
AcDbBlockBegin
  2
*Paper_Space
 70
     0
 10
0.0
 20
0.0
 30
0.0
  3
*Paper_Space
  1

  0
ENDBLK
  5
D5
330
D2
100
AcDbEntity
 67
     1
  8
0
100
AcDbBlockEnd
  0
BLOCK
  5
D8
330
D6
100
AcDbEntity
 67
     1
  8
0
100
AcDbBlockBegin
  2
*Paper_Space0
 70
     0
 10
0.0
 20
0.0
 30
0.0
  3
*Paper_Space0
  1

  0
ENDBLK
  5
D9
330
D6
100
AcDbEntity
 67
     1
  8
0
100
AcDbBlockEnd
  0
BLOCK
  5
BB6D
330
BB6C
100
AcDbEntity
  8
0
100
AcDbBlockBegin
  2
SAE500_50_2-Front
 70
     0
 10
0.0
 20
0.0
 30
0.0
  3
SAE500_50_2-Front
  1

  0
SPLINE
  5
BB6F
330
BB6C
100
AcDbEntity
  8
0
100
AcDbSpline
210
0.0
220
0.0
230
1.0
 70
     8
 71
     3
 72
    11
 73
     7
 74
     0
 42
0.000000001
 43
0.0000000001
 40
0.0
 40
0.0
 40
0.0
 40
0.0
 40
0.3318338501120348
 40
0.3318338501120348
 40
0.3318338501120348
 40
0.9988175567372985
 40
0.9988175567372985
 40
0.9988175567372985
 40
0.9988175567372985
 10
29.66666666666665
 20
40.37499999999993
 30
0.0
 10
29.35375429160843
 20
40.14541377476072
 30
0.0
 10
28.94839075374271
 20
39.9496539530701
 30
0.0
 10
28.55646205790612
 20
39.75325908154257
 30
0.0
 10
27.76868813371593
 20
39.35850677001859
 30
0.0
 10
27.00270981670153
 20
38.91491576663865
 30
0.0
 10
27.0000071722605
 20
38.00484458534354
 30
0.0
  0
LINE
  5
BB70
330
BB6C
100
AcDbEntity
  8
0
100
AcDbLine
 10
27.0
 20
40.37499999999993
 30
0.0
 11
29.0
 21
40.37499999999993
 31
0.0
  0
SPLINE
  5
BB71
330
BB6C
100
AcDbEntity
  8
0
100
AcDbSpline
210
0.0
220
0.0
230
1.0
 70
     8
 71
     3
 72
    20
 73
    16
 74
     0
 42
0.000000001
 43
0.0000000001
 40
0.0118466435643682
 40
0.0118466435643682
 40
0.0118466435643682
 40
0.0118466435643682
 40
0.0125316835042395
 40
0.0125316835042395
 40
0.0134869952980979
 40
0.0134869952980979
 40
0.0141224290223811
 40
0.0141224290223811
 40
0.0151409013921481
 40
0.0151409013921481
 40
0.0160664081896779
 40
0.0160664081896779
 40
0.0173069994023017
 40
0.0173069994023017
 40
0.0198307681847063
 40
0.0198307681847063
 40
0.0198307681847063
 40
0.0198307681847063
 10
27.00028201842251
 20
38.05709909131169
 30
0.0
 10
27.00028201841949
 20
38.05709909105868
 30
0.0
 10
27.0002803756064
 20
38.05696237440499
 30
0.0
 10
27.0002720573682
 20
38.05624056576448
 30
0.0
 10
27.00026353026333
 20
38.05549352285119
 30
0.0
 10
27.00024327909414
 20
38.05356350751792
 30
0.0
 10
27.00023351524379
 20
38.05260152638957
 30
0.0
 10
27.00020513506955
 20
38.04960640968251
 30
0.0
 10
27.0001842724232
 20
38.04721402655557
 30
0.0
 10
27.00014612915056
 20
38.04204256597682
 30
0.0
 10
27.00012843524947
 20
38.03927616981251
 30
0.0
 10
27.00009350310382
 20
38.03265237408642
 30
0.0
 10
27.00007807469043
 20
38.02870154800245
 30
0.0
 10
27.00004665636561
 20
38.01659708401525
 30
0.0
 10
27.00004636944072
 20
38.008284275183
 30
0.0
 10
27.00006198782727
 20
37.99999979705055
 30
0.0
  0
SPLINE
  5
BB72
330
BB6C
100
AcDbEntity
  8
0
100
AcDbSpline
210
0.0
220
0.0
230
1.0
 70
     8
 71
     3
 72
    20
 73
    16
 74
     0
 42
0.000000001
 43
0.0000000001
 40
0.0062272028394753
 40
0.0062272028394753
 40
0.0062272028394753
 40
0.0062272028394753
 40
0.0063390829942029
 40
0.0063390829942029
 40
0.0068553603702344
 40
0.0068553603702344
 40
0.0073931858038145
 40
0.0073931858038145
 40
0.0081029332106022
 40
0.0081029332106022
 40
0.0099353998906606
 40
0.0099353998906606
 40
0.0118121314750242
 40
0.0118121314750242
 40
0.0129945035430076
 40
0.0129945035430076
 40
0.0129945035430076
 40
0.0129945035430076
 10
27.00016146702671
 20
38.05163818948865
 30
0.0
 10
27.0001614670267
 20
38.05163818948738
 30
0.0
 10
27.00016135944478
 20
38.05162508342645
 30
0.0
 10
27.00016016867803
 20
38.05147953964347
 30
0.0
 10
27.00015685285807
 20
38.05107527050066
 30
0.0
 10
27.00014671744956
 20
38.04978573045583
 30
0.0
 10
27.00013955465881
 20
38.0488505113518
 30
0.0
 10
27.00012217852675
 20
38.04644598357734
 30
0.0
 10
27.00011204931333
 20
38.04495327461657
 30
0.0
 10
27.00007642853005
 20
38.0392281350439
 30
0.0
 10
27.00005177342801
 20
38.03431102522262
 30
0.0
 10
27.00001600984202
 20
38.02356614421697
 30
0.0
 10
27.00000495068149
 20
38.01762332098235
 30
0.0
 10
27.00000180635463
 20
38.00776784655371
 30
0.0
 10
27.00000407070227
 20
38.00389128778178
 30
0.0
 10
27.00000964938138
 20
37.99999863714268
 30
0.0
  0
SPLINE
  5
BB73
330
BB6C
100
AcDbEntity
  8
0
100
AcDbSpline
210
0.0
220
0.0
230
1.0
 70
     8
 71
     3
 72
     8
 73
     4
 74
     0
 42
0.000000001
 43
0.0000000001
 40
0.0
 40
0.0
 40
0.0
 40
0.0
 40
0.0023922961947442
 40
0.0023922961947442
 40
0.0023922961947442
 40
0.0023922961947442
 10
24.99955485052308
 20
38.0000008784643
 30
0.0
 10
24.9995623758586
 20
38.00693441896982
 30
0.0
 10
24.99956918679449
 20
38.01363641948147
 30
0.0
 10
24.99957458170479
 20
38.0199358875891
 30
0.0
  0
SPLINE
  5
BB74
330
BB6C
100
AcDbEntity
  8
0
100
AcDbSpline
210
0.0
220
0.0
230
1.0
 70
     8
 71
     3
 72
    28
 73
    24
 74
     0
 42
0.000000001
 43
0.0000000001
 40
0.0003098846478623
 40
0.0003098846478623
 40
0.0003098846478623
 40
0.0003098846478623
 40
0.0018912656916251
 40
0.0018912656916251
 40
0.0040119155160887
 40
0.0040119155160887
 40
0.0069515046222213
 40
0.0069515046222213
 40
0.0104036893916057
 40
0.0104036893916057
 40
0.0140617815711906
 40
0.0140617815711906
 40
0.0188504532363843
 40
0.0188504532363843
 40
0.0293184383051602
 40
0.0293184383051602
 40
0.059689738375882
 40
0.059689738375882
 40
0.1412210133045167
 40
0.1412210133045167
 40
0.22568134078683
 40
0.22568134078683
 40
0.2464147002683124
 40
0.2464147002683124
 40
0.2464147002683124
 40
0.2464147002683124
 10
24.99993886704964
 20
38.00235947360235
 30
0.0
 10
24.99985460691186
 20
38.00646822774994
 30
0.0
 10
24.999760034187
 20
38.01104347074377
 30
0.0
 10
24.99952847036107
 20
38.02215770113491
 30
0.0
 10
24.99938546144307
 20
38.02895711948513
 30
0.0
 10
24.99903715679487
 20
38.04542290078766
 30
0.0
 10
24.99882514634625
 20
38.05537336581841
 30
0.0
 10
24.9983733954374
 20
38.07664180743794
 30
0.0
 10
24.99813024001078
 20
38.08814333612976
 30
0.0
 10
24.99766844215181
 20
38.11034860471372
 30
0.0
 10
24.99744888173087
 20
38.12111404301565
 30
0.0
 10
24.99698623936446
 20
38.14435312066455
 30
0.0
 10
24.99675072796404
 20
38.15662487403509
 30
0.0
 10
24.99606222730361
 20
38.19397227034179
 30
0.0
 10
24.99567330542792
 20
38.21745252382463
 30
0.0
 10
24.99436223435763
 20
38.30667759650795
 30
0.0
 10
24.99383935550351
 20
38.36685641978054
 30
0.0
 10
24.99286342333736
 20
38.60028975262905
 30
0.0
 10
24.99446486164112
 20
38.80063233849436
 30
0.0
 10
24.99827884338758
 20
39.26221988117306
 30
0.0
 10
24.99962318497207
 20
39.52980145272432
 30
0.0
 10
24.99993694917582
 20
39.87295759991049
 30
0.0
 10
24.99997785677294
 20
39.94137803472675
 30
0.0
 10
24.99999999999999
 20
40.00998339946961
 30
0.0
  0
SPLINE
  5
BB75
330
BB6C
100
AcDbEntity
  8
0
100
AcDbSpline
210
0.0
220
0.0
230
1.0
 70
     8
 71
     3
 72
    12
 73
     8
 74
     0
 42
0.000000001
 43
0.0000000001
 40
0.0
 40
0.0
 40
0.0
 40
0.0
 40
0.0030476956510586
 40
0.0030476956510586
 40
0.0059939854024059
 40
0.0059939854024059
 40
0.0075040104163866
 40
0.0075040104163866
 40
0.0075040104163866
 40
0.0075040104163866
 10
24.99994323884805
 20
37.9999998763846
 30
0.0
 10
24.99993102340577
 20
38.00666306303672
 30
0.0
 10
24.99991987183261
 20
38.01209063908269
 30
0.0
 10
24.99990274638846
 20
38.01960428078177
 30
0.0
 10
24.99989650539153
 20
38.02190087259405
 30
0.0
 10
24.99989178869278
 20
38.02354574883109
 30
0.0
 10
24.99989097901988
 20
38.02379877077946
 30
0.0
 10
24.99989097901999
 20
38.02379877074388
 30
0.0
  0
SPLINE
  5
BB76
330
BB6C
100
AcDbEntity
  8
0
100
AcDbSpline
210
0.0
220
0.0
230
1.0
 70
     8
 71
     3
 72
     8
 73
     4
 74
     0
 42
0.000000001
 43
0.0000000001
 40
0.0
 40
0.0
 40
0.0
 40
0.0
 40
0.0003847263045
 40
0.0003847263045
 40
0.0003847263045
 40
0.0003847263045
 10
29.66669016747372
 20
40.37496639813795
 30
0.0
 10
29.66635767819777
 20
40.37473395400563
 30
0.0
 10
29.66601909354755
 20
40.37449728137207
 30
0.0
 10
29.66567782677252
 20
40.37425870252064
 30
0.0
  0
SPLINE
  5
BB77
330
BB6C
100
AcDbEntity
  8
0
100
AcDbSpline
210
0.0
220
0.0
230
1.0
 70
     8
 71
     3
 72
     8
 73
     4
 74
     0
 42
0.000000001
 43
0.0000000001
 40
0.0
 40
0.0
 40
0.0
 40
0.0
 40
0.0006768141029597
 40
0.0006768141029597
 40
0.0006768141029597
 40
0.0006768141029597
 10
29.66670459135141
 20
40.37494811212837
 30
0.0
 10
29.66533155418408
 20
40.3739440412385
 30
0.0
 10
29.66387993787813
 20
40.37288363461988
 30
0.0
 10
29.66237011968844
 20
40.37178206626495
 30
0.0
  0
LINE
  5
BB78
330
BB6C
100
AcDbEntity
  8
0
100
AcDbLine
 10
22.99999999999998
 20
-2.0
 30
0.0
 11
-22.99999999999999
 21
-1.999999999999998
 31
0.0
  0
LINE
  5
BB79
330
BB6C
100
AcDbEntity
  8
0
100
AcDbLine
 10
-22.99999999999999
 20
0.0
 30
0.0
 11
22.99999999999999
 21
0.0
 31
0.0
  0
LINE
  5
BB7A
330
BB6C
100
AcDbEntity
  8
0
100
AcDbLine
 10
-29.0
 20
40.37499999999993
 30
0.0
 11
-27.0
 21
40.37499999999993
 31
0.0
  0
SPLINE
  5
BB7B
330
BB6C
100
AcDbEntity
  8
0
100
AcDbSpline
210
0.0
220
0.0
230
1.0
 70
     8
 71
     3
 72
    11
 73
     7
 74
     0
 42
0.000000001
 43
0.0000000001
 40
0.0
 40
0.0
 40
0.0
 40
0.0
 40
0.3318338501120348
 40
0.3318338501120348
 40
0.3318338501120348
 40
0.9988179748244231
 40
0.9988179748244231
 40
0.9988179748244231
 40
0.9988179748244231
 10
-29.66666666666665
 20
40.37499999999993
 30
0.0
 10
-29.35375429160843
 20
40.14541377476072
 30
0.0
 10
-28.94839075374271
 20
39.9496539530701
 30
0.0
 10
-28.55646205790612
 20
39.75325908154257
 30
0.0
 10
-27.76868763991356
 20
39.35850652257498
 30
0.0
 10
-27.00270885642119
 20
38.91491521052403
 30
0.0
 10
-27.00000716717908
 20
38.00484287395615
 30
0.0
  0
SPLINE
  5
BB7C
330
BB6C
100
AcDbEntity
  8
0
100
AcDbSpline
210
0.0
220
0.0
230
1.0
 70
     8
 71
     3
 72
    28
 73
    24
 74
     0
 42
0.000000001
 43
0.0000000001
 40
0.0078946203216753
 40
0.0078946203216753
 40
0.0078946203216753
 40
0.0078946203216753
 40
0.0780481889474485
 40
0.0780481889474485
 40
0.1679973226931344
 40
0.1679973226931344
 40
0.20536984802002
 40
0.20536984802002
 40
0.2307949513096745
 40
0.2307949513096745
 40
0.2401799651088586
 40
0.2401799651088586
 40
0.248421400313812
 40
0.248421400313812
 40
0.2509521809439627
 40
0.2509521809439627
 40
0.2551928653402807
 40
0.2551928653402807
 40
0.2571410532391205
 40
0.2571410532391205
 40
0.2590084720379397
 40
0.2590084720379397
 40
0.2606712338325914
 40
0.2606712338325914
 40
0.2606712338325914
 40
0.2606712338325914
 10
-25.00000000000002
 20
40.0756878644317
 30
0.0
 10
-24.99990533138584
 20
39.84233890285732
 30
0.0
 10
-24.99982402076489
 20
39.60947180789951
 30
0.0
 10
-24.99752432250397
 20
39.11927512605587
 30
0.0
 10
-24.99452183374405
 20
38.86299656958961
 30
0.0
 10
-24.99329274895232
 20
38.56283551842462
 30
0.0
 10
-24.99327560906257
 20
38.48218181940929
 30
0.0
 10
-24.99398229023877
 20
38.35230822882893
 30
0.0
 10
-24.99446010125741
 20
38.30132027854452
 30
0.0
 10
-24.99554631657846
 20
38.22570218833895
 30
0.0
 10
-24.99588206577589
 20
38.20479849156251
 30
0.0
 10
-24.99662441828493
 20
38.16302608190202
 30
0.0
 10
-24.99701978983081
 20
38.14232255414012
 30
0.0
 10
-24.99765257307031
 20
38.11115780160289
 30
0.0
 10
-24.99781187035597
 20
38.10343071585825
 30
0.0
 10
-24.99825798666177
 20
38.08205238704312
 30
0.0
 10
-24.9985659172046
 20
38.06757365161097
 30
0.0
 10
-24.99900384010097
 20
38.04697495103144
 30
0.0
 10
-24.99914159933228
 20
38.04049032177398
 30
0.0
 10
-24.99940297552169
 20
38.02812307684056
 30
0.0
 10
-24.99952821018108
 20
38.02216574387409
 30
0.0
 10
-24.99975025905509
 20
38.01151607965959
 30
0.0
 10
-24.99985024007566
 20
38.00668014399232
 30
0.0
 10
-24.99993886477668
 20
38.00235932302579
 30
0.0
  0
SPLINE
  5
BB7D
330
BB6C
100
AcDbEntity
  8
0
100
AcDbSpline
210
0.0
220
0.0
230
1.0
 70
     8
 71
     3
 72
    10
 73
     6
 74
     0
 42
0.000000001
 43
0.0000000001
 40
0.0216569754231239
 40
0.0216569754231239
 40
0.0216569754231239
 40
0.0216569754231239
 40
0.0220080549000834
 40
0.0220080549000834
 40
0.0240512706592395
 40
0.0240512706592395
 40
0.0240512706592395
 40
0.0240512706592395
 10
-24.99957457505381
 20
38.01993647176576
 30
0.0
 10
-24.99957378076294
 20
38.01901128362159
 30
0.0
 10
-24.99957295603366
 20
38.01807834162229
 30
0.0
 10
-24.99956714695063
 20
38.01166832916313
 30
0.0
 10
-24.99956127777242
 20
38.0059226866663
 30
0.0
 10
-24.99955485052308
 20
38.00000087846431
 30
0.0
  0
SPLINE
  5
BB7E
330
BB6C
100
AcDbEntity
  8
0
100
AcDbSpline
210
0.0
220
0.0
230
1.0
 70
     8
 71
     3
 72
    12
 73
     8
 74
     0
 42
0.000000001
 43
0.0000000001
 40
0.0137676187733384
 40
0.0137676187733384
 40
0.0137676187733384
 40
0.0137676187733384
 40
0.0170361974090032
 40
0.0170361974090032
 40
0.0191027998654269
 40
0.0191027998654269
 40
0.0212752875714451
 40
0.0212752875714451
 40
0.0212752875714451
 40
0.0212752875714451
 10
-24.99989097901998
 20
38.0237987707459
 30
0.0
 10
-24.99989097899886
 20
38.02379877737939
 30
0.0
 10
-24.99989491305755
 20
38.022581845884
 30
0.0
 10
-24.9999066791332
 20
38.01788492189133
 30
0.0
 10
-24.99991254997676
 20
38.01538537314904
 30
0.0
 10
-24.99992639310581
 20
38.00887591865873
 30
0.0
 10
-24.99993453131911
 20
38.00474959313529
 30
0.0
 10
-24.99994323884808
 20
37.9999998763846
 30
0.0
  0
SPLINE
  5
BB7F
330
BB6C
100
AcDbEntity
  8
0
100
AcDbSpline
210
0.0
220
0.0
230
1.0
 70
     8
 71
     3
 72
    18
 73
    14
 74
     0
 42
0.000000001
 43
0.0000000001
 40
0.0
 40
0.0
 40
0.0
 40
0.0
 40
0.002962291919131
 40
0.002962291919131
 40
0.0045864987308346
 40
0.0045864987308346
 40
0.0054328792463226
 40
0.0054328792463226
 40
0.0066406014697601
 40
0.0066406014697601
 40
0.0078360598815468
 40
0.0078360598815468
 40
0.0079764367527467
 40
0.0079764367527467
 40
0.0079764367527467
 40
0.0079764367527467
 10
-27.00006198782729
 20
37.99999979705059
 30
0.0
 10
-27.00004365563277
 20
38.00972376336519
 30
0.0
 10
-27.00004751734633
 20
38.01951972259104
 30
0.0
 10
-27.00009872661252
 20
38.03409159216485
 30
0.0
 10
-27.00012683814679
 20
38.03928158495727
 30
0.0
 10
-27.0001749469571
 20
38.04600706747884
 30
0.0
 10
-27.00019227375814
 20
38.04811062657608
 30
0.0
 10
-27.00023029086257
 20
38.05235307652671
 30
0.0
 10
-27.00024948525967
 20
38.05417948344647
 30
0.0
 10
-27.00027418562175
 20
38.05644866406481
 30
0.0
 10
-27.00028063518298
 20
38.05698254592135
 30
0.0
 10
-27.00028195032788
 20
38.05709338371913
 30
0.0
 10
-27.00028201843633
 20
38.05709909246979
 30
0.0
 10
-27.00028201842251
 20
38.05709909131186
 30
0.0
  0
SPLINE
  5
BB80
330
BB6C
100
AcDbEntity
  8
0
100
AcDbSpline
210
0.0
220
0.0
230
1.0
 70
     8
 71
     3
 72
    18
 73
    14
 74
     0
 42
0.000000001
 43
0.0000000001
 40
0.0
 40
0.0
 40
0.0
 40
0.0
 40
0.0019404465052424
 40
0.0019404465052424
 40
0.0035407678159983
 40
0.0035407678159983
 40
0.0056558233906203
 40
0.0056558233906203
 40
0.0061095438538278
 40
0.0061095438538278
 40
0.0064444403283396
 40
0.0064444403283396
 40
0.0067624210556795
 40
0.0067624210556795
 40
0.0067624210556795
 40
0.0067624210556795
 10
-27.00000964938137
 20
37.99999863714268
 30
0.0
 10
-27.00000049394829
 20
38.00638704949891
 30
0.0
 10
-27.0000004305294
 20
38.01276013850841
 30
0.0
 10
-27.00001720665242
 20
38.02383983967182
 30
0.0
 10
-27.00003119948812
 20
38.02868864152722
 30
0.0
 10
-27.00007332385817
 20
38.03893591692401
 30
0.0
 10
-27.00010522824178
 20
38.04414311152061
 30
0.0
 10
-27.00014085770144
 20
38.04901934089764
 30
0.0
 10
-27.00014666896173
 20
38.04977772522871
 30
0.0
 10
-27.00015448645003
 20
38.05077530779204
 30
0.0
 10
-27.00015714223181
 20
38.05110573371278
 30
0.0
 10
-27.00016057916501
 20
38.05153038346125
 30
0.0
 10
-27.00016146702708
 20
38.05163818953468
 30
0.0
 10
-27.00016146702666
 20
38.05163818948368
 30
0.0
  0
SPLINE
  5
BB81
330
BB6C
100
AcDbEntity
  8
0
100
AcDbSpline
210
0.0
220
0.0
230
1.0
 70
     8
 71
     3
 72
     8
 73
     4
 74
     0
 42
0.000000001
 43
0.0000000001
 40
0.3040864563538564
 40
0.3040864563538564
 40
0.3040864563538564
 40
0.3040864563538564
 40
0.3047633838141892
 40
0.3047633838141892
 40
0.3047633838141892
 40
0.3047633838141892
 10
-29.66236986616438
 20
40.37178204830265
 30
0.0
 10
-29.66388043331137
 20
40.37288416309933
 30
0.0
 10
-29.66533132421857
 20
40.37394387306995
 30
0.0
 10
-29.66670459135141
 20
40.37494811212837
 30
0.0
  0
SPLINE
  5
BB82
330
BB6C
100
AcDbEntity
  8
0
100
AcDbSpline
210
0.0
220
0.0
230
1.0
 70
     8
 71
     3
 72
     8
 73
     4
 74
     0
 42
0.000000001
 43
0.0000000001
 40
0.0185048890737972
 40
0.0185048890737972
 40
0.0185048890737972
 40
0.0185048890737972
 40
0.0188897805817944
 40
0.0188897805817944
 40
0.0188897805817944
 40
0.0188897805817944
 10
-29.66567871144595
 20
40.3742592971774
 30
0.0
 10
-29.66601983921286
 20
40.37449777884858
 30
0.0
 10
-29.66635753542508
 20
40.37473385419288
 30
0.0
 10
-29.66669016747369
 20
40.37496639813794
 30
0.0
  0
ARC
  5
BB83
330
BB6C
100
AcDbEntity
  8
0
100
AcDbCircle
 10
-22.99999999999999
 20
2.0
 30
0.0
 40
3.999999999999999
100
AcDbArc
 50
180.0
 51
270.0
  0
ARC
  5
BB84
330
BB6C
100
AcDbEntity
  8
0
100
AcDbCircle
 10
-22.99999999999999
 20
2.0
 30
0.0
 40
1.999999999999997
100
AcDbArc
 50
180.0
 51
270.0
  0
ARC
  5
BB85
330
BB6C
100
AcDbEntity
  8
0
100
AcDbCircle
 10
22.99999999999999
 20
2.0
 30
0.0
 40
3.999999999999999
100
AcDbArc
 50
270.0
 51
0.0
  0
LINE
  5
BB86
330
BB6C
100
AcDbEntity
  8
0
100
AcDbLine
 10
29.66666666666666
 20
40.37499999999993
 30
0.0
 11
66.50000000000003
 21
67.99999999999997
 31
0.0
  0
LINE
  5
BB87
330
BB6C
100
AcDbEntity
  8
0
100
AcDbLine
 10
24.99999999999999
 20
38.00000000000001
 30
0.0
 11
25.0
 21
67.99999999999997
 31
0.0
  0
LINE
  5
BB88
330
BB6C
100
AcDbEntity
  8
0
100
AcDbLine
 10
26.99999999999999
 20
38.00000000000001
 30
0.0
 11
24.99999999999999
 21
38.00000000000001
 31
0.0
  0
LINE
  5
BB89
330
BB6C
100
AcDbEntity
  8
0
100
AcDbLine
 10
26.99999999999999
 20
67.99999999999997
 30
0.0
 11
26.99999999999999
 21
38.00000000000001
 31
0.0
  0
LINE
  5
BB8A
330
BB6C
100
AcDbEntity
  8
0
100
AcDbLine
 10
26.99999999999999
 20
67.99999999999997
 30
0.0
 11
25.0
 21
67.99999999999997
 31
0.0
  0
LINE
  5
BB8B
330
BB6C
100
AcDbEntity
  8
0
100
AcDbLine
 10
25.0
 20
67.99999999999997
 30
0.0
 11
25.0
 21
225.0
 31
0.0
  0
LINE
  5
BB8C
330
BB6C
100
AcDbEntity
  8
0
100
AcDbLine
 10
26.99999999999999
 20
225.0
 30
0.0
 11
26.99999999999999
 21
67.99999999999997
 31
0.0
  0
LINE
  5
BB8D
330
BB6C
100
AcDbEntity
  8
0
100
AcDbLine
 10
25.0
 20
225.0
 30
0.0
 11
26.99999999999999
 21
225.0
 31
0.0
  0
LINE
  5
BB8E
330
BB6C
100
AcDbEntity
  8
0
100
AcDbLine
 10
26.99999999999999
 20
38.00000000000001
 30
0.0
 11
26.99999999999999
 21
2.000000000000001
 31
0.0
  0
LINE
  5
BB8F
330
BB6C
100
AcDbEntity
  8
0
100
AcDbLine
 10
24.99999999999998
 20
2.0
 30
0.0
 11
24.99999999999999
 21
38.00000000000001
 31
0.0
  0
ARC
  5
BB90
330
BB6C
100
AcDbEntity
  8
0
100
AcDbCircle
 10
22.99999999999999
 20
2.0
 30
0.0
 40
1.999999999999997
100
AcDbArc
 50
270.0
 51
0.0
  0
LINE
  5
BB91
330
BB6C
100
AcDbEntity
  8
0
100
AcDbLine
 10
29.0
 20
225.0
 30
0.0
 11
27.0
 21
225.0
 31
0.0
  0
LINE
  5
BB92
330
BB6C
100
AcDbEntity
  8
0
100
AcDbLine
 10
66.50000000000003
 20
67.99999999999997
 30
0.0
 11
66.50000000000002
 21
225.0
 31
0.0
  0
LINE
  5
BB93
330
BB6C
100
AcDbEntity
  8
0
100
AcDbLine
 10
66.50000000000002
 20
225.0
 30
0.0
 11
29.0
 21
225.0
 31
0.0
  0
CIRCLE
  5
BB94
330
BB6C
100
AcDbEntity
  8
0
100
AcDbCircle
 10
47.00000000000001
 20
205.0
 30
0.0
 40
6.5
  0
CIRCLE
  5
BB95
330
BB6C
100
AcDbEntity
  8
0
100
AcDbCircle
 10
58.0
 20
210.0
 30
0.0
 40
2.5
  0
LINE
  5
BB96
330
BB6C
100
AcDbEntity
  8
0
100
AcDbLine
 10
-66.50000000000003
 20
67.99999999999997
 30
0.0
 11
-29.66666666666666
 21
40.37499999999993
 31
0.0
  0
LINE
  5
BB97
330
BB6C
100
AcDbEntity
  8
0
100
AcDbLine
 10
-25.0
 20
67.99999999999997
 30
0.0
 11
-24.99999999999999
 21
38.00000000000001
 31
0.0
  0
LINE
  5
BB98
330
BB6C
100
AcDbEntity
  8
0
100
AcDbLine
 10
-26.99999999999999
 20
67.99999999999997
 30
0.0
 11
-25.0
 21
67.99999999999997
 31
0.0
  0
LINE
  5
BB99
330
BB6C
100
AcDbEntity
  8
0
100
AcDbLine
 10
-26.99999999999999
 20
38.00000000000001
 30
0.0
 11
-26.99999999999999
 21
67.99999999999997
 31
0.0
  0
LINE
  5
BB9A
330
BB6C
100
AcDbEntity
  8
0
100
AcDbLine
 10
-24.99999999999999
 20
38.00000000000001
 30
0.0
 11
-26.99999999999999
 21
38.00000000000001
 31
0.0
  0
LINE
  5
BB9B
330
BB6C
100
AcDbEntity
  8
0
100
AcDbLine
 10
-25.0
 20
225.0
 30
0.0
 11
-25.0
 21
67.99999999999997
 31
0.0
  0
LINE
  5
BB9C
330
BB6C
100
AcDbEntity
  8
0
100
AcDbLine
 10
-26.99999999999999
 20
225.0
 30
0.0
 11
-25.0
 21
225.0
 31
0.0
  0
LINE
  5
BB9D
330
BB6C
100
AcDbEntity
  8
0
100
AcDbLine
 10
-26.99999999999999
 20
67.99999999999997
 30
0.0
 11
-26.99999999999999
 21
225.0
 31
0.0
  0
CIRCLE
  5
BB9E
330
BB6C
100
AcDbEntity
  8
0
100
AcDbCircle
 10
-47.00000000000001
 20
75.0
 30
0.0
 40
6.5
  0
CIRCLE
  5
BB9F
330
BB6C
100
AcDbEntity
  8
0
100
AcDbCircle
 10
47.00000000000001
 20
75.0
 30
0.0
 40
6.5
  0
CIRCLE
  5
BBA0
330
BB6C
100
AcDbEntity
  8
0
100
AcDbCircle
 10
-47.00000000000001
 20
145.0
 30
0.0
 40
6.5
  0
CIRCLE
  5
BBA1
330
BB6C
100
AcDbEntity
  8
0
100
AcDbCircle
 10
47.00000000000001
 20
145.0
 30
0.0
 40
6.5
  0
CIRCLE
  5
BBA2
330
BB6C
100
AcDbEntity
  8
0
100
AcDbCircle
 10
-47.00000000000001
 20
205.0
 30
0.0
 40
6.5
  0
CIRCLE
  5
BBA3
330
BB6C
100
AcDbEntity
  8
0
100
AcDbCircle
 10
-36.00000000000001
 20
60.0
 30
0.0
 40
2.5
  0
CIRCLE
  5
BBA4
330
BB6C
100
AcDbEntity
  8
0
100
AcDbCircle
 10
-36.00000000000001
 20
80.0
 30
0.0
 40
2.5
  0
CIRCLE
  5
BBA5
330
BB6C
100
AcDbEntity
  8
0
100
AcDbCircle
 10
-36.00000000000001
 20
100.0
 30
0.0
 40
2.5
  0
CIRCLE
  5
BBA6
330
BB6C
100
AcDbEntity
  8
0
100
AcDbCircle
 10
-36.00000000000001
 20
120.0
 30
0.0
 40
2.5
  0
CIRCLE
  5
BBA7
330
BB6C
100
AcDbEntity
  8
0
100
AcDbCircle
 10
-36.00000000000001
 20
140.0
 30
0.0
 40
2.5
  0
CIRCLE
  5
BBA8
330
BB6C
100
AcDbEntity
  8
0
100
AcDbCircle
 10
-36.00000000000001
 20
160.0
 30
0.0
 40
2.5
  0
CIRCLE
  5
BBA9
330
BB6C
100
AcDbEntity
  8
0
100
AcDbCircle
 10
-36.00000000000001
 20
180.0
 30
0.0
 40
2.5
  0
CIRCLE
  5
BBAA
330
BB6C
100
AcDbEntity
  8
0
100
AcDbCircle
 10
-36.00000000000001
 20
200.0
 30
0.0
 40
2.5
  0
CIRCLE
  5
BBAB
330
BB6C
100
AcDbEntity
  8
0
100
AcDbCircle
 10
36.00000000000001
 20
60.0
 30
0.0
 40
2.5
  0
CIRCLE
  5
BBAC
330
BB6C
100
AcDbEntity
  8
0
100
AcDbCircle
 10
36.00000000000001
 20
80.0
 30
0.0
 40
2.5
  0
CIRCLE
  5
BBAD
330
BB6C
100
AcDbEntity
  8
0
100
AcDbCircle
 10
36.00000000000001
 20
100.0
 30
0.0
 40
2.5
  0
CIRCLE
  5
BBAE
330
BB6C
100
AcDbEntity
  8
0
100
AcDbCircle
 10
36.00000000000001
 20
120.0
 30
0.0
 40
2.5
  0
CIRCLE
  5
BBAF
330
BB6C
100
AcDbEntity
  8
0
100
AcDbCircle
 10
36.00000000000001
 20
140.0
 30
0.0
 40
2.5
  0
CIRCLE
  5
BBB0
330
BB6C
100
AcDbEntity
  8
0
100
AcDbCircle
 10
36.00000000000001
 20
160.0
 30
0.0
 40
2.5
  0
CIRCLE
  5
BBB1
330
BB6C
100
AcDbEntity
  8
0
100
AcDbCircle
 10
36.00000000000001
 20
180.0
 30
0.0
 40
2.5
  0
CIRCLE
  5
BBB2
330
BB6C
100
AcDbEntity
  8
0
100
AcDbCircle
 10
36.00000000000001
 20
200.0
 30
0.0
 40
2.5
  0
CIRCLE
  5
BBB3
330
BB6C
100
AcDbEntity
  8
0
100
AcDbCircle
 10
-36.00000000000001
 20
220.0
 30
0.0
 40
2.5
  0
CIRCLE
  5
BBB4
330
BB6C
100
AcDbEntity
  8
0
100
AcDbCircle
 10
36.00000000000001
 20
220.0
 30
0.0
 40
2.5
  0
CIRCLE
  5
BBB5
330
BB6C
100
AcDbEntity
  8
0
100
AcDbCircle
 10
-58.0
 20
70.0
 30
0.0
 40
2.5
  0
CIRCLE
  5
BBB6
330
BB6C
100
AcDbEntity
  8
0
100
AcDbCircle
 10
-58.0
 20
90.0
 30
0.0
 40
2.5
  0
CIRCLE
  5
BBB7
330
BB6C
100
AcDbEntity
  8
0
100
AcDbCircle
 10
-58.0
 20
110.0
 30
0.0
 40
2.5
  0
CIRCLE
  5
BBB8
330
BB6C
100
AcDbEntity
  8
0
100
AcDbCircle
 10
-58.0
 20
130.0
 30
0.0
 40
2.5
  0
CIRCLE
  5
BBB9
330
BB6C
100
AcDbEntity
  8
0
100
AcDbCircle
 10
-58.0
 20
150.0
 30
0.0
 40
2.5
  0
CIRCLE
  5
BBBA
330
BB6C
100
AcDbEntity
  8
0
100
AcDbCircle
 10
-58.0
 20
170.0
 30
0.0
 40
2.5
  0
CIRCLE
  5
BBBB
330
BB6C
100
AcDbEntity
  8
0
100
AcDbCircle
 10
-58.0
 20
190.0
 30
0.0
 40
2.5
  0
CIRCLE
  5
BBBC
330
BB6C
100
AcDbEntity
  8
0
100
AcDbCircle
 10
58.0
 20
70.0
 30
0.0
 40
2.5
  0
CIRCLE
  5
BBBD
330
BB6C
100
AcDbEntity
  8
0
100
AcDbCircle
 10
58.0
 20
90.0
 30
0.0
 40
2.5
  0
CIRCLE
  5
BBBE
330
BB6C
100
AcDbEntity
  8
0
100
AcDbCircle
 10
58.0
 20
110.0
 30
0.0
 40
2.5
  0
CIRCLE
  5
BBBF
330
BB6C
100
AcDbEntity
  8
0
100
AcDbCircle
 10
58.0
 20
130.0
 30
0.0
 40
2.5
  0
CIRCLE
  5
BBC0
330
BB6C
100
AcDbEntity
  8
0
100
AcDbCircle
 10
58.0
 20
150.0
 30
0.0
 40
2.5
  0
CIRCLE
  5
BBC1
330
BB6C
100
AcDbEntity
  8
0
100
AcDbCircle
 10
58.0
 20
170.0
 30
0.0
 40
2.5
  0
CIRCLE
  5
BBC2
330
BB6C
100
AcDbEntity
  8
0
100
AcDbCircle
 10
58.0
 20
190.0
 30
0.0
 40
2.5
  0
CIRCLE
  5
BBC3
330
BB6C
100
AcDbEntity
  8
0
100
AcDbCircle
 10
-58.0
 20
210.0
 30
0.0
 40
2.5
  0
LINE
  5
BBC4
330
BB6C
100
AcDbEntity
  8
0
100
AcDbLine
 10
-66.50000000000002
 20
225.0
 30
0.0
 11
-29.0
 21
225.0
 31
0.0
  0
LINE
  5
BBC5
330
BB6C
100
AcDbEntity
  8
0
100
AcDbLine
 10
-66.50000000000003
 20
67.99999999999997
 30
0.0
 11
-66.50000000000002
 21
225.0
 31
0.0
  0
LINE
  5
BBC6
330
BB6C
100
AcDbEntity
  8
0
100
AcDbLine
 10
-24.99999999999998
 20
2.0
 30
0.0
 11
-24.99999999999999
 21
38.00000000000001
 31
0.0
  0
LINE
  5
BBC7
330
BB6C
100
AcDbEntity
  8
0
100
AcDbLine
 10
-26.99999999999999
 20
38.00000000000001
 30
0.0
 11
-26.99999999999999
 21
2.000000000000001
 31
0.0
  0
LINE
  5
BBC8
330
BB6C
100
AcDbEntity
  8
0
100
AcDbLine
 10
-29.0
 20
225.0
 30
0.0
 11
-27.0
 21
225.0
 31
0.0
  0
ENDBLK
  5
BB6E
330
BB6C
100
AcDbEntity
  8
0
100
AcDbBlockEnd
  0
BLOCK
  5
BBCA
330
BBC9
100
AcDbEntity
  8
0
100
AcDbBlockBegin
  2
SAE500_50_2-Left
 70
     0
 10
0.0
 20
0.0
 30
0.0
  3
SAE500_50_2-Left
  1

  0
LINE
  5
BBCC
330
BBC9
100
AcDbEntity
  8
0
100
AcDbLine
 10
2.000000000000005
 20
-2.0
 30
0.0
 11
86.00000000000001
 21
-1.999999999999998
 31
0.0
  0
LINE
  5
BBCD
330
BBC9
100
AcDbEntity
  8
0
100
AcDbLine
 10
2.000000000000011
 20
2.000000000000004
 30
0.0
 11
2.000000000000005
 21
-1.999999999999999
 31
0.0
  0
LINE
  5
BBCE
330
BBC9
100
AcDbEntity
  8
0
100
AcDbLine
 10
86.00000000000001
 20
-1.999999999999998
 30
0.0
 11
86.00000000000001
 21
2.0
 31
0.0
  0
SPLINE
  5
BBCF
330
BBC9
100
AcDbEntity
  8
0
100
AcDbSpline
210
0.0
220
0.0
230
1.0
 70
     8
 71
     3
 72
    14
 73
    10
 74
     0
 42
0.000000001
 43
0.0000000001
 40
-0.4382398763102669
 40
-0.4382398763102669
 40
-0.4382398763102669
 40
-0.4382398763102669
 40
-0.3797498890805
 40
-0.3797498890805
 40
-0.3797498890805
 40
-0.0799923328232457
 40
-0.0799923328232457
 40
-0.0799923328232457
 40
0.0
 40
0.0
 40
0.0
 40
0.0
 10
0.8175995219292691
 20
39.70134698001397
 30
0.0
 10
0.7603845044443763
 20
39.71534982610986
 30
0.0
 10
0.7040581676195857
 20
39.72853712405359
 30
0.0
 10
0.6494211719877728
 20
39.74212695790739
 30
0.0
 10
0.3694099586583315
 20
39.81177401339321
 30
0.0
 10
0.1286161190781323
 20
39.89183881156214
 30
0.0
 10
0.0375464459017908
 20
40.13706507632016
 30
0.0
 10
0.013243887201405
 20
40.20250536490689
 30
0.0
 10
0.0000044906778042
 20
40.28210893939907
 30
0.0
 10
0.0000000000623262
 20
40.37500000002214
 30
0.0
  0
SPLINE
  5
BBD0
330
BBC9
100
AcDbEntity
  8
0
100
AcDbSpline
210
0.0
220
0.0
230
1.0
 70
     8
 71
     3
 72
    11
 73
     7
 74
     0
 42
0.000000001
 43
0.0000000001
 40
0.0
 40
0.0
 40
0.0
 40
0.0
 40
0.3318338501120348
 40
0.3318338501120348
 40
0.3318338501120348
 40
1.0
 40
1.0
 40
1.0
 40
1.0
 10
2.000000000000019
 20
40.37499999999993
 30
0.0
 10
2.000040447362361
 20
40.14541377476072
 30
0.0
 10
1.996205994621999
 20
39.9496539530701
 30
0.0
 10
1.998524212983933
 20
39.75325908154257
 30
0.0
 10
2.003192076244327
 20
39.35780694451077
 30
0.0
 10
2.000338487582243
 20
38.91334279753173
 30
0.0
 10
1.999999999986145
 20
38.00000000259948
 30
0.0
  0
LINE
  5
BBD1
330
BBC9
100
AcDbEntity
  8
0
100
AcDbLine
 10
0.0
 20
40.37499999999994
 30
0.0
 11
2.000000000000008
 21
40.37499999999994
 31
0.0
  0
SPLINE
  5
BBD2
330
BBC9
100
AcDbEntity
  8
0
100
AcDbSpline
210
0.0
220
0.0
230
1.0
 70
     8
 71
     3
 72
    18
 73
    14
 74
     0
 42
0.000000001
 43
0.0000000001
 40
0.0
 40
0.0
 40
0.0
 40
0.0
 40
0.0046401809441411
 40
0.0046401809441411
 40
0.0067241329628178
 40
0.0067241329628178
 40
0.0084831913622137
 40
0.0084831913622137
 40
0.0099329506487598
 40
0.0099329506487598
 40
0.0111090098728341
 40
0.0111090098728341
 40
0.0121167430691891
 40
0.0121167430691891
 40
0.0121167430691891
 40
0.0121167430691891
 10
1.999532998620629
 20
37.99999817662254
 30
0.0
 10
1.999479609315774
 20
38.01490981876622
 30
0.0
 10
1.999379726857526
 20
38.02940985951404
 30
0.0
 10
1.999188953972516
 20
38.04763352496097
 30
0.0
 10
1.999123148425069
 20
38.05295702016285
 30
0.0
 10
1.998998659062969
 20
38.06178033069203
 30
0.0
 10
1.99893996572026
 20
38.06546936837118
 30
0.0
 10
1.998840567430488
 20
38.07120208495981
 30
0.0
 10
1.998798196465427
 20
38.07344127885714
 30
0.0
 10
1.998735386837996
 20
38.07659407581501
 30
0.0
 10
1.998712169609586
 20
38.07768779061092
 30
0.0
 10
1.998683899756172
 20
38.07898592148136
 30
0.0
 10
1.9986766049646
 20
38.07930167783438
 30
0.0
 10
1.99867660502517
 20
38.07930167520695
 30
0.0
  0
SPLINE
  5
BBD3
330
BBC9
100
AcDbEntity
  8
0
100
AcDbSpline
210
0.0
220
0.0
230
1.0
 70
     8
 71
     3
 72
    32
 73
    28
 74
     0
 42
0.000000001
 43
0.0000000001
 40
0.00453292364204
 40
0.00453292364204
 40
0.00453292364204
 40
0.00453292364204
 40
0.0066654947588257
 40
0.0066654947588257
 40
0.0091707750410206
 40
0.0091707750410206
 40
0.0114434294205266
 40
0.0114434294205266
 40
0.0134374361949789
 40
0.0134374361949789
 40
0.0160482428956352
 40
0.0160482428956352
 40
0.022102961625659
 40
0.022102961625659
 40
0.0402583217831153
 40
0.0402583217831153
 40
0.0952563883262403
 40
0.0952563883262403
 40
0.1192935256509919
 40
0.1192935256509919
 40
0.1523414307687471
 40
0.1523414307687471
 40
0.1857336434287067
 40
0.1857336434287067
 40
0.2298430850013453
 40
0.2298430850013453
 40
0.2639784882640202
 40
0.2639784882640202
 40
0.2639784882640202
 40
0.2639784882640202
 10
1.999410003310135
 20
38.02337603689277
 30
0.0
 10
1.999312109867569
 20
38.02688890666843
 30
0.0
 10
1.999211246973387
 20
38.03032660230361
 30
0.0
 10
1.998969830822225
 20
38.0381416204557
 30
0.0
 10
1.998825714902081
 20
38.04259422882317
 30
0.0
 10
1.998463631819833
 20
38.05295629922986
 30
0.0
 10
1.99824390348725
 20
38.05893757268933
 30
0.0
 10
1.997744902965666
 20
38.07141242587799
 30
0.0
 10
1.997475174623295
 20
38.07776780341355
 30
0.0
 10
1.996801384307934
 20
38.09259955969414
 30
0.0
 10
1.996377364478837
 20
38.10123424042422
 30
0.0
 10
1.994857515361529
 20
38.12987430453242
 30
0.0
 10
1.993605672539937
 20
38.15003342562021
 30
0.0
 10
1.987841603421907
 20
38.23041682601014
 30
0.0
 10
1.981802818649491
 20
38.29052865995365
 30
0.0
 10
1.94962407674986
 20
38.5312395903141
 30
0.0
 10
1.906294824990202
 20
38.71512652515169
 30
0.0
 10
1.806019596416716
 20
38.95609494088294
 30
0.0
 10
1.77020217550759
 20
39.0267984306204
 30
0.0
 10
1.675312252718341
 20
39.18093254659701
 30
0.0
 10
1.611364465887906
 20
39.2606851607654
 30
0.0
 10
1.47687581418623
 20
39.39417124809214
 30
0.0
 10
1.405424300628254
 20
39.44918642845229
 30
0.0
 10
1.239654518297913
 20
39.55388477605662
 30
0.0
 10
1.143687730879691
 20
39.59780374561101
 30
0.0
 10
0.9714604646708892
 20
39.66023127001946
 30
0.0
 10
0.8949683646054531
 20
39.6823856361793
 30
0.0
 10
0.8157475237361357
 20
39.70172103283534
 30
0.0
  0
LINE
  5
BBD4
330
BBC9
100
AcDbEntity
  8
0
100
AcDbLine
 10
2.000000000000011
 20
2.000000000000003
 30
0.0
 11
2.000000000000011
 21
38.00000000000001
 31
0.0
  0
LINE
  5
BBD5
330
BBC9
100
AcDbEntity
  8
0
100
AcDbLine
 10
2.000000000000081
 20
67.99999999999997
 30
0.0
 11
2.000000000000008
 21
40.37499999999993
 31
0.0
  0
LINE
  5
BBD6
330
BBC9
100
AcDbEntity
  8
0
100
AcDbLine
 10
0.0
 20
67.99999999999997
 30
0.0
 11
2.000000000000081
 21
67.99999999999997
 31
0.0
  0
LINE
  5
BBD7
330
BBC9
100
AcDbEntity
  8
0
100
AcDbLine
 10
0.0
 20
40.37499999999993
 30
0.0
 11
0.0
 21
67.99999999999997
 31
0.0
  0
LINE
  5
BBD8
330
BBC9
100
AcDbEntity
  8
0
100
AcDbLine
 10
86.00000000000006
 20
38.00000000000001
 30
0.0
 11
46.00000000000004
 21
67.99999999999997
 31
0.0
  0
LINE
  5
BBD9
330
BBC9
100
AcDbEntity
  8
0
100
AcDbLine
 10
46.00000000000004
 20
67.99999999999997
 30
0.0
 11
46.00000000000001
 21
225.0
 31
0.0
  0
LINE
  5
BBDA
330
BBC9
100
AcDbEntity
  8
0
100
AcDbLine
 10
2.000000000000081
 20
67.99999999999997
 30
0.0
 11
2.000000000000006
 21
225.0
 31
0.0
  0
LINE
  5
BBDB
330
BBC9
100
AcDbEntity
  8
0
100
AcDbLine
 10
86.00000000000006
 20
38.00000000000001
 30
0.0
 11
86.00000000000001
 21
2.000000000000001
 31
0.0
  0
LINE
  5
BBDC
330
BBC9
100
AcDbEntity
  8
0
100
AcDbLine
 10
4.000000000000003
 20
225.0
 30
0.0
 11
46.00000000000001
 21
225.0
 31
0.0
  0
LINE
  5
BBDD
330
BBC9
100
AcDbEntity
  8
0
100
AcDbLine
 10
0.0
 20
225.0
 30
0.0
 11
2.000000000000006
 21
225.0
 31
0.0
  0
LINE
  5
BBDE
330
BBC9
100
AcDbEntity
  8
0
100
AcDbLine
 10
0.0
 20
67.99999999999997
 30
0.0
 11
0.0
 21
225.0
 31
0.0
  0
LINE
  5
BBDF
330
BBC9
100
AcDbEntity
  8
0
100
AcDbLine
 10
2.000000000000007
 20
225.0
 30
0.0
 11
4.000000000000003
 21
225.0
 31
0.0
  0
CIRCLE
  5
BBE0
330
BBC9
100
AcDbEntity
  8
0
100
AcDbCircle
 10
38.50000000000001
 20
60.0
 30
0.0
 40
2.5
  0
CIRCLE
  5
BBE1
330
BBC9
100
AcDbEntity
  8
0
100
AcDbCircle
 10
38.50000000000001
 20
80.0
 30
0.0
 40
2.5
  0
CIRCLE
  5
BBE2
330
BBC9
100
AcDbEntity
  8
0
100
AcDbCircle
 10
38.50000000000001
 20
100.0
 30
0.0
 40
2.5
  0
CIRCLE
  5
BBE3
330
BBC9
100
AcDbEntity
  8
0
100
AcDbCircle
 10
38.50000000000001
 20
120.0
 30
0.0
 40
2.5
  0
CIRCLE
  5
BBE4
330
BBC9
100
AcDbEntity
  8
0
100
AcDbCircle
 10
38.50000000000001
 20
140.0
 30
0.0
 40
2.5
  0
CIRCLE
  5
BBE5
330
BBC9
100
AcDbEntity
  8
0
100
AcDbCircle
 10
38.50000000000001
 20
160.0
 30
0.0
 40
2.5
  0
CIRCLE
  5
BBE6
330
BBC9
100
AcDbEntity
  8
0
100
AcDbCircle
 10
38.50000000000001
 20
180.0
 30
0.0
 40
2.5
  0
CIRCLE
  5
BBE7
330
BBC9
100
AcDbEntity
  8
0
100
AcDbCircle
 10
38.50000000000001
 20
200.0
 30
0.0
 40
2.5
  0
CIRCLE
  5
BBE8
330
BBC9
100
AcDbEntity
  8
0
100
AcDbCircle
 10
38.50000000000001
 20
220.0
 30
0.0
 40
2.5
  0
ENDBLK
  5
BBCB
330
BBC9
100
AcDbEntity
  8
0
100
AcDbBlockEnd
  0
BLOCK
  5
BBEA
330
BBE9
100
AcDbEntity
  8
0
100
AcDbBlockBegin
  2
SAE500_50_2-Right
 70
     0
 10
0.0
 20
0.0
 30
0.0
  3
SAE500_50_2-Right
  1

  0
SPLINE
  5
BBEC
330
BBE9
100
AcDbEntity
  8
0
100
AcDbSpline
210
0.0
220
0.0
230
1.0
 70
     8
 71
     3
 72
    11
 73
     7
 74
     0
 42
0.000000001
 43
0.0000000001
 40
0.0
 40
0.0
 40
0.0
 40
0.0
 40
0.3318338501120348
 40
0.3318338501120348
 40
0.3318338501120348
 40
1.0
 40
1.0
 40
1.0
 40
1.0
 10
-2.000000000000019
 20
40.37499999999993
 30
0.0
 10
-2.000040447362361
 20
40.14541377476072
 30
0.0
 10
-1.996205994621999
 20
39.9496539530701
 30
0.0
 10
-1.998524212983933
 20
39.75325908154257
 30
0.0
 10
-2.003192076244327
 20
39.35780694451077
 30
0.0
 10
-2.000338487582243
 20
38.91334279753173
 30
0.0
 10
-1.999999999986145
 20
38.00000000259948
 30
0.0
  0
SPLINE
  5
BBED
330
BBE9
100
AcDbEntity
  8
0
100
AcDbSpline
210
0.0
220
0.0
230
1.0
 70
     8
 71
     3
 72
    14
 73
    10
 74
     0
 42
0.000000001
 43
0.0000000001
 40
-0.4382398763102695
 40
-0.4382398763102695
 40
-0.4382398763102695
 40
-0.4382398763102695
 40
-0.3797498890805
 40
-0.3797498890805
 40
-0.3797498890805
 40
-0.0799923328232457
 40
-0.0799923328232457
 40
-0.0799923328232457
 40
0.0
 40
0.0
 40
0.0
 40
0.0
 10
-0.8175995219292769
 20
39.70134698001397
 30
0.0
 10
-0.7603845044443814
 20
39.71534982610986
 30
0.0
 10
-0.7040581676195881
 20
39.72853712405359
 30
0.0
 10
-0.6494211719877728
 20
39.74212695790739
 30
0.0
 10
-0.3694099586583315
 20
39.81177401339321
 30
0.0
 10
-0.1286161190781323
 20
39.89183881156214
 30
0.0
 10
-0.0375464459017908
 20
40.13706507632016
 30
0.0
 10
-0.013243887201405
 20
40.20250536490689
 30
0.0
 10
-0.0000044906778042
 20
40.28210893939907
 30
0.0
 10
-0.0000000000623262
 20
40.37500000002214
 30
0.0
  0
LINE
  5
BBEE
330
BBE9
100
AcDbEntity
  8
0
100
AcDbLine
 10
-2.000000000000008
 20
40.37499999999994
 30
0.0
 11
0.0
 21
40.37499999999994
 31
0.0
  0
SPLINE
  5
BBEF
330
BBE9
100
AcDbEntity
  8
0
100
AcDbSpline
210
0.0
220
0.0
230
1.0
 70
     8
 71
     3
 72
    16
 73
    12
 74
     0
 42
0.000000001
 43
0.0000000001
 40
0.0125106171691704
 40
0.0125106171691704
 40
0.0125106171691704
 40
0.0125106171691704
 40
0.0136782905874213
 40
0.0136782905874213
 40
0.0158182195543932
 40
0.0158182195543932
 40
0.0177939454976148
 40
0.0177939454976148
 40
0.0210729187438159
 40
0.0210729187438159
 40
0.0246295765481668
 40
0.0246295765481668
 40
0.0246295765481668
 40
0.0246295765481668
 10
-1.99867660502517
 20
38.07930167520695
 30
0.0
 10
-1.998676605128134
 20
38.07930167074047
 30
0.0
 10
-1.998686298638814
 20
38.07888248333185
 30
0.0
 10
-1.998734871965044
 20
38.07662848756546
 30
0.0
 10
-1.99879173109116
 20
38.07386837294802
 30
0.0
 10
-1.998915013684028
 20
38.06699263348234
 30
0.0
 10
-1.998981177502574
 20
38.06295328763276
 30
0.0
 10
-1.999151780727663
 20
38.05102418813721
 30
0.0
 10
-1.999254173842355
 20
38.04220718984385
 30
0.0
 10
-1.999424801951794
 20
38.02257251369438
 30
0.0
 10
-1.999492076188925
 20
38.01142781892408
 30
0.0
 10
-1.99953299862063
 20
37.99999817662253
 30
0.0
  0
SPLINE
  5
BBF0
330
BBE9
100
AcDbEntity
  8
0
100
AcDbSpline
210
0.0
220
0.0
230
1.0
 70
     8
 71
     3
 72
    32
 73
    28
 74
     0
 42
0.000000001
 43
0.0000000001
 40
0.0
 40
0.0
 40
0.0
 40
0.0
 40
0.0700466601112465
 40
0.0700466601112465
 40
0.1167611580350776
 40
0.1167611580350776
 40
0.1392284345608578
 40
0.1392284345608578
 40
0.1729599082760076
 40
0.1729599082760076
 40
0.2057733659311217
 40
0.2057733659311217
 40
0.2274471617354673
 40
0.2274471617354673
 40
0.2436001569813345
 40
0.2436001569813345
 40
0.2475771335381295
 40
0.2475771335381295
 40
0.2505646345478933
 40
0.2505646345478933
 40
0.2523166922989032
 40
0.2523166922989032
 40
0.2540795831092943
 40
0.2540795831092943
 40
0.2576324324459489
 40
0.2576324324459489
 40
0.2594169267957605
 40
0.2594169267957605
 40
0.2594169267957605
 40
0.2594169267957605
 10
-0.8157475237361373
 20
39.70172103283532
 30
0.0
 10
-0.9783105751053044
 20
39.66204433860502
 30
0.0
 10
-1.130918619569884
 20
39.61137838312272
 30
0.0
 10
-1.382104207192521
 20
39.4685636430419
 30
0.0
 10
-1.48372281661712
 20
39.39337816701262
 30
0.0
 10
-1.62104745661929
 20
39.24637597566383
 30
0.0
 10
-1.663839424962605
 20
39.19270236570138
 30
0.0
 10
-1.761545723539696
 20
39.04663593171629
 30
0.0
 10
-1.812651921969859
 20
38.94626902951357
 30
0.0
 10
-1.892020090735059
 20
38.74050499192541
 30
0.0
 10
-1.921972086771423
 20
38.63367064076199
 30
0.0
 10
-1.958587892150342
 20
38.4561672216436
 30
0.0
 10
-1.969881471675256
 20
38.38504620669378
 30
0.0
 10
-1.984875859851995
 20
38.26031606447953
 30
0.0
 10
-1.989780810517169
 20
38.20674873370795
 30
0.0
 10
-1.994215448477104
 20
38.13990280541656
 30
0.0
 10
-1.99501021668874
 20
38.12668483974896
 30
0.0
 10
-1.99625854310337
 20
38.1036409449152
 30
0.0
 10
-1.99675014839791
 20
38.09373227672868
 30
0.0
 10
-1.997443176338558
 20
38.07846926305664
 30
0.0
 10
-1.997681993587907
 20
38.07289043644099
 30
0.0
 10
-1.998107309472971
 20
38.06241602769368
 30
0.0
 10
-1.998295157478118
 20
38.05748524008468
 30
0.0
 10
-1.998765224021739
 20
38.04458233537815
 30
0.0
 10
-1.998967153081607
 20
38.03830168878749
 30
0.0
 10
-1.999237718584359
 20
38.02941640057746
 30
0.0
 10
-1.999325505723441
 20
38.02639922883611
 30
0.0
 10
-1.999409985556624
 20
38.02336095069389
 30
0.0
  0
LINE
  5
BBF1
330
BBE9
100
AcDbEntity
  8
0
100
AcDbLine
 10
-2.000000000000005
 20
-2.0
 30
0.0
 11
-86.00000000000001
 21
-2.0
 31
0.0
  0
LINE
  5
BBF2
330
BBE9
100
AcDbEntity
  8
0
100
AcDbLine
 10
-2.000000000000011
 20
2.000000000000003
 30
0.0
 11
-2.000000000000011
 21
38.00000000000001
 31
0.0
  0
LINE
  5
BBF3
330
BBE9
100
AcDbEntity
  8
0
100
AcDbLine
 10
-2.000000000000011
 20
2.000000000000004
 30
0.0
 11
-2.000000000000005
 21
-1.999999999999999
 31
0.0
  0
LINE
  5
BBF4
330
BBE9
100
AcDbEntity
  8
0
100
AcDbLine
 10
-86.00000000000001
 20
-1.999999999999998
 30
0.0
 11
-86.00000000000001
 21
2.0
 31
0.0
  0
LINE
  5
BBF5
330
BBE9
100
AcDbEntity
  8
0
100
AcDbLine
 10
0.0
 20
67.99999999999997
 30
0.0
 11
0.0
 21
40.37499999999993
 31
0.0
  0
LINE
  5
BBF6
330
BBE9
100
AcDbEntity
  8
0
100
AcDbLine
 10
-2.000000000000081
 20
67.99999999999997
 30
0.0
 11
0.0
 21
67.99999999999997
 31
0.0
  0
LINE
  5
BBF7
330
BBE9
100
AcDbEntity
  8
0
100
AcDbLine
 10
-2.000000000000008
 20
40.37499999999993
 30
0.0
 11
-2.000000000000081
 21
67.99999999999997
 31
0.0
  0
LINE
  5
BBF8
330
BBE9
100
AcDbEntity
  8
0
100
AcDbLine
 10
0.0
 20
67.99999999999997
 30
0.0
 11
0.0
 21
225.0
 31
0.0
  0
CIRCLE
  5
BBF9
330
BBE9
100
AcDbEntity
  8
0
100
AcDbCircle
 10
-38.50000000000002
 20
210.0
 30
0.0
 40
2.5
  0
LINE
  5
BBFA
330
BBE9
100
AcDbEntity
  8
0
100
AcDbLine
 10
-46.00000000000004
 20
67.99999999999997
 30
0.0
 11
-86.00000000000006
 21
38.00000000000001
 31
0.0
  0
LINE
  5
BBFB
330
BBE9
100
AcDbEntity
  8
0
100
AcDbLine
 10
-46.00000000000001
 20
225.0
 30
0.0
 11
-46.00000000000004
 21
67.99999999999997
 31
0.0
  0
LINE
  5
BBFC
330
BBE9
100
AcDbEntity
  8
0
100
AcDbLine
 10
-86.00000000000006
 20
38.00000000000001
 30
0.0
 11
-86.00000000000001
 21
2.000000000000001
 31
0.0
  0
LINE
  5
BBFD
330
BBE9
100
AcDbEntity
  8
0
100
AcDbLine
 10
-4.000000000000003
 20
225.0
 30
0.0
 11
-46.00000000000001
 21
225.0
 31
0.0
  0
LINE
  5
BBFE
330
BBE9
100
AcDbEntity
  8
0
100
AcDbLine
 10
-2.000000000000007
 20
225.0
 30
0.0
 11
-4.000000000000003
 21
225.0
 31
0.0
  0
LINE
  5
BBFF
330
BBE9
100
AcDbEntity
  8
0
100
AcDbLine
 10
0.0
 20
225.0
 30
0.0
 11
-2.000000000000006
 21
225.0
 31
0.0
  0
LINE
  5
BC00
330
BBE9
100
AcDbEntity
  8
0
100
AcDbLine
 10
-2.000000000000081
 20
67.99999999999997
 30
0.0
 11
-2.000000000000006
 21
225.0
 31
0.0
  0
CIRCLE
  5
BC01
330
BBE9
100
AcDbEntity
  8
0
100
AcDbCircle
 10
-38.50000000000002
 20
50.0
 30
0.0
 40
2.5
  0
CIRCLE
  5
BC02
330
BBE9
100
AcDbEntity
  8
0
100
AcDbCircle
 10
-38.50000000000002
 20
70.0
 30
0.0
 40
2.5
  0
CIRCLE
  5
BC03
330
BBE9
100
AcDbEntity
  8
0
100
AcDbCircle
 10
-38.50000000000002
 20
90.0
 30
0.0
 40
2.5
  0
CIRCLE
  5
BC04
330
BBE9
100
AcDbEntity
  8
0
100
AcDbCircle
 10
-38.50000000000002
 20
110.0
 30
0.0
 40
2.5
  0
CIRCLE
  5
BC05
330
BBE9
100
AcDbEntity
  8
0
100
AcDbCircle
 10
-38.50000000000002
 20
130.0
 30
0.0
 40
2.5
  0
CIRCLE
  5
BC06
330
BBE9
100
AcDbEntity
  8
0
100
AcDbCircle
 10
-38.50000000000002
 20
150.0
 30
0.0
 40
2.5
  0
CIRCLE
  5
BC07
330
BBE9
100
AcDbEntity
  8
0
100
AcDbCircle
 10
-38.50000000000002
 20
170.0
 30
0.0
 40
2.5
  0
CIRCLE
  5
BC08
330
BBE9
100
AcDbEntity
  8
0
100
AcDbCircle
 10
-38.50000000000002
 20
190.0
 30
0.0
 40
2.5
  0
SPLINE
  5
BC09
330
BBE9
100
AcDbEntity
  8
0
100
AcDbSpline
210
0.0
220
0.0
230
1.0
 70
     8
 71
     3
 72
     8
 73
     4
 74
     0
 42
0.000000001
 43
0.0000000001
 40
0.0221398992275726
 40
0.0221398992275726
 40
0.0221398992275726
 40
0.0221398992275726
 40
0.0246295765481668
 40
0.0246295765481668
 40
0.0246295765481668
 40
0.0246295765481668
 10
-1.999409985556624
 20
38.02336095069387
 30
0.0
 10
-1.999462794268803
 20
38.0158601580101
 30
0.0
 10
-1.999504352724476
 20
38.00799898040688
 30
0.0
 10
-1.99953299862063
 20
37.99999817662253
 30
0.0
  0
ENDBLK
  5
BBEB
330
BBE9
100
AcDbEntity
  8
0
100
AcDbBlockEnd
  0
BLOCK
  5
BC0B
330
BC0A
100
AcDbEntity
  8
0
100
AcDbBlockBegin
  2
SAE500_50_2-Top
 70
     0
 10
0.0
 20
0.0
 30
0.0
  3
SAE500_50_2-Top
  1

  0
LINE
  5
BC0D
330
BC0A
100
AcDbEntity
  8
0
100
AcDbLine
 10
25.00000000000001
 20
-2.000000000000008
 30
0.0
 11
25.00000000000001
 21
-2.066816716473119
 31
0.0
  0
SPLINE
  5
BC0E
330
BC0A
100
AcDbEntity
  8
0
100
AcDbSpline
210
0.0
220
0.0
230
1.0
 70
     8
 71
     3
 72
    11
 73
     7
 74
     0
 42
0.000000001
 43
0.0000000001
 40
-1.0
 40
-1.0
 40
-1.0
 40
-1.0
 40
-0.8013478827028427
 40
-0.8013478827028427
 40
-0.8013478827028427
 40
-0.6555820160253229
 40
-0.6555820160253229
 40
-0.6555820160253229
 40
-0.6555820160253229
 10
25.0
 20
-2.000000000000018
 30
0.0
 10
24.999999612826
 20
-1.999251614701847
 30
0.0
 10
25.12461756933483
 20
-1.921359120919632
 30
0.0
 10
25.33198188069585
 20
-1.794364022356468
 30
0.0
 10
25.48414053359515
 20
-1.701178251886346
 30
0.0
 10
25.68327809244094
 20
-1.582640866989928
 30
0.0
 10
25.91485854008745
 20
-1.451144722402454
 30
0.0
  0
SPLINE
  5
BC0F
330
BC0A
100
AcDbEntity
  8
0
100
AcDbSpline
210
0.0
220
0.0
230
1.0
 70
     8
 71
     3
 72
    24
 73
    20
 74
     0
 42
0.000000001
 43
0.0000000001
 40
0.0
 40
0.0
 40
0.0
 40
0.0
 40
0.0058070548368202
 40
0.0058070548368202
 40
0.013575636233413
 40
0.013575636233413
 40
0.0333524747462928
 40
0.0333524747462928
 40
0.0482044948414843
 40
0.0482044948414843
 40
0.0632866924597914
 40
0.0632866924597914
 40
0.0737142332347816
 40
0.0737142332347816
 40
0.080516930144418
 40
0.080516930144418
 40
0.0857759083299641
 40
0.0857759083299641
 40
0.0875402676626235
 40
0.0875402676626235
 40
0.0875402676626235
 40
0.0875402676626235
 10
29.6138419889266
 20
-2.000026051676865
 30
0.0
 10
29.59963814100111
 20
-2.000026935403139
 30
0.0
 10
29.58326378117756
 20
-2.000031928988519
 30
0.0
 10
29.54375153986995
 20
-2.000053680742745
 30
0.0
 10
29.51986547785907
 20
-2.000074609205133
 30
0.0
 10
29.43472752710611
 20
-2.000183131731785
 30
0.0
 10
29.37322699937545
 20
-2.000305740882601
 30
0.0
 10
29.26496044459673
 20
-2.000641813705006
 30
0.0
 10
29.21819603770711
 20
-2.000804798293092
 30
0.0
 10
29.13119188815961
 20
-2.001129569683092
 30
0.0
 10
29.08763700898928
 20
-2.001322795635565
 30
0.0
 10
29.0075165611093
 20
-2.002266797150913
 30
0.0
 10
28.97320146493897
 20
-2.002836291184461
 30
0.0
 10
28.91605841912751
 20
-2.00437665425511
 30
0.0
 10
28.89315251977845
 20
-2.005148660263582
 30
0.0
 10
28.85322363934571
 20
-2.006866691769987
 30
0.0
 10
28.83586231660433
 20
-2.007742942495238
 30
0.0
 10
28.81366062063913
 20
-2.009056238085294
 30
0.0
 10
28.80813780284835
 20
-2.009399607972917
 30
0.0
 10
28.8027322827216
 20
-2.00975241547189
 30
0.0
  0
SPLINE
  5
BC10
330
BC0A
100
AcDbEntity
  8
0
100
AcDbSpline
210
0.0
220
0.0
230
1.0
 70
     8
 71
     3
 72
    12
 73
     8
 74
     0
 42
0.000000001
 43
0.0000000001
 40
0.029334891474257
 40
0.029334891474257
 40
0.029334891474257
 40
0.029334891474257
 40
0.0302236474203933
 40
0.0302236474203933
 40
0.0325099681571477
 40
0.0325099681571477
 40
0.0364276060208405
 40
0.0364276060208405
 40
0.0364276060208405
 40
0.0364276060208405
 10
27.00106182038344
 20
-3.934837479551438
 30
0.0
 10
27.00100237425414
 20
-3.937746102161156
 30
0.0
 10
27.00094706913355
 20
-3.940619791228046
 30
0.0
 10
27.00076367910542
 20
-3.950709824486202
 30
0.0
 10
27.00065584922357
 20
-3.957742842178863
 30
0.0
 10
27.00040988482755
 20
-3.976560899964488
 30
0.0
 10
27.00030426044833
 20
-3.988204884071746
 30
0.0
 10
27.0002319182764
 20
-4.00000112954796
 30
0.0
  0
SPLINE
  5
BC11
330
BC0A
100
AcDbEntity
  8
0
100
AcDbSpline
210
0.0
220
0.0
230
1.0
 70
     8
 71
     3
 72
    12
 73
     8
 74
     0
 42
0.000000001
 43
0.0000000001
 40
0.0
 40
0.0
 40
0.0
 40
0.0
 40
0.0070612153699589
 40
0.0070612153699589
 40
0.0092297559658075
 40
0.0092297559658075
 40
0.0098239256682474
 40
0.0098239256682474
 40
0.0098239256682474
 40
0.0098239256682474
 10
24.99994586747212
 20
-3.999999732478199
 30
0.0
 10
24.99998616046597
 20
-3.987716593587333
 30
0.0
 10
25.0000421776095
 20
-3.975085212606395
 30
0.0
 10
25.0000882239806
 20
-3.966110033474728
 30
0.0
 10
25.00009627091346
 20
-3.964601000031914
 30
0.0
 10
25.00009988641563
 20
-3.963908415734845
 30
0.0
 10
25.00010028603282
 20
-3.96383076076313
 30
0.0
 10
25.00010028603286
 20
-3.963830760755898
 30
0.0
  0
SPLINE
  5
BC12
330
BC0A
100
AcDbEntity
  8
0
100
AcDbSpline
210
0.0
220
0.0
230
1.0
 70
     8
 71
     3
 72
     8
 73
     4
 74
     0
 42
0.000000001
 43
0.0000000001
 40
0.0041961601100169
 40
0.0041961601100169
 40
0.0041961601100169
 40
0.0041961601100169
 40
0.0079377988311437
 40
0.0079377988311437
 40
0.0079377988311437
 40
0.0079377988311437
 10
24.99996854624261
 20
-3.993406619459826
 30
0.0
 10
24.99996565399334
 20
-3.992149439310621
 30
0.0
 10
24.99996423139247
 20
-3.991506758653594
 30
0.0
 10
24.99996423139247
 20
-3.991506758653793
 30
0.0
  0
SPLINE
  5
BC13
330
BC0A
100
AcDbEntity
  8
0
100
AcDbSpline
210
0.0
220
0.0
230
1.0
 70
     8
 71
     3
 72
    30
 73
    26
 74
     0
 42
0.000000001
 43
0.0000000001
 40
0.0093912800026498
 40
0.0093912800026498
 40
0.0093912800026498
 40
0.0093912800026498
 40
0.0104756325998806
 40
0.0104756325998806
 40
0.0116831032980018
 40
0.0116831032980018
 40
0.0122879502995392
 40
0.0122879502995392
 40
0.0135026502409862
 40
0.0135026502409862
 40
0.0231228273557797
 40
0.0231228273557797
 40
0.0357192282116512
 40
0.0357192282116512
 40
0.0735152561855357
 40
0.0735152561855357
 40
0.1870756563462511
 40
0.1870756563462511
 40
0.2056330596984646
 40
0.2056330596984646
 40
0.2153902488893377
 40
0.2153902488893377
 40
0.2206060932933064
 40
0.2206060932933064
 40
0.2259843747906006
 40
0.2259843747906006
 40
0.2259843747906006
 40
0.2259843747906006
 10
24.99995419776451
 20
-3.997500767661847
 30
0.0
 10
24.99994845501509
 20
-3.99716776279311
 30
0.0
 10
24.99994099883207
 20
-3.996735328381674
 30
0.0
 10
24.99992016862823
 20
-3.995526999033601
 30
0.0
 10
24.99990441586754
 20
-3.994614149661116
 30
0.0
 10
24.99985500796109
 20
-3.991737127202475
 30
0.0
 10
24.99983372895249
 20
-3.990496381253472
 30
0.0
 10
24.9997606791288
 20
-3.986224058379775
 30
0.0
 10
24.99970084200087
 20
-3.982707309245768
 30
0.0
 10
24.9991687453995
 20
-3.951202795322496
 30
0.0
 10
24.99867996085396
 20
-3.92065797338324
 30
0.0
 10
24.99766029543462
 20
-3.852424866609498
 30
0.0
 10
24.99713480523976
 20
-3.813795428806174
 30
0.0
 10
24.99526018075234
 20
-3.66004612726821
 30
0.0
 10
24.99438012168058
 20
-3.546620334114265
 30
0.0
 10
24.99242451108715
 20
-3.089488727350462
 30
0.0
 10
24.99391529076638
 20
-2.72645318606681
 30
0.0
 10
24.99774164108107
 20
-2.320246064433201
 30
0.0
 10
24.99843450742654
 20
-2.261696655330872
 30
0.0
 10
24.99925241371165
 20
-2.179882770328074
 30
0.0
 10
24.99944233427882
 20
-2.153426063775692
 30
0.0
 10
24.99956692518094
 20
-2.117432921618228
 30
0.0
 10
24.9995834226331
 20
-2.10561671434431
 30
0.0
 10
24.99958834751608
 20
-2.083897445482758
 30
0.0
 10
24.99957623620516
 20
-2.073713727280913
 30
0.0
 10
24.99956383268266
 20
-2.066816716473119
 30
0.0
  0
LINE
  5
BC14
330
BC0A
100
AcDbEntity
  8
0
100
AcDbLine
 10
-25.00000000000001
 20
-2.000000000000008
 30
0.0
 11
-25.00000000000001
 21
-2.066816716472377
 31
0.0
  0
SPLINE
  5
BC15
330
BC0A
100
AcDbEntity
  8
0
100
AcDbSpline
210
0.0
220
0.0
230
1.0
 70
     8
 71
     3
 72
    11
 73
     7
 74
     0
 42
0.000000001
 43
0.0000000001
 40
-1.0
 40
-1.0
 40
-1.0
 40
-1.0
 40
-0.8013478827028427
 40
-0.8013478827028427
 40
-0.8013478827028427
 40
-0.6555820160253229
 40
-0.6555820160253229
 40
-0.6555820160253229
 40
-0.6555820160253229
 10
-25.0
 20
-2.000000000000018
 30
0.0
 10
-24.999999612826
 20
-1.999251614701847
 30
0.0
 10
-25.12461756933483
 20
-1.921359120919632
 30
0.0
 10
-25.33198188069585
 20
-1.794364022356468
 30
0.0
 10
-25.48414053359515
 20
-1.701178251886346
 30
0.0
 10
-25.68327809244094
 20
-1.582640866989928
 30
0.0
 10
-25.91485854008745
 20
-1.451144722402454
 30
0.0
  0
SPLINE
  5
BC16
330
BC0A
100
AcDbEntity
  8
0
100
AcDbSpline
210
0.0
220
0.0
230
1.0
 70
     8
 71
     3
 72
    36
 73
    32
 74
     0
 42
0.000000001
 43
0.0000000001
 40
0.0
 40
0.0
 40
0.0
 40
0.0
 40
0.0042078912031931
 40
0.0042078912031931
 40
0.0101078520701191
 40
0.0101078520701191
 40
0.0212119948136511
 40
0.0212119948136511
 40
0.0341288178763294
 40
0.0341288178763294
 40
0.0686945104473575
 40
0.0686945104473575
 40
0.1724911782643018
 40
0.1724911782643018
 40
0.1961283215790685
 40
0.1961283215790685
 40
0.2077739602160943
 40
0.2077739602160943
 40
0.2106793133839393
 40
0.2106793133839393
 40
0.2128604192321092
 40
0.2128604192321092
 40
0.2134893402763283
 40
0.2134893402763283
 40
0.2141418119769943
 40
0.2141418119769943
 40
0.2148637461858932
 40
0.2148637461858932
 40
0.2156683354637293
 40
0.2156683354637293
 40
0.2167261721133031
 40
0.2167261721133031
 40
0.2167261721133031
 40
0.2167261721133031
 10
-24.99956383268266
 20
-2.066816716472377
 30
0.0
 10
-24.99957353702284
 20
-2.072212839959206
 30
0.0
 10
-24.99958304970284
 20
-2.079695087400013
 30
0.0
 10
-24.99958904003995
 20
-2.099330994446332
 30
0.0
 10
-24.99957862354673
 20
-2.112443687717708
 30
0.0
 10
-24.99945308939891
 20
-2.152831102316615
 30
0.0
 10
-24.99922870673056
 20
-2.183239608211569
 30
0.0
 10
-24.99850376346281
 20
-2.253330093734823
 30
0.0
 10
-24.9980337663543
 20
-2.293354422627209
 30
0.0
 10
-24.99656177829912
 20
-2.439687196764497
 30
0.0
 10
-24.99570193931223
 20
-2.546984157505443
 30
0.0
 10
-24.99306226108215
 20
-2.980892227061129
 30
0.0
 10
-24.99243210102284
 20
-3.300504138396976
 30
0.0
 10
-24.99560601780123
 20
-3.685252973487393
 30
0.0
 10
-24.99638288665313
 20
-3.756976379421564
 30
0.0
 10
-24.99784174683609
 20
-3.865052363258122
 30
0.0
 10
-24.99837149479761
 20
-3.900894246252071
 30
0.0
 10
-24.99908383139885
 20
-3.945506581525414
 30
0.0
 10
-24.99922864092856
 20
-3.954410150671654
 30
0.0
 10
-24.99948394585347
 20
-3.96983816703043
 30
0.0
 10
-24.99959567217052
 20
-3.976499594240468
 30
0.0
 10
-24.99973000569365
 20
-3.984418757410559
 30
0.0
 10
-24.99975939459716
 20
-3.986145198826047
 30
0.0
 10
-24.99981427528367
 20
-3.989360224176253
 30
0.0
 10
-24.99983968601641
 20
-3.990843686030347
 30
0.0
 10
-24.99988158930002
 20
-3.993285732062148
 30
0.0
 10
-24.99989722873674
 20
-3.994194570798628
 30
0.0
 10
-24.99992124265168
 20
-3.995589436058311
 30
0.0
 10
-24.99992931623209
 20
-3.996057691427528
 30
0.0
 10
-24.99994409120986
 20
-3.996914572094777
 30
0.0
 10
-24.99994978877388
 20
-3.997244848179828
 30
0.0
 10
-24.99995419883202
 20
-3.997500452577372
 30
0.0
  0
SPLINE
  5
BC17
330
BC0A
100
AcDbEntity
  8
0
100
AcDbSpline
210
0.0
220
0.0
230
1.0
 70
     8
 71
     3
 72
    14
 73
    10
 74
     0
 42
0.000000001
 43
0.0000000001
 40
0.0084604541591212
 40
0.0084604541591212
 40
0.0084604541591212
 40
0.0084604541591212
 40
0.00979824652283
 40
0.00979824652283
 40
0.0122912107273172
 40
0.0122912107273172
 40
0.0160466451678045
 40
0.0160466451678045
 40
0.0182944535832426
 40
0.0182944535832426
 40
0.0182944535832426
 40
0.0182944535832426
 10
-25.00010028603285
 20
-3.963830760757483
 30
0.0
 10
-25.00010028603466
 20
-3.963830760405161
 30
0.0
 10
-25.0000982069758
 20
-3.964230518709364
 30
0.0
 10
-25.00008741975233
 20
-3.96628245863771
 30
0.0
 10
-25.00007450161269
 20
-3.968728751220738
 30
0.0
 10
-25.00003721019613
 20
-3.976323091671682
 30
0.0
 10
-25.00001078845191
 20
-3.982218674987425
 30
0.0
 10
-24.9999723614277
 20
-3.992220499275207
 30
0.0
 10
-24.99995869400778
 20
-3.996089620475892
 30
0.0
 10
-24.99994586747213
 20
-3.999999732478203
 30
0.0
  0
SPLINE
  5
BC18
330
BC0A
100
AcDbEntity
  8
0
100
AcDbSpline
210
0.0
220
0.0
230
1.0
 70
     8
 71
     3
 72
     8
 73
     4
 74
     0
 42
0.000000001
 43
0.0000000001
 40
0.0104942868757195
 40
0.0104942868757195
 40
0.0104942868757195
 40
0.0104942868757195
 40
0.0142448505712577
 40
0.0142448505712577
 40
0.0142448505712577
 40
0.0142448505712577
 10
-24.99996423139251
 20
-3.991506758653646
 30
0.0
 10
-24.99996423140287
 20
-3.991506762468599
 30
0.0
 10
-24.99996564458698
 20
-3.992145425524222
 30
0.0
 10
-24.99996853210387
 20
-3.993400548644461
 30
0.0
  0
SPLINE
  5
BC19
330
BC0A
100
AcDbEntity
  8
0
100
AcDbSpline
210
0.0
220
0.0
230
1.0
 70
     8
 71
     3
 72
    10
 73
     6
 74
     0
 42
0.000000001
 43
0.0000000001
 40
0.0
 40
0.0
 40
0.0
 40
0.0
 40
0.0047482316660021
 40
0.0047482316660021
 40
0.0070750198626472
 40
0.0070750198626472
 40
0.0070750198626472
 40
0.0070750198626472
 10
-27.00023191827642
 20
-4.000001129547959
 30
0.0
 10
-27.00031959799658
 20
-3.98570391570156
 30
0.0
 10
-27.00045516332828
 20
-3.971650067410725
 30
0.0
 10
-27.0007770538722
 20
-3.949930805084778
 30
0.0
 10
-27.00090605043579
 20
-3.942459102642178
 30
0.0
 10
-27.00106182038323
 20
-3.934837479561634
 30
0.0
  0
SPLINE
  5
BC1A
330
BC0A
100
AcDbEntity
  8
0
100
AcDbSpline
210
0.0
220
0.0
230
1.0
 70
     8
 71
     3
 72
    22
 73
    18
 74
     0
 42
0.000000001
 43
0.0000000001
 40
0.048467985971339
 40
0.048467985971339
 40
0.048467985971339
 40
0.048467985971339
 40
0.0514543842570037
 40
0.0514543842570037
 40
0.0576093713454783
 40
0.0576093713454783
 40
0.0664691272225477
 40
0.0664691272225477
 40
0.0781152421978058
 40
0.0781152421978058
 40
0.0932105642406241
 40
0.0932105642406241
 40
0.10742062397417
 40
0.10742062397417
 40
0.1216264670763214
 40
0.1216264670763214
 40
0.13596442995507
 40
0.13596442995507
 40
0.13596442995507
 40
0.13596442995507
 10
-28.8027322827233
 20
-2.009752415471779
 30
0.0
 10
-28.81186780467039
 20
-2.009156158206175
 30
0.0
 10
-28.82135450627021
 20
-2.00858624835762
 30
0.0
 10
-28.8507385940645
 20
-2.006966713456836
 30
0.0
 10
-28.87130466448848
 20
-2.00603449105795
 30
0.0
 10
-28.92127787744815
 20
-2.004162774358154
 30
0.0
 10
-28.9510922075701
 20
-2.003377790263956
 30
0.0
 10
-29.01803758721011
 20
-2.002065233925709
 30
0.0
 10
-29.05518158152213
 20
-2.001668817923171
 30
0.0
 10
-29.13555381072038
 20
-2.001070221890061
 30
0.0
 10
-29.17738095592146
 20
-2.000954597560158
 30
0.0
 10
-29.26655111510211
 20
-2.000644529536869
 30
0.0
 10
-29.31163267390229
 20
-2.000485285149794
 30
0.0
 10
-29.40004391444769
 20
-2.000256274256865
 30
0.0
 10
-29.44421812931487
 20
-2.000174702971476
 30
0.0
 10
-29.53262508490804
 20
-2.000055233643811
 30
0.0
 10
-29.57877184579761
 20
-2.000028233649459
 30
0.0
 10
-29.61384198892763
 20
-2.000026051676865
 30
0.0
  0
LINE
  5
BC1B
330
BC0A
100
AcDbEntity
  8
0
100
AcDbLine
 10
-25.0
 20
-2.000000000000008
 30
0.0
 11
-23.0
 21
-2.000000000000005
 31
0.0
  0
LINE
  5
BC1C
330
BC0A
100
AcDbEntity
  8
0
100
AcDbLine
 10
-24.99999999999999
 20
-86.00000000000001
 30
0.0
 11
-22.99999999999999
 21
-86.00000000000001
 31
0.0
  0
LINE
  5
BC1D
330
BC0A
100
AcDbEntity
  8
0
100
AcDbLine
 10
23.00000000000001
 20
-2.000000000000005
 30
0.0
 11
-23.00000000000001
 21
-2.000000000000005
 31
0.0
  0
LINE
  5
BC1E
330
BC0A
100
AcDbEntity
  8
0
100
AcDbLine
 10
-22.99999999999999
 20
-86.00000000000001
 30
0.0
 11
22.99999999999999
 21
-86.00000000000001
 31
0.0
  0
CIRCLE
  5
BC1F
330
BC0A
100
AcDbEntity
  8
0
100
AcDbCircle
 10
0.0
 20
-47.99999999999998
 30
0.0
 40
2.5
  0
CIRCLE
  5
BC20
330
BC0A
100
AcDbEntity
  8
0
100
AcDbCircle
 10
0.0
 20
-67.99999999999998
 30
0.0
 40
2.5
  0
LINE
  5
BC21
330
BC0A
100
AcDbEntity
  8
0
100
AcDbLine
 10
25.0
 20
-2.000000000000008
 30
0.0
 11
23.0
 21
-2.000000000000005
 31
0.0
  0
LINE
  5
BC22
330
BC0A
100
AcDbEntity
  8
0
100
AcDbLine
 10
29.0
 20
0.0
 30
0.0
 11
66.50000000000002
 21
0.0
 31
0.0
  0
ARC
  5
BC23
330
BC0A
100
AcDbEntity
  8
0
100
AcDbCircle
 10
29.0
 20
-4.000000000000004
 30
0.0
 40
3.999999999999999
100
AcDbArc
 50
90.00000000000005
 51
180.0
  0
LINE
  5
BC24
330
BC0A
100
AcDbEntity
  8
0
100
AcDbLine
 10
24.99999999999999
 20
-86.00000000000006
 30
0.0
 11
25.0
 21
-46.00000000000004
 31
0.0
  0
LINE
  5
BC25
330
BC0A
100
AcDbEntity
  8
0
100
AcDbLine
 10
26.99999999999999
 20
-86.00000000000006
 30
0.0
 11
24.99999999999999
 21
-86.00000000000006
 31
0.0
  0
LINE
  5
BC26
330
BC0A
100
AcDbEntity
  8
0
100
AcDbLine
 10
26.99999999999999
 20
-46.00000000000004
 30
0.0
 11
26.99999999999999
 21
-86.00000000000006
 31
0.0
  0
LINE
  5
BC27
330
BC0A
100
AcDbEntity
  8
0
100
AcDbLine
 10
25.0
 20
-46.00000000000001
 30
0.0
 11
26.99999999999999
 21
-46.00000000000001
 31
0.0
  0
LINE
  5
BC28
330
BC0A
100
AcDbEntity
  8
0
100
AcDbLine
 10
27.0
 20
-4.000000000000003
 30
0.0
 11
26.99999999999999
 21
-46.00000000000001
 31
0.0
  0
LINE
  5
BC29
330
BC0A
100
AcDbEntity
  8
0
100
AcDbLine
 10
25.0
 20
-46.00000000000001
 30
0.0
 11
25.0
 21
-4.000000000000003
 31
0.0
  0
LINE
  5
BC2A
330
BC0A
100
AcDbEntity
  8
0
100
AcDbLine
 10
24.99999999999999
 20
-86.00000000000001
 30
0.0
 11
22.99999999999999
 21
-86.00000000000001
 31
0.0
  0
ARC
  5
BC2B
330
BC0A
100
AcDbEntity
  8
0
100
AcDbCircle
 10
29.0
 20
-4.000000000000004
 30
0.0
 40
1.999999999999997
100
AcDbArc
 50
90.00000000000012
 51
180.0
  0
LINE
  5
BC2C
330
BC0A
100
AcDbEntity
  8
0
100
AcDbLine
 10
66.50000000000002
 20
0.0
 30
0.0
 11
66.50000000000002
 21
-2.000000000000006
 31
0.0
  0
LINE
  5
BC2D
330
BC0A
100
AcDbEntity
  8
0
100
AcDbLine
 10
66.50000000000002
 20
-2.000000000000006
 30
0.0
 11
29.0
 21
-2.000000000000006
 31
0.0
  0
LINE
  5
BC2E
330
BC0A
100
AcDbEntity
  8
0
100
AcDbLine
 10
-66.50000000000002
 20
-2.000000000000006
 30
0.0
 11
-29.0
 21
-2.000000000000006
 31
0.0
  0
LINE
  5
BC2F
330
BC0A
100
AcDbEntity
  8
0
100
AcDbLine
 10
-25.0
 20
-46.00000000000001
 30
0.0
 11
-25.0
 21
-4.000000000000003
 31
0.0
  0
LINE
  5
BC30
330
BC0A
100
AcDbEntity
  8
0
100
AcDbLine
 10
-27.0
 20
-4.000000000000003
 30
0.0
 11
-26.99999999999999
 21
-46.00000000000001
 31
0.0
  0
LINE
  5
BC31
330
BC0A
100
AcDbEntity
  8
0
100
AcDbLine
 10
-29.0
 20
0.0
 30
0.0
 11
-66.50000000000002
 21
0.0
 31
0.0
  0
LINE
  5
BC32
330
BC0A
100
AcDbEntity
  8
0
100
AcDbLine
 10
-66.50000000000002
 20
0.0
 30
0.0
 11
-66.50000000000002
 21
-2.000000000000006
 31
0.0
  0
ARC
  5
BC33
330
BC0A
100
AcDbEntity
  8
0
100
AcDbCircle
 10
-29.0
 20
-4.000000000000004
 30
0.0
 40
1.999999999999997
100
AcDbArc
 50
0.0
 51
89.99999999999987
  0
ARC
  5
BC34
330
BC0A
100
AcDbEntity
  8
0
100
AcDbCircle
 10
-29.0
 20
-4.000000000000004
 30
0.0
 40
3.999999999999999
100
AcDbArc
 50
0.0
 51
89.99999999999992
  0
LINE
  5
BC35
330
BC0A
100
AcDbEntity
  8
0
100
AcDbLine
 10
-25.0
 20
-46.00000000000004
 30
0.0
 11
-24.99999999999999
 21
-86.00000000000006
 31
0.0
  0
LINE
  5
BC36
330
BC0A
100
AcDbEntity
  8
0
100
AcDbLine
 10
-26.99999999999999
 20
-86.00000000000006
 30
0.0
 11
-26.99999999999999
 21
-46.00000000000004
 31
0.0
  0
LINE
  5
BC37
330
BC0A
100
AcDbEntity
  8
0
100
AcDbLine
 10
-24.99999999999999
 20
-86.00000000000006
 30
0.0
 11
-26.99999999999999
 21
-86.00000000000006
 31
0.0
  0
LINE
  5
BC38
330
BC0A
100
AcDbEntity
  8
0
100
AcDbLine
 10
-26.99999999999999
 20
-46.00000000000001
 30
0.0
 11
-25.0
 21
-46.00000000000001
 31
0.0
  0
ENDBLK
  5
BC0C
330
BC0A
100
AcDbEntity
  8
0
100
AcDbBlockEnd
  0
BLOCK
  5
BC3A
330
BC39
100
AcDbEntity
  8
0
100
AcDbBlockBegin
  2
SAE500_50_2-Bottom
 70
     0
 10
0.0
 20
0.0
 30
0.0
  3
SAE500_50_2-Bottom
  1

  0
SPLINE
  5
BC3C
330
BC39
100
AcDbEntity
  8
0
100
AcDbSpline
210
0.0
220
0.0
230
1.0
 70
     8
 71
     3
 72
    11
 73
     7
 74
     0
 42
0.000000001
 43
0.0000000001
 40
0.0
 40
0.0
 40
0.0
 40
0.0
 40
0.3318338501120348
 40
0.3318338501120348
 40
0.3318338501120348
 40
1.0
 40
1.0
 40
1.0
 40
1.0
 10
29.66666666666665
 20
2.000000000000019
 30
0.0
 10
29.35375429160843
 20
2.000040447362361
 30
0.0
 10
28.94839075374271
 20
1.996205994621999
 30
0.0
 10
28.55646205790612
 20
1.998524212983933
 30
0.0
 10
27.76729155092097
 20
2.003192076244327
 30
0.0
 10
26.99999399906854
 20
2.000338487582243
 30
0.0
 10
26.99999999916169
 20
1.999999999986145
 30
0.0
  0
LINE
  5
BC3D
330
BC39
100
AcDbEntity
  8
0
100
AcDbLine
 10
29.0
 20
2.000000000000008
 30
0.0
 11
29.03750456942342
 21
2.000000000000008
 31
0.0
  0
LINE
  5
BC3E
330
BC39
100
AcDbEntity
  8
0
100
AcDbLine
 10
29.61384198892771
 20
2.000000000000008
 30
0.0
 11
29.66666666666666
 21
2.000000000000008
 31
0.0
  0
ARC
  5
BC3F
330
BC39
100
AcDbEntity
  8
0
100
AcDbCircle
 10
29.0
 20
4.000000000000004
 30
0.0
 40
1.999999999999997
100
AcDbArc
 50
181.4532022047902
 51
264.2832216280733
  0
ARC
  5
BC40
330
BC39
100
AcDbEntity
  8
0
100
AcDbCircle
 10
29.0
 20
4.000000000000004
 30
0.0
 40
1.999999999999996
100
AcDbArc
 50
269.9360867562512
 51
270.0000000000001
  0
ARC
  5
BC41
330
BC39
100
AcDbEntity
  8
0
100
AcDbCircle
 10
29.0
 20
4.000000000000004
 30
0.0
 40
3.999999999999998
100
AcDbArc
 50
219.5790978429489
 51
270.0
  0
LINE
  5
BC42
330
BC39
100
AcDbEntity
  8
0
100
AcDbLine
 10
29.66666666666667
 20
0.0
 30
0.0
 11
29.0
 21
0.0
 31
0.0
  0
SPLINE
  5
BC43
330
BC39
100
AcDbEntity
  8
0
100
AcDbSpline
210
0.0
220
0.0
230
1.0
 70
     8
 71
     3
 72
    17
 73
    13
 74
     0
 42
0.000000001
 43
0.0000000001
 40
-1.0
 40
-1.0
 40
-1.0
 40
-1.0
 40
-0.8013478827028427
 40
-0.8013478827028427
 40
-0.8013478827028427
 40
-0.3797498890805
 40
-0.3797498890805
 40
-0.3797498890805
 40
-0.0799923328232457
 40
-0.0799923328232457
 40
-0.0799923328232457
 40
0.0
 40
0.0
 40
0.0
 40
0.0
 10
25.0
 20
2.000000000000018
 30
0.0
 10
24.999999612826
 20
1.999251614701847
 30
0.0
 10
25.12461756933483
 20
1.921359120919632
 30
0.0
 10
25.33198188069585
 20
1.794364022356468
 30
0.0
 10
25.77206970260371
 20
1.524843216424098
 30
0.0
 10
26.60515367029447
 20
1.043246659509885
 30
0.0
 10
27.47953285487158
 20
0.6494211719877728
 30
0.0
 10
28.10121932296665
 20
0.3694099586583315
 30
0.0
 10
28.7350139990591
 20
0.1286161190781323
 30
0.0
 10
29.26599598570153
 20
0.0375464459017908
 30
0.0
 10
29.40769212283642
 20
0.013243887201405
 30
0.0
 10
29.53971372665336
 20
0.0000044906778042
 30
0.0
 10
29.66666666669721
 20
0.0000000000623262
 30
0.0
  0
LINE
  5
BC44
330
BC39
100
AcDbEntity
  8
0
100
AcDbLine
 10
29.66666666666668
 20
2.000000000000008
 30
0.0
 11
29.66666666666668
 21
0.0
 31
0.0
  0
SPLINE
  5
BC45
330
BC39
100
AcDbEntity
  8
0
100
AcDbSpline
210
0.0
220
0.0
230
1.0
 70
     8
 71
     3
 72
    12
 73
     8
 74
     0
 42
0.000000001
 43
0.0000000001
 40
0.0
 40
0.0
 40
0.0
 40
0.0
 40
0.001578840422537
 40
0.001578840422537
 40
0.0030605769538512
 40
0.0030605769538512
 40
0.0035601145788109
 40
0.0035601145788109
 40
0.0035601145788109
 40
0.0035601145788109
 10
27.00195427665115
 20
3.898668047694796
 30
0.0
 10
27.00202997342042
 20
3.896203671664677
 30
0.0
 10
27.00209783858645
 20
3.89407526548842
 30
0.0
 10
27.00220086820227
 20
3.890899160307677
 30
0.0
 10
27.00223837529543
 20
3.88977364655307
 30
0.0
 10
27.00225991891322
 20
3.88912825029401
 30
0.0
 10
27.00226292083907
 20
3.88903865827906
 30
0.0
 10
27.00226292084042
 20
3.889038658238823
 30
0.0
  0
SPLINE
  5
BC46
330
BC39
100
AcDbEntity
  8
0
100
AcDbSpline
210
0.0
220
0.0
230
1.0
 70
     8
 71
     3
 72
    34
 73
    30
 74
     0
 42
0.000000001
 43
0.0000000001
 40
0.0198463910573681
 40
0.0198463910573681
 40
0.0198463910573681
 40
0.0198463910573681
 40
0.0200310349779048
 40
0.0200310349779048
 40
0.0209983742184096
 40
0.0209983742184096
 40
0.0216463357683064
 40
0.0216463357683064
 40
0.0220006180320908
 40
0.0220006180320908
 40
0.0223001435316032
 40
0.0223001435316032
 40
0.0224475334773915
 40
0.0224475334773915
 40
0.0226538341501008
 40
0.0226538341501008
 40
0.0228505064043758
 40
0.0228505064043758
 40
0.0231086537433797
 40
0.0231086537433797
 40
0.023521664677191
 40
0.023521664677191
 40
0.0243100654543494
 40
0.0243100654543494
 40
0.0261334247791657
 40
0.0261334247791657
 40
0.0313029284497635
 40
0.0313029284497635
 40
0.0334097779468682
 40
0.0334097779468682
 40
0.0334097779468682
 40
0.0334097779468682
 10
27.00015575633118
 20
3.985729252616607
 30
0.0
 10
27.0001557563318
 20
3.985729252563912
 30
0.0
 10
27.00015598553419
 20
3.98570985156046
 30
0.0
 10
27.00015882398619
 20
3.985469989007386
 30
0.0
 10
27.00016469095559
 20
3.984975564980669
 30
0.0
 10
27.00017645694423
 20
3.9840017683912
 30
0.0
 10
27.00018218256328
 20
3.983529964170023
 30
0.0
 10
27.00019551377627
 20
3.982452452991816
 30
0.0
 10
27.00020114423449
 20
3.981999979786072
 30
0.0
 10
27.00021479858174
 20
3.980919048220064
 30
0.0
 10
27.00022250668674
 20
3.980313582902402
 30
0.0
 10
27.00023692815183
 20
3.979201596371083
 30
0.0
 10
27.00024221428626
 20
3.978796881013147
 30
0.0
 10
27.00025587798476
 20
3.977760912058989
 30
0.0
 10
27.00026483151336
 20
3.977090158388964
 30
0.0
 10
27.00028278482093
 20
3.975765038218277
 30
0.0
 10
27.00029191623541
 20
3.975099864710502
 30
0.0
 10
27.00031293990616
 20
3.973588710983542
 30
0.0
 10
27.00032498351016
 20
3.972737962228191
 30
0.0
 10
27.00035592010929
 20
3.970587507195856
 30
0.0
 10
27.00037483936116
 20
3.969306622146077
 30
0.0
 10
27.00042942969001
 20
3.965694829448613
 30
0.0
 10
27.00046510365285
 20
3.963439515244406
 30
0.0
 10
27.00058440985325
 20
3.956180845856211
 30
0.0
 10
27.00066963954596
 20
3.951442352346274
 30
0.0
 10
27.00101574909137
 20
3.933582541496527
 30
0.0
 10
27.00132537992901
 20
3.920727413693342
 30
0.0
 10
27.00173747442554
 20
3.905873615526203
 30
0.0
 10
27.00185326473253
 20
3.901956581054863
 30
0.0
 10
27.00195427665115
 20
3.898668047694796
 30
0.0
  0
SPLINE
  5
BC47
330
BC39
100
AcDbEntity
  8
0
100
AcDbSpline
210
0.0
220
0.0
230
1.0
 70
     8
 71
     3
 72
    30
 73
    26
 74
     0
 42
0.000000001
 43
0.0000000001
 40
0.0376218752042703
 40
0.0376218752042703
 40
0.0376218752042703
 40
0.0376218752042703
 40
0.0397690632234327
 40
0.0397690632234327
 40
0.0419128431525684
 40
0.0419128431525684
 40
0.0442563758180261
 40
0.0442563758180261
 40
0.0472624757643907
 40
0.0472624757643907
 40
0.0514543842569888
 40
0.0514543842569888
 40
0.0576093713454372
 40
0.0576093713454372
 40
0.066469127222504
 40
0.066469127222504
 40
0.0781152421977424
 40
0.0781152421977424
 40
0.0932105642405115
 40
0.0932105642405115
 40
0.1074206239739742
 40
0.1074206239739742
 40
0.1216264670762269
 40
0.1216264670762269
 40
0.1359644299550774
 40
0.1359644299550774
 40
0.1359644299550774
 40
0.1359644299550774
 10
28.73800301697514
 20
2.014931815427801
 30
0.0
 10
28.73800300834514
 20
2.014931816298535
 30
0.0
 10
28.73916602459951
 20
2.014813869381602
 30
0.0
 10
28.74365553483107
 20
2.014382086358671
 30
0.0
 10
28.74701097883117
 20
2.014066398137556
 30
0.0
 10
28.75557852446997
 20
2.01330061966866
 30
0.0
 10
28.76099758581632
 20
2.012835577876426
 30
0.0
 10
28.77448835143806
 20
2.011745274908915
 30
0.0
 10
28.78299132370092
 20
2.011102732753997
 30
0.0
 10
28.80422321344978
 20
2.009624776061321
 30
0.0
 10
28.81747951180173
 20
2.008799822752921
 30
0.0
 10
28.85073859406424
 20
2.006966713456851
 30
0.0
 10
28.87130466448813
 20
2.006034491057966
 30
0.0
 10
28.9212778774477
 20
2.004162774358168
 30
0.0
 10
28.95109220756965
 20
2.003377790263968
 30
0.0
 10
29.0180375872096
 20
2.002065233925717
 30
0.0
 10
29.05518158152158
 20
2.001668817923176
 30
0.0
 10
29.13555381071967
 20
2.001070221890064
 30
0.0
 10
29.17738095592059
 20
2.00095459756016
 30
0.0
 10
29.26655111510078
 20
2.000644529536873
 30
0.0
 10
29.31163267390067
 20
2.000485285149799
 30
0.0
 10
29.40004391444615
 20
2.000256274256868
 30
0.0
 10
29.44421812931365
 20
2.000174702971478
 30
0.0
 10
29.53262508490747
 20
2.000055233643811
 30
0.0
 10
29.57877184579754
 20
2.000028233649459
 30
0.0
 10
29.61384198892771
 20
2.000026051676865
 30
0.0
  0
SPLINE
  5
BC48
330
BC39
100
AcDbEntity
  8
0
100
AcDbSpline
210
0.0
220
0.0
230
1.0
 70
     8
 71
     3
 72
     8
 73
     4
 74
     0
 42
0.000000001
 43
0.0000000001
 40
0.0
 40
0.0
 40
0.0
 40
0.0
 40
0.0037391917720309
 40
0.0037391917720309
 40
0.0037391917720309
 40
0.0037391917720309
 10
27.00007741729242
 20
3.99999979887208
 30
0.0
 10
27.00005077637428
 20
3.993410605742236
 30
0.0
 10
27.00002390987892
 20
3.985956876564986
 30
0.0
 10
27.0
 20
3.978440091103265
 30
0.0
  0
SPLINE
  5
BC49
330
BC39
100
AcDbEntity
  8
0
100
AcDbSpline
210
0.0
220
0.0
230
1.0
 70
     8
 71
     3
 72
    10
 73
     6
 74
     0
 42
0.000000001
 43
0.0000000001
 40
0.014812204267399
 40
0.014812204267399
 40
0.014812204267399
 40
0.014812204267399
 40
0.0176321801771822
 40
0.0176321801771822
 40
0.0186222474770699
 40
0.0186222474770699
 40
0.0186222474770699
 40
0.0186222474770699
 10
27.00005653402294
 20
3.994639882038049
 30
0.0
 10
27.00005901773443
 20
3.994392424382739
 30
0.0
 10
27.00006095928643
 20
3.994201926127821
 30
0.0
 10
27.00006225914553
 20
3.994075214453731
 30
0.0
 10
27.00006245838326
 20
3.994055882778152
 30
0.0
 10
27.0000624583834
 20
3.994055882763839
 30
0.0
  0
SPLINE
  5
BC4A
330
BC39
100
AcDbEntity
  8
0
100
AcDbSpline
210
0.0
220
0.0
230
1.0
 70
     8
 71
     3
 72
    22
 73
    18
 74
     0
 42
0.000000001
 43
0.0000000001
 40
0.0
 40
0.0
 40
0.0
 40
0.0
 40
0.0047482316660021
 40
0.0047482316660021
 40
0.0079696145613961
 40
0.0079696145613961
 40
0.0086323916693685
 40
0.0086323916693685
 40
0.0095953767435421
 40
0.0095953767435421
 40
0.0105554887330849
 40
0.0105554887330849
 40
0.0124867382945999
 40
0.0124867382945999
 40
0.0143949972216527
 40
0.0143949972216527
 40
0.0176512787658992
 40
0.0176512787658992
 40
0.0176512787658992
 40
0.0176512787658992
 10
27.00023191827642
 20
4.000001129547959
 30
0.0
 10
27.00031959799658
 20
3.98570391570156
 30
0.0
 10
27.00045516332828
 20
3.971650067410725
 30
0.0
 10
27.0008177550405
 20
3.947184531955551
 30
0.0
 10
27.00100809068257
 20
3.936705879048455
 30
0.0
 10
27.00130434413187
 20
3.923763216789891
 30
0.0
 10
27.00135737094517
 20
3.921539174604914
 30
0.0
 10
27.00148951689076
 20
3.916211469564515
 30
0.0
 10
27.00157107535504
 20
3.913110931033069
 30
0.0
 10
27.00172467472093
 20
3.90753969154594
 30
0.0
 10
27.00179833158615
 20
3.905002484408855
 30
0.0
 10
27.00200067367968
 20
3.898268876292321
 30
0.0
 10
27.0021147578046
 20
3.894794203978351
 30
0.0
 10
27.00230376250223
 20
3.889237441988464
 30
0.0
 10
27.00238132516781
 20
3.887086248307702
 30
0.0
 10
27.00254805573813
 20
3.882571301851179
 30
0.0
 10
27.00260825590366
 20
3.88108621109622
 30
0.0
 10
27.00260825590265
 20
3.881086211121766
 30
0.0
  0
CIRCLE
  5
BC4B
330
BC39
100
AcDbEntity
  8
0
100
AcDbCircle
 10
0.0
 20
67.99999999999998
 30
0.0
 40
2.5
  0
CIRCLE
  5
BC4C
330
BC39
100
AcDbEntity
  8
0
100
AcDbCircle
 10
0.0
 20
47.99999999999998
 30
0.0
 40
2.5
  0
LINE
  5
BC4D
330
BC39
100
AcDbEntity
  8
0
100
AcDbLine
 10
23.00000000000001
 20
2.000000000000005
 30
0.0
 11
-23.00000000000001
 21
2.000000000000005
 31
0.0
  0
LINE
  5
BC4E
330
BC39
100
AcDbEntity
  8
0
100
AcDbLine
 10
22.99999999999998
 20
86.00000000000001
 30
0.0
 11
-22.99999999999999
 21
86.00000000000001
 31
0.0
  0
SPLINE
  5
BC4F
330
BC39
100
AcDbEntity
  8
0
100
AcDbSpline
210
0.0
220
0.0
230
1.0
 70
     8
 71
     3
 72
    17
 73
    13
 74
     0
 42
0.000000001
 43
0.0000000001
 40
-1.0
 40
-1.0
 40
-1.0
 40
-1.0
 40
-0.8013478827028427
 40
-0.8013478827028427
 40
-0.8013478827028427
 40
-0.3797498890805
 40
-0.3797498890805
 40
-0.3797498890805
 40
-0.0799923328232457
 40
-0.0799923328232457
 40
-0.0799923328232457
 40
0.0
 40
0.0
 40
0.0
 40
0.0
 10
-25.0
 20
2.000000000000018
 30
0.0
 10
-24.999999612826
 20
1.999251614701847
 30
0.0
 10
-25.12461756933483
 20
1.921359120919632
 30
0.0
 10
-25.33198188069585
 20
1.794364022356468
 30
0.0
 10
-25.77206970260371
 20
1.524843216424098
 30
0.0
 10
-26.60515367029447
 20
1.043246659509885
 30
0.0
 10
-27.47953285487158
 20
0.6494211719877728
 30
0.0
 10
-28.10121932296665
 20
0.3694099586583315
 30
0.0
 10
-28.7350139990591
 20
0.1286161190781323
 30
0.0
 10
-29.26599598570153
 20
0.0375464459017908
 30
0.0
 10
-29.40769212283642
 20
0.013243887201405
 30
0.0
 10
-29.53971372665336
 20
0.0000044906778042
 30
0.0
 10
-29.66666666669721
 20
0.0000000000623262
 30
0.0
  0
LINE
  5
BC50
330
BC39
100
AcDbEntity
  8
0
100
AcDbLine
 10
-29.0
 20
0.0
 30
0.0
 11
-29.66666666666667
 21
0.0
 31
0.0
  0
ARC
  5
BC51
330
BC39
100
AcDbEntity
  8
0
100
AcDbCircle
 10
-29.0
 20
4.000000000000004
 30
0.0
 40
3.999999999999998
100
AcDbArc
 50
270.0000000000001
 51
320.4209021570511
  0
ARC
  5
BC52
330
BC39
100
AcDbEntity
  8
0
100
AcDbCircle
 10
-29.0
 20
4.000000000000004
 30
0.0
 40
1.999999999999996
100
AcDbArc
 50
269.9999999999999
 51
270.0639132437485
  0
ARC
  5
BC53
330
BC39
100
AcDbEntity
  8
0
100
AcDbCircle
 10
-29.0
 20
4.000000000000004
 30
0.0
 40
1.999999999999996
100
AcDbArc
 50
275.7167783719278
 51
358.5467977953086
  0
LINE
  5
BC54
330
BC39
100
AcDbEntity
  8
0
100
AcDbLine
 10
-29.66666666666666
 20
2.000000000000008
 30
0.0
 11
-29.61384198892646
 21
2.000000000000008
 31
0.0
  0
LINE
  5
BC55
330
BC39
100
AcDbEntity
  8
0
100
AcDbLine
 10
-29.03750456942333
 20
2.000000000000008
 30
0.0
 11
-29.0
 21
2.000000000000008
 31
0.0
  0
SPLINE
  5
BC56
330
BC39
100
AcDbEntity
  8
0
100
AcDbSpline
210
0.0
220
0.0
230
1.0
 70
     8
 71
     3
 72
    11
 73
     7
 74
     0
 42
0.000000001
 43
0.0000000001
 40
0.0
 40
0.0
 40
0.0
 40
0.0
 40
0.3318338501120348
 40
0.3318338501120348
 40
0.3318338501120348
 40
1.0
 40
1.0
 40
1.0
 40
1.0
 10
-29.66666666666665
 20
2.000000000000019
 30
0.0
 10
-29.35375429160843
 20
2.000040447362361
 30
0.0
 10
-28.94839075374271
 20
1.996205994621999
 30
0.0
 10
-28.55646205790612
 20
1.998524212983933
 30
0.0
 10
-27.76729155092097
 20
2.003192076244327
 30
0.0
 10
-26.99999399906854
 20
2.000338487582243
 30
0.0
 10
-26.99999999916169
 20
1.999999999986145
 30
0.0
  0
LINE
  5
BC57
330
BC39
100
AcDbEntity
  8
0
100
AcDbLine
 10
-29.66666666666668
 20
0.0
 30
0.0
 11
-29.66666666666668
 21
2.000000000000008
 31
0.0
  0
SPLINE
  5
BC58
330
BC39
100
AcDbEntity
  8
0
100
AcDbSpline
210
0.0
220
0.0
230
1.0
 70
     8
 71
     3
 72
    32
 73
    28
 74
     0
 42
0.000000001
 43
0.0000000001
 40
0.0
 40
0.0
 40
0.0
 40
0.0
 40
0.0037585669315593
 40
0.0037585669315593
 40
0.0081733651726755
 40
0.0081733651726755
 40
0.0093477087311828
 40
0.0093477087311828
 40
0.0102070492090062
 40
0.0102070492090062
 40
0.0105112652264735
 40
0.0105112652264735
 40
0.0107497033933395
 40
0.0107497033933395
 40
0.0108844857463068
 40
0.0108844857463068
 40
0.0110891038633571
 40
0.0110891038633571
 40
0.0112858996992131
 40
0.0112858996992131
 40
0.0115448140104055
 40
0.0115448140104055
 40
0.0119638386062389
 40
0.0119638386062389
 40
0.0127903558618871
 40
0.0127903558618871
 40
0.0135583645755462
 40
0.0135583645755462
 40
0.0135583645755462
 40
0.0135583645755462
 10
-27.00195427665115
 20
3.898668047694796
 30
0.0
 10
-27.00177407390884
 20
3.90453470915185
 30
0.0
 10
-27.00154819682387
 20
3.912398591801196
 30
0.0
 10
-27.00107802099589
 20
3.931118253630229
 30
0.0
 10
-27.00083763994076
 20
3.942170453902781
 30
0.0
 10
-27.0005743406927
 20
3.956851351229778
 30
0.0
 10
-27.00052026197618
 20
3.960026489686158
 30
0.0
 10
-27.00042786529119
 20
3.965792891627821
 30
0.0
 10
-27.00038890767116
 20
3.968330229876393
 30
0.0
 10
-27.00033547995819
 20
3.972002359489015
 30
0.0
 10
-27.00032132067997
 20
3.972993650984155
 30
0.0
 10
-27.00029619696084
 20
3.974788795445474
 30
0.0
 10
-27.00028503150584
 20
3.975599512798813
 30
0.0
 10
-27.00026838636041
 20
3.976827615965094
 30
0.0
 10
-27.00026249026551
 20
3.977266748203494
 30
0.0
 10
-27.00024846173961
 20
3.978320411049213
 30
0.0
 10
-27.00024061487682
 20
3.978918396139517
 30
0.0
 10
-27.00022735529455
 20
3.979938928288148
 30
0.0
 10
-27.00022169679529
 20
3.980379630253982
 30
0.0
 10
-27.00021036557704
 20
3.981268294158699
 30
0.0
 10
-27.00020511793113
 20
3.981685009649486
 30
0.0
 10
-27.00019338989855
 20
3.982621967959757
 30
0.0
 10
-27.00018801606328
 20
3.983057836228267
 30
0.0
 10
-27.00017465416588
 20
3.984147423074823
 30
0.0
 10
-27.00016905874186
 20
3.984613268124733
 30
0.0
 10
-27.00016014770843
 20
3.985357916410328
 30
0.0
 10
-27.00015575652745
 20
3.985729236009856
 30
0.0
 10
-27.00015575633116
 20
3.985729252617601
 30
0.0
  0
SPLINE
  5
BC59
330
BC39
100
AcDbEntity
  8
0
100
AcDbSpline
210
0.0
220
0.0
230
1.0
 70
     8
 71
     3
 72
    12
 73
     8
 74
     0
 42
0.000000001
 43
0.0000000001
 40
0.0298510410208217
 40
0.0298510410208217
 40
0.0298510410208217
 40
0.0298510410208217
 40
0.0303786306343528
 40
0.0303786306343528
 40
0.0318668329739215
 40
0.0318668329739215
 40
0.0334115120427131
 40
0.0334115120427131
 40
0.0334115120427131
 40
0.0334115120427131
 10
-27.00226292084047
 20
3.889038658237229
 30
0.0
 10
-27.00226292084104
 20
3.889038658220061
 30
0.0
 10
-27.00225958099622
 20
3.889138326917351
 30
0.0
 10
-27.00223656214739
 20
3.889828110519166
 30
0.0
 10
-27.00219819970893
 20
3.890979989919043
 30
0.0
 10
-27.00209488387362
 20
3.894167941274253
 30
0.0
 10
-27.00202833557021
 20
3.896256993343121
 30
0.0
 10
-27.00195427665115
 20
3.898668047694796
 30
0.0
  0
SPLINE
  5
BC5A
330
BC39
100
AcDbEntity
  8
0
100
AcDbSpline
210
0.0
220
0.0
230
1.0
 70
     8
 71
     3
 72
    10
 73
     6
 74
     0
 42
0.000000001
 43
0.0000000001
 40
0.0197580716125841
 40
0.0197580716125841
 40
0.0197580716125841
 40
0.0197580716125841
 40
0.0200675640806408
 40
0.0200675640806408
 40
0.0234974609525307
 40
0.0234974609525307
 40
0.0234974609525307
 40
0.0234974609525307
 10
-27.0
 20
3.97844009110703
 30
0.0
 10
-27.00000197888754
 20
3.979062213582236
 30
0.0
 10
-27.00000397678981
 20
3.979683954631683
 30
0.0
 10
-27.00002832700896
 20
3.987184564627018
 30
0.0
 10
-27.00005298003236
 20
3.993955644337455
 30
0.0
 10
-27.00007741729243
 20
3.999999798872083
 30
0.0
  0
SPLINE
  5
BC5B
330
BC39
100
AcDbEntity
  8
0
100
AcDbSpline
210
0.0
220
0.0
230
1.0
 70
     8
 71
     3
 72
     8
 73
     4
 74
     0
 42
0.000000001
 43
0.0000000001
 40
0.0050013566796416
 40
0.0050013566796416
 40
0.0050013566796416
 40
0.0050013566796416
 40
0.0088054712256556
 40
0.0088054712256556
 40
0.0088054712256556
 40
0.0088054712256556
 10
-27.00006245838342
 20
3.994055882764029
 30
0.0
 10
-27.00006245835227
 20
3.994055885786405
 30
0.0
 10
-27.00005983377697
 20
3.994310678362891
 30
0.0
 10
-27.00005648542138
 20
3.994644264737089
 30
0.0
  0
SPLINE
  5
BC5C
330
BC39
100
AcDbEntity
  8
0
100
AcDbSpline
210
0.0
220
0.0
230
1.0
 70
     8
 71
     3
 72
    26
 73
    22
 74
     0
 42
0.000000001
 43
0.0000000001
 40
0.0187580389497618
 40
0.0187580389497618
 40
0.0187580389497618
 40
0.0187580389497618
 40
0.0213377549697771
 40
0.0213377549697771
 40
0.0232598680137565
 40
0.0232598680137565
 40
0.025096644193516
 40
0.025096644193516
 40
0.0263309678310771
 40
0.0263309678310771
 40
0.0270251141499645
 40
0.0270251141499645
 40
0.0280228513293023
 40
0.0280228513293023
 40
0.0289535883431699
 40
0.0289535883431699
 40
0.0302236474203933
 40
0.0302236474203933
 40
0.0325099681571477
 40
0.0325099681571477
 40
0.0364276060208405
 40
0.0364276060208405
 40
0.0364276060208405
 40
0.0364276060208405
 10
-27.00260825590267
 20
3.881086211120963
 30
0.0
 10
-27.00260825589733
 20
3.881086211254679
 30
0.0
 10
-27.00257016414229
 20
3.882031118282465
 30
0.0
 10
-27.00245202017843
 20
3.885159321175622
 30
0.0
 10
-27.0023848493773
 20
3.88697341496065
 30
0.0
 10
-27.00222253125077
 20
3.89159496135152
 30
0.0
 10
-27.00212790777021
 20
3.894372318595064
 30
0.0
 10
-27.00193997861727
 20
3.90029005218214
 30
0.0
 10
-27.00185479497461
 20
3.903066556147442
 30
0.0
 10
-27.00170942180161
 20
3.908101940236361
 30
0.0
 10
-27.00165405843504
 20
3.910076590809831
 30
0.0
 10
-27.00151675297427
 20
3.915163691290029
 30
0.0
 10
-27.00143212536938
 20
3.918465497823789
 30
0.0
 10
-27.00127812023608
 20
3.924856450716807
 30
0.0
 10
-27.00120666025832
 20
3.927998922374811
 30
0.0
 10
-27.00105054790255
 20
3.935272521076044
 30
0.0
 10
-27.00096909291405
 20
3.939408053163627
 30
0.0
 10
-27.00076367910542
 20
3.950709824486202
 30
0.0
 10
-27.00065584922357
 20
3.957742842178863
 30
0.0
 10
-27.00040988482755
 20
3.976560899964488
 30
0.0
 10
-27.00030426044833
 20
3.988204884071746
 30
0.0
 10
-27.0002319182764
 20
4.00000112954796
 30
0.0
  0
SPLINE
  5
BC5D
330
BC39
100
AcDbEntity
  8
0
100
AcDbSpline
210
0.0
220
0.0
230
1.0
 70
     8
 71
     3
 72
    34
 73
    30
 74
     0
 42
0.000000001
 43
0.0000000001
 40
0.0
 40
0.0
 40
0.0
 40
0.0
 40
0.0058070548368103
 40
0.0058070548368103
 40
0.0135756362333569
 40
0.0135756362333569
 40
0.0333524747464735
 40
0.0333524747464735
 40
0.0482044948418467
 40
0.0482044948418467
 40
0.0632866924598455
 40
0.0632866924598455
 40
0.0737142332356457
 40
0.0737142332356457
 40
0.0805169301451945
 40
0.0805169301451945
 40
0.0857759083305922
 40
0.0857759083305922
 40
0.0898082178421749
 40
0.0898082178421749
 40
0.0925613006897426
 40
0.0925613006897426
 40
0.0944300184403262
 40
0.0944300184403262
 40
0.0958328755722954
 40
0.0958328755722954
 40
0.0982162904222721
 40
0.0982162904222721
 40
0.0983920141020157
 40
0.0983920141020157
 40
0.0983920141020157
 40
0.0983920141020157
 10
-29.61384198892645
 20
2.000026051676864
 30
0.0
 10
-29.59963814100098
 20
2.000026935403138
 30
0.0
 10
-29.5832637811775
 20
2.00003192898852
 30
0.0
 10
-29.54375153987001
 20
2.000053680742746
 30
0.0
 10
-29.51986547785931
 20
2.00007460920513
 30
0.0
 10
-29.43472752710578
 20
2.000183131731782
 30
0.0
 10
-29.37322699937436
 20
2.000305740882603
 30
0.0
 10
-29.26496044459435
 20
2.000641813705014
 30
0.0
 10
-29.21819603770419
 20
2.000804798293101
 30
0.0
 10
-29.13119188815734
 20
2.001129569683104
 30
0.0
 10
-29.08763700898767
 20
2.001322795635581
 30
0.0
 10
-29.00751656110607
 20
2.002266797150954
 30
0.0
 10
-28.97320146493293
 20
2.002836291184562
 30
0.0
 10
-28.91605841911894
 20
2.004376654255379
 30
0.0
 10
-28.89315251977015
 20
2.005148660263889
 30
0.0
 10
-28.85322363933832
 20
2.006866691770343
 30
0.0
 10
-28.83586231659754
 20
2.007742942495603
 30
0.0
 10
-28.80649133107438
 20
2.009480322641023
 30
0.0
 10
-28.79402396771208
 20
2.010307905984363
 30
0.0
 10
-28.77481216548854
 20
2.011720671468302
 30
0.0
 10
-28.76742411156611
 20
2.012305557516549
 30
0.0
 10
-28.75658514281862
 20
2.013214337264864
 30
0.0
 10
-28.75259323460323
 20
2.013564651160257
 30
0.0
 10
-28.74672348892528
 20
2.014096062566379
 30
0.0
 10
-28.74454729230483
 20
2.014299177462446
 30
0.0
 10
-28.73988134155702
 20
2.014742474753729
 30
0.0
 10
-28.73822622290609
 20
2.014909356028353
 30
0.0
 10
-28.73801039790403
 20
2.014931070681394
 30
0.0
 10
-28.73800301533188
 20
2.014931815593602
 30
0.0
 10
-28.73800301697569
 20
2.014931815427746
 30
0.0
  0
LINE
  5
BC5E
330
BC39
100
AcDbEntity
  8
0
100
AcDbLine
 10
-27.0
 20
2.000000000000011
 30
0.0
 11
-23.0
 21
2.000000000000005
 31
0.0
  0
LINE
  5
BC5F
330
BC39
100
AcDbEntity
  8
0
100
AcDbLine
 10
-22.99999999999999
 20
86.00000000000001
 30
0.0
 11
-26.99999999999999
 21
86.00000000000001
 31
0.0
  0
LINE
  5
BC60
330
BC39
100
AcDbEntity
  8
0
100
AcDbLine
 10
-26.99999999999999
 20
2.000000000000011
 30
0.0
 11
-26.99999999999999
 21
86.00000000000001
 31
0.0
  0
LINE
  5
BC61
330
BC39
100
AcDbEntity
  8
0
100
AcDbLine
 10
27.0
 20
2.000000000000011
 30
0.0
 11
23.0
 21
2.000000000000005
 31
0.0
  0
LINE
  5
BC62
330
BC39
100
AcDbEntity
  8
0
100
AcDbLine
 10
26.99999999999999
 20
2.000000000000011
 30
0.0
 11
26.99999999999999
 21
86.00000000000001
 31
0.0
  0
LINE
  5
BC63
330
BC39
100
AcDbEntity
  8
0
100
AcDbLine
 10
22.99999999999999
 20
86.00000000000001
 30
0.0
 11
26.99999999999999
 21
86.00000000000001
 31
0.0
  0
LINE
  5
BC64
330
BC39
100
AcDbEntity
  8
0
100
AcDbLine
 10
66.50000000000003
 20
0.0
 30
0.0
 11
29.66666666666667
 21
0.0
 31
0.0
  0
LINE
  5
BC65
330
BC39
100
AcDbEntity
  8
0
100
AcDbLine
 10
66.50000000000003
 20
2.000000000000081
 30
0.0
 11
66.50000000000003
 21
0.0
 31
0.0
  0
LINE
  5
BC66
330
BC39
100
AcDbEntity
  8
0
100
AcDbLine
 10
29.66666666666666
 20
2.000000000000008
 30
0.0
 11
66.50000000000003
 21
2.000000000000081
 31
0.0
  0
LINE
  5
BC67
330
BC39
100
AcDbEntity
  8
0
100
AcDbLine
 10
-66.50000000000003
 20
2.000000000000081
 30
0.0
 11
-29.66666666666666
 21
2.000000000000008
 31
0.0
  0
LINE
  5
BC68
330
BC39
100
AcDbEntity
  8
0
100
AcDbLine
 10
-66.50000000000003
 20
0.0
 30
0.0
 11
-66.50000000000003
 21
2.000000000000081
 31
0.0
  0
LINE
  5
BC69
330
BC39
100
AcDbEntity
  8
0
100
AcDbLine
 10
-29.66666666666667
 20
0.0
 30
0.0
 11
-66.50000000000003
 21
0.0
 31
0.0
  0
ENDBLK
  5
BC3B
330
BC39
100
AcDbEntity
  8
0
100
AcDbBlockEnd
  0
BLOCK
  5
BC6B
330
BC6A
100
AcDbEntity
  8
0
100
AcDbBlockBegin
  2
SAE500_50_2-ISO
 70
     0
 10
0.0
 20
0.0
 30
0.0
  3
SAE500_50_2-ISO
  1

  0
LINE
  5
BC6D
330
BC6A
100
AcDbEntity
  8
0
100
AcDbLine
 10
47.84718214888231
 20
-54.43332288961418
 30
0.0
 11
46.43296858650922
 21
-55.2498194705419
 31
0.0
  0
SPLINE
  5
BC6E
330
BC6A
100
AcDbEntity
  8
0
100
AcDbSpline
210
0.0
220
0.0
230
1.0
 70
     8
 71
     3
 72
    11
 73
     7
 74
     0
 42
0.000000001
 43
0.0000000001
 40
0.0
 40
0.0
 40
0.0
 40
0.0
 40
0.3318338501120348
 40
0.3318338501120348
 40
0.3318338501120348
 40
1.0
 40
1.0
 40
1.0
 40
1.0
 10
49.73280023204643
 20
-53.58280561781453
 30
0.0
 10
49.51150916912137
 20
-53.64253255613447
 30
0.0
 10
49.22758523018559
 20
-53.63531540110169
 30
0.0
 10
48.94881056369396
 20
-53.63661333083983
 30
0.0
 10
48.38748206892725
 20
-53.63922678548185
 30
0.0
 10
47.84693855871823
 20
-53.68771735532135
 30
0.0
 10
47.84718214829935
 20
-54.43332288714383
 30
0.0
  0
LINE
  5
BC6F
330
BC6A
100
AcDbEntity
  8
0
100
AcDbLine
 10
49.2613957112554
 20
-53.31064009083861
 30
0.0
 11
49.73280023204644
 21
-53.58280561781452
 31
0.0
  0
ELLIPSE
  5
BC70
330
BC6A
100
AcDbEntity
  8
0
100
AcDbEllipse
 10
47.84718214888231
 20
-54.12713667176634
 30
0.0
 11
1.999999999999996
 21
-0.0000000000001196
 31
0.0
210
0.0
220
0.0
230
1.0
 40
0.5773502691896257
 41
0.7853981633976855
 42
2.356194490192603
  0
LINE
  5
BC71
330
BC6A
100
AcDbEntity
  8
0
100
AcDbLine
 10
46.43296858650922
 20
-55.2498194705419
 30
0.0
 11
46.43296858650922
 21
-53.31064009083862
 31
0.0
  0
ELLIPSE
  5
BC72
330
BC6A
100
AcDbEntity
  8
0
100
AcDbEllipse
 10
-17.91374850146658
 20
-103.0148694548138
 30
0.0
 11
-2.5
 21
-0.0000000000001492
 31
0.0
210
0.0
220
0.0
230
1.0
 40
0.5773502691896258
 41
3.742856870268575
 42
5.68192109050012
  0
LINE
  5
BC73
330
BC6A
100
AcDbEntity
  8
0
100
AcDbLine
 10
-14.37821459553387
 20
-119.7530493638322
 30
0.0
 11
-46.90512653011504
 21
-100.9736280024945
 31
0.0
  0
LINE
  5
BC74
330
BC6A
100
AcDbEntity
  8
0
100
AcDbLine
 10
11.07762952718184
 20
-33.20441178549331
 30
0.0
 11
11.07762952718184
 21
-53.20857801822258
 31
0.0
  0
LINE
  5
BC75
330
BC6A
100
AcDbEntity
  8
0
100
AcDbLine
 10
-46.90512653011503
 20
-99.34063484063912
 30
0.0
 11
-14.37821459553387
 21
-118.1200562019768
 31
0.0
  0
ELLIPSE
  5
BC76
330
BC6A
100
AcDbEntity
  8
0
100
AcDbEllipse
 10
-17.91374850146658
 20
-101.3818762929584
 30
0.0
 11
-2.499999999999999
 21
0.0000000000001492
 31
0.0
210
0.0
220
0.0
230
1.0
 40
0.5773502691896259
 41
0.0
 42
6.283185307179586
  0
LINE
  5
BC77
330
BC6A
100
AcDbEntity
  8
0
100
AcDbLine
 10
11.07762952718184
 20
-33.20441178549331
 30
0.0
 11
10.9938279079249
 21
-33.25279467292983
 31
0.0
  0
SPLINE
  5
BC78
330
BC6A
100
AcDbEntity
  8
0
100
AcDbSpline
210
0.0
220
0.0
230
1.0
 70
     8
 71
     3
 72
    11
 73
     7
 74
     0
 42
0.000000001
 43
0.0000000001
 40
-1.0
 40
-1.0
 40
-1.0
 40
-1.0
 40
-0.8013478827028427
 40
-0.8013478827028427
 40
-0.8013478827028427
 40
-0.6677585598032114
 40
-0.6677585598032114
 40
-0.6677585598032114
 40
-0.6677585598032114
 10
11.07762952718184
 20
-33.20441178549332
 30
0.0
 10
11.07815898927448
 20
-32.81150077781703
 30
0.0
 10
11.04511909772641
 20
-32.45726103508558
 30
0.0
 10
10.98828948235841
 20
-32.12366556771475
 30
0.0
 10
10.95007277497593
 20
-31.89932971257866
 30
0.0
 10
10.89901151576789
 20
-31.68587419779731
 30
0.0
 10
10.83627221298278
 20
-31.47991179733899
 30
0.0
  0
ELLIPSE
  5
BC79
330
BC6A
100
AcDbEntity
  8
0
100
AcDbEllipse
 10
6.834988840062563
 20
-30.44873582486229
 30
0.0
 11
3.999999999999998
 21
-0.0000000000000003
 31
0.0
210
0.0
220
0.0
230
1.0
 40
0.5773502691896258
 41
6.081788027110678
 42
6.283185307179586
  0
ELLIPSE
  5
BC7A
330
BC6A
100
AcDbEntity
  8
0
100
AcDbEllipse
 10
6.834988840062563
 20
-30.44873582486229
 30
0.0
 11
3.999999999999998
 21
0.0000000000000004
 31
0.0
210
0.0
220
0.0
230
1.0
 40
0.5773502691896258
 41
5.497787143782126
 42
6.081788027110678
  0
LINE
  5
BC7B
330
BC6A
100
AcDbEntity
  8
0
100
AcDbLine
 10
9.663415964808756
 20
-32.08172898671775
 30
0.0
 11
9.663415964808756
 21
-34.02090836642103
 31
0.0
  0
LINE
  5
BC7C
330
BC6A
100
AcDbEntity
  8
0
100
AcDbLine
 10
10.9938279079249
 20
-33.25279467292983
 30
0.0
 11
9.663415964808752
 21
-34.02090836642103
 31
0.0
  0
SPLINE
  5
BC7D
330
BC6A
100
AcDbEntity
  8
0
100
AcDbSpline
210
0.0
220
0.0
230
1.0
 70
     8
 71
     3
 72
    16
 73
    12
 74
     0
 42
0.000000001
 43
0.0000000001
 40
0.0
 40
0.0
 40
0.0
 40
0.0
 40
0.028263104651212
 40
0.028263104651212
 40
0.0461467092508481
 40
0.0461467092508481
 40
0.0689254427397603
 40
0.0689254427397603
 40
0.0923100215878084
 40
0.0923100215878084
 40
0.1011502105590548
 40
0.1011502105590548
 40
0.1011502105590548
 40
0.1011502105590548
 10
10.8226874736662
 20
-30.62972380243593
 30
0.0
 10
10.80998621320454
 20
-30.72300869381712
 30
0.0
 10
10.79811037487143
 20
-30.81797636096973
 30
0.0
 10
10.78565359348814
 20
-30.96788819305337
 30
0.0
 10
10.78254646822372
 20
-31.02527824829917
 30
0.0
 10
10.78088748538893
 20
-31.14704118937126
 30
0.0
 10
10.78384818045629
 20
-31.2098373849336
 30
0.0
 10
10.79631612113751
 20
-31.32216784255028
 30
0.0
 10
10.80579364453548
 20
-31.37271315100111
 30
0.0
 10
10.82335687831739
 20
-31.44183722685784
 30
0.0
 10
10.82868315822649
 20
-31.4608431774538
 30
0.0
 10
10.83461212148742
 20
-31.48028082540841
 30
0.0
  0
LINE
  5
BC7E
330
BC6A
100
AcDbEntity
  8
0
100
AcDbLine
 10
47.8471821488823
 20
-83.82719980301231
 30
0.0
 11
47.84718214888231
 21
-54.43332288961418
 31
0.0
  0
ELLIPSE
  5
BC7F
330
BC6A
100
AcDbEntity
  8
0
100
AcDbEllipse
 10
45.01875502413613
 20
-82.19420664115686
 30
0.0
 11
1.999999999999999
 21
-3.464101615137755
 31
0.0
210
0.0
220
0.0
230
1.0
 40
0.5773502691896249
 41
0.0
 42
0.7853981633974403
  0
LINE
  5
BC80
330
BC6A
100
AcDbEntity
  8
0
100
AcDbLine
 10
-14.37821459553387
 20
-118.1200562019768
 30
0.0
 11
-12.96400103316078
 21
-117.3035596210491
 31
0.0
  0
LINE
  5
BC81
330
BC6A
100
AcDbEntity
  8
0
100
AcDbLine
 10
47.8471821488823
 20
-83.82719980301231
 30
0.0
 11
-11.54978747078768
 21
-118.1200562019768
 31
0.0
  0
ELLIPSE
  5
BC82
330
BC6A
100
AcDbEntity
  8
0
100
AcDbEllipse
 10
-14.37821459553387
 20
-116.4870630401213
 30
0.0
 11
2.0
 21
-3.464101615137753
 31
0.0
210
0.0
220
0.0
230
1.0
 40
0.5773502691896258
 41
5.497787143782136
 42
7.068583470577032
  0
LINE
  5
BC83
330
BC6A
100
AcDbEntity
  8
0
100
AcDbLine
 10
75.77790000575091
 20
-46.06423293510506
 30
0.0
 11
77.192113568124
 21
-45.24773635417734
 31
0.0
  0
LINE
  5
BC84
330
BC6A
100
AcDbEntity
  8
0
100
AcDbLine
 10
49.73280023204644
 20
-53.58280561781452
 30
0.0
 11
75.77790000575091
 21
-46.06423293510506
 31
0.0
  0
ELLIPSE
  5
BC85
330
BC6A
100
AcDbEntity
  8
0
100
AcDbEllipse
 10
63.40353133498638
 20
74.5731368969665
 30
0.0
 11
-3.25
 21
5.629165124598853
 31
0.0
210
0.0
220
0.0
230
1.0
 40
0.5773502691896258
 41
0.2193254863005958
 42
2.922267167289198
  0
ELLIPSE
  5
BC86
330
BC6A
100
AcDbEntity
  8
0
100
AcDbEllipse
 10
71.18170592803839
 20
74.16488860650265
 30
0.0
 11
1.250000000000128
 21
-2.165063509461021
 31
0.0
210
0.0
220
0.0
230
1.0
 40
0.5773502691896259
 41
3.742856870268585
 42
5.681921090500106
  0
LINE
  5
BC87
330
BC6A
100
AcDbEntity
  8
0
100
AcDbLine
 10
50.67560927362849
 20
98.25153774387056
 30
0.0
 11
77.19211356812405
 21
82.94222685147571
 31
0.0
  0
LINE
  5
BC88
330
BC6A
100
AcDbEntity
  8
0
100
AcDbLine
 10
77.192113568124
 20
-45.24773635417734
 30
0.0
 11
77.19211356812405
 21
82.94222685147571
 31
0.0
  0
ELLIPSE
  5
BC89
330
BC6A
100
AcDbEntity
  8
0
100
AcDbEllipse
 10
47.84718214888231
 20
96.61854458201512
 30
0.0
 11
3.999999999999999
 21
-0.0000000000002383
 31
0.0
210
0.0
220
0.0
230
1.0
 40
0.5773502691896257
 41
0.7853981633976881
 42
2.356194490192587
  0
ELLIPSE
  5
BC8A
330
BC6A
100
AcDbEntity
  8
0
100
AcDbEllipse
 10
20.62357107320022
 20
71.9195230089514
 30
0.0
 11
1.24999999999987
 21
2.16506350946117
 31
0.0
210
0.0
220
0.0
230
1.0
 40
0.577350269189626
 41
3.74285687026858
 42
5.681921090500101
  0
ELLIPSE
  5
BC8B
330
BC6A
100
AcDbEntity
  8
0
100
AcDbEllipse
 10
22.03778463557332
 20
71.10302642802366
 30
0.0
 11
-1.25
 21
-2.165063509461095
 31
0.0
210
0.0
220
0.0
230
1.0
 40
0.577350269189626
 41
0.0
 42
6.283185307179586
  0
LINE
  5
BC8C
330
BC6A
100
AcDbEntity
  8
0
100
AcDbLine
 10
-12.9640010331608
 20
-87.90968270765095
 30
0.0
 11
15.32027021430111
 21
-47.08485366126469
 31
0.0
  0
LINE
  5
BC8D
330
BC6A
100
AcDbEntity
  8
0
100
AcDbLine
 10
-11.54978747078771
 20
-88.72617928857867
 30
0.0
 11
-12.9640010331608
 21
-87.90968270765095
 31
0.0
  0
LINE
  5
BC8E
330
BC6A
100
AcDbEntity
  8
0
100
AcDbLine
 10
16.7344837766742
 20
-47.90135024219241
 30
0.0
 11
-11.54978747078771
 21
-88.72617928857867
 31
0.0
  0
LINE
  5
BC8F
330
BC6A
100
AcDbEntity
  8
0
100
AcDbLine
 10
16.7344837766742
 20
-47.90135024219241
 30
0.0
 11
15.32027021430111
 21
-47.08485366126469
 31
0.0
  0
LINE
  5
BC90
330
BC6A
100
AcDbEntity
  8
0
100
AcDbLine
 10
15.32027021430111
 20
-47.08485366126469
 30
0.0
 11
15.32027021430112
 21
81.10510954438831
 31
0.0
  0
LINE
  5
BC91
330
BC6A
100
AcDbEntity
  8
0
100
AcDbLine
 10
16.73448377667422
 20
80.28861296346059
 30
0.0
 11
16.7344837766742
 21
-47.90135024219241
 31
0.0
  0
LINE
  5
BC92
330
BC6A
100
AcDbEntity
  8
0
100
AcDbLine
 10
15.32027021430112
 20
81.10510954438831
 30
0.0
 11
16.73448377667422
 21
80.28861296346059
 31
0.0
  0
LINE
  5
BC93
330
BC6A
100
AcDbEntity
  8
0
100
AcDbLine
 10
-11.54978747078771
 20
-88.72617928857867
 30
0.0
 11
-11.54978747078768
 21
-118.1200562019768
 31
0.0
  0
LINE
  5
BC94
330
BC6A
100
AcDbEntity
  8
0
100
AcDbLine
 10
46.43296858650922
 20
-53.31064009083862
 30
0.0
 11
46.43296858650922
 21
97.43504116294284
 31
0.0
  0
LINE
  5
BC95
330
BC6A
100
AcDbEntity
  8
0
100
AcDbLine
 10
46.43296858650922
 20
97.43504116294284
 30
0.0
 11
16.73448377667422
 21
80.28861296346059
 31
0.0
  0
LINE
  5
BC96
330
BC6A
100
AcDbEntity
  8
0
100
AcDbLine
 10
15.32027021430112
 20
81.10510954438831
 30
0.0
 11
45.01875502413613
 21
98.25153774387056
 31
0.0
  0
LINE
  5
BC97
330
BC6A
100
AcDbEntity
  8
0
100
AcDbLine
 10
-12.96400103316078
 20
-117.3035596210491
 30
0.0
 11
-12.9640010331608
 21
-87.90968270765095
 31
0.0
  0
LINE
  5
BC98
330
BC6A
100
AcDbEntity
  8
0
100
AcDbLine
 10
-14.37821459553387
 20
-118.1200562019768
 30
0.0
 11
-14.37821459553387
 21
-119.7530493638322
 31
0.0
  0
LINE
  5
BC99
330
BC6A
100
AcDbEntity
  8
0
100
AcDbLine
 10
-12.96400103316078
 20
-117.3035596210491
 30
0.0
 11
-11.54978747078768
 21
-118.1200562019768
 31
0.0
  0
ELLIPSE
  5
BC9A
330
BC6A
100
AcDbEntity
  8
0
100
AcDbEllipse
 10
-14.37821459553387
 20
-116.4870630401213
 30
0.0
 11
0.9999999999999992
 21
-1.732050807568874
 31
0.0
210
0.0
220
0.0
230
1.0
 40
0.5773502691896258
 41
5.49778714378214
 42
7.068583470577037
  0
LINE
  5
BC9B
330
BC6A
100
AcDbEntity
  8
0
100
AcDbLine
 10
49.26139571125542
 20
-53.31064009083862
 30
0.0
 11
49.2613957112554
 21
97.43504116294284
 31
0.0
  0
ELLIPSE
  5
BC9C
330
BC6A
100
AcDbEntity
  8
0
100
AcDbEllipse
 10
47.84718214888231
 20
96.61854458201512
 30
0.0
 11
-1.999999999999997
 21
-0.0000000000001193
 31
0.0
210
0.0
220
0.0
230
1.0
 40
0.5773502691896258
 41
3.926990816986995
 42
5.497787143781887
  0
LINE
  5
BC9D
330
BC6A
100
AcDbEntity
  8
0
100
AcDbLine
 10
77.19211356812405
 20
82.94222685147571
 30
0.0
 11
75.77790000575095
 21
82.12573027054796
 31
0.0
  0
LINE
  5
BC9E
330
BC6A
100
AcDbEntity
  8
0
100
AcDbLine
 10
75.77790000575091
 20
-46.06423293510506
 30
0.0
 11
75.77790000575095
 21
82.12573027054796
 31
0.0
  0
LINE
  5
BC9F
330
BC6A
100
AcDbEntity
  8
0
100
AcDbLine
 10
46.43296858650922
 20
97.43504116294284
 30
0.0
 11
45.01875502413613
 21
98.25153774387056
 31
0.0
  0
LINE
  5
BCA0
330
BC6A
100
AcDbEntity
  8
0
100
AcDbLine
 10
49.2613957112554
 20
97.43504116294284
 30
0.0
 11
50.67560927362849
 21
98.25153774387056
 31
0.0
  0
LINE
  5
BCA1
330
BC6A
100
AcDbEntity
  8
0
100
AcDbLine
 10
75.77790000575095
 20
82.12573027054796
 30
0.0
 11
49.2613957112554
 21
97.43504116294284
 31
0.0
  0
ELLIPSE
  5
BCA2
330
BC6A
100
AcDbEntity
  8
0
100
AcDbEllipse
 10
61.98931777261325
 20
73.75664031603877
 30
0.0
 11
-3.25
 21
5.62916512459885
 31
0.0
210
0.0
220
0.0
230
0.9999999999999998
 40
0.577350269189626
 41
0.0
 42
6.283185307179586
  0
ELLIPSE
  5
BCA3
330
BC6A
100
AcDbEntity
  8
0
100
AcDbEllipse
 10
69.76749236566528
 20
73.34839202557491
 30
0.0
 11
-1.249999999999999
 21
2.165063509461096
 31
0.0
210
0.0
220
0.0
230
1.0
 40
0.577350269189626
 41
0.0
 42
6.283185307179586
  0
LINE
  5
BCA4
330
BC6A
100
AcDbEntity
  8
0
100
AcDbLine
 10
-12.37821459553387
 20
-119.9511646552591
 30
0.0
 11
47.01875502413613
 21
-85.65830825629461
 31
0.0
  0
LINE
  5
BCA5
330
BC6A
100
AcDbEntity
  8
0
100
AcDbLine
 10
-3.535910617340189
 20
-74.30140635885554
 30
0.0
 11
-46.90512653011502
 21
-99.34063484063912
 31
0.0
  0
ELLIPSE
  5
BCA6
330
BC6A
100
AcDbEntity
  8
0
100
AcDbEllipse
 10
-46.90512653011503
 20
-97.70764167878368
 30
0.0
 11
2.000000000000206
 21
-3.464101615137633
 31
0.0
210
0.0
220
0.0
230
1.0
 40
0.5773502691896259
 41
3.926990816987002
 42
5.497787143781892
  0
LINE
  5
BCA7
330
BC6A
100
AcDbEntity
  8
0
100
AcDbLine
 10
-48.31934009248812
 20
-96.89114509785596
 30
0.0
 11
0.2353255489880635
 21
-68.85809581933739
 31
0.0
  0
LINE
  5
BCA8
330
BC6A
100
AcDbEntity
  8
0
100
AcDbLine
 10
-49.73355365486122
 20
-96.07464851692823
 30
0.0
 11
-48.31934009248812
 21
-96.89114509785596
 31
0.0
  0
LINE
  5
BCA9
330
BC6A
100
AcDbEntity
  8
0
100
AcDbLine
 10
-46.90512653011503
 20
-100.9736280024945
 30
0.0
 11
-46.90512653011503
 21
-99.34063484063912
 31
0.0
  0
ELLIPSE
  5
BCAA
330
BC6A
100
AcDbEntity
  8
0
100
AcDbEllipse
 10
-46.90512653011503
 20
-97.70764167878368
 30
0.0
 11
1.000000000000102
 21
-1.732050807568815
 31
0.0
210
0.0
220
0.0
230
1.0
 40
0.5773502691896258
 41
3.926990816986997
 42
5.497787143781902
  0
ELLIPSE
  5
BCAB
330
BC6A
100
AcDbEntity
  8
0
100
AcDbEllipse
 10
63.40353133498637
 20
-31.57141862363787
 30
0.0
 11
-3.25
 21
5.629165124598853
 31
0.0
210
0.0
220
0.0
230
1.0
 40
0.5773502691896259
 41
0.2193254863005925
 42
2.9222671672892
  0
ELLIPSE
  5
BCAC
330
BC6A
100
AcDbEntity
  8
0
100
AcDbEllipse
 10
61.98931777261328
 20
-32.38791520456559
 30
0.0
 11
-3.25
 21
5.62916512459885
 31
0.0
210
0.0
220
0.0
230
0.9999999999999998
 40
0.577350269189626
 41
0.0
 42
6.283185307179586
  0
ELLIPSE
  5
BCAD
330
BC6A
100
AcDbEntity
  8
0
100
AcDbEllipse
 10
63.40353133498638
 20
25.58334204130295
 30
0.0
 11
-3.25
 21
5.62916512459885
 31
0.0
210
0.0
220
0.0
230
0.9999999999999998
 40
0.577350269189626
 41
0.2193254863005958
 42
2.922267167289197
  0
ELLIPSE
  5
BCAE
330
BC6A
100
AcDbEntity
  8
0
100
AcDbEllipse
 10
61.98931777261325
 20
24.76684546037521
 30
0.0
 11
-3.25
 21
5.62916512459885
 31
0.0
210
0.0
220
0.0
230
0.9999999999999998
 40
0.577350269189626
 41
0.0
 42
6.283185307179586
  0
ELLIPSE
  5
BCAF
330
BC6A
100
AcDbEntity
  8
0
100
AcDbEllipse
 10
55.62535674193434
 20
-39.32813614245126
 30
0.0
 11
1.250000000000129
 21
-2.165063509461022
 31
0.0
210
0.0
220
0.0
230
1.0
 40
0.5773502691896259
 41
3.742856870268591
 42
5.681921090500106
  0
ELLIPSE
  5
BCB0
330
BC6A
100
AcDbEntity
  8
0
100
AcDbEllipse
 10
55.62535674193434
 20
-22.99820452389674
 30
0.0
 11
1.250000000000129
 21
-2.165063509461021
 31
0.0
210
0.0
220
0.0
230
1.0
 40
0.5773502691896259
 41
3.742856870268587
 42
5.681921090500106
  0
ELLIPSE
  5
BCB1
330
BC6A
100
AcDbEntity
  8
0
100
AcDbEllipse
 10
55.62535674193434
 20
-6.66827290534222
 30
0.0
 11
1.250000000000129
 21
-2.165063509461021
 31
0.0
210
0.0
220
0.0
230
1.0
 40
0.5773502691896259
 41
3.742856870268589
 42
5.681921090500106
  0
ELLIPSE
  5
BCB2
330
BC6A
100
AcDbEntity
  8
0
100
AcDbEllipse
 10
55.62535674193434
 20
9.661658713212304
 30
0.0
 11
1.250000000000129
 21
-2.165063509461021
 31
0.0
210
0.0
220
0.0
230
1.0
 40
0.5773502691896259
 41
3.742856870268589
 42
5.681921090500106
  0
ELLIPSE
  5
BCB3
330
BC6A
100
AcDbEntity
  8
0
100
AcDbEllipse
 10
55.62535674193434
 20
25.99159033176681
 30
0.0
 11
1.250000000000129
 21
-2.165063509461021
 31
0.0
210
0.0
220
0.0
230
1.0
 40
0.5773502691896259
 41
3.742856870268587
 42
5.681921090500106
  0
ELLIPSE
  5
BCB4
330
BC6A
100
AcDbEntity
  8
0
100
AcDbEllipse
 10
55.62535674193434
 20
42.32152195032134
 30
0.0
 11
1.250000000000129
 21
-2.165063509461021
 31
0.0
210
0.0
220
0.0
230
1.0
 40
0.5773502691896259
 41
3.742856870268585
 42
5.681921090500106
  0
ELLIPSE
  5
BCB5
330
BC6A
100
AcDbEntity
  8
0
100
AcDbEllipse
 10
55.62535674193434
 20
58.65145356887587
 30
0.0
 11
1.250000000000129
 21
-2.165063509461021
 31
0.0
210
0.0
220
0.0
230
1.0
 40
0.5773502691896259
 41
3.742856870268585
 42
5.681921090500106
  0
ELLIPSE
  5
BCB6
330
BC6A
100
AcDbEntity
  8
0
100
AcDbEllipse
 10
55.62535674193434
 20
74.98138518743036
 30
0.0
 11
1.250000000000129
 21
-2.165063509461021
 31
0.0
210
0.0
220
0.0
230
1.0
 40
0.5773502691896259
 41
3.742856870268585
 42
5.681921090500106
  0
ELLIPSE
  5
BCB7
330
BC6A
100
AcDbEntity
  8
0
100
AcDbEllipse
 10
54.21114317956123
 20
-40.14463272337899
 30
0.0
 11
-1.249999999999999
 21
2.165063509461096
 31
0.0
210
0.0
220
0.0
230
1.0
 40
0.577350269189626
 41
0.0
 42
6.283185307179586
  0
ELLIPSE
  5
BCB8
330
BC6A
100
AcDbEntity
  8
0
100
AcDbEllipse
 10
54.21114317956123
 20
-23.81470110482447
 30
0.0
 11
-1.249999999999999
 21
2.165063509461096
 31
0.0
210
0.0
220
0.0
230
1.0
 40
0.577350269189626
 41
0.0
 42
6.283185307179586
  0
ELLIPSE
  5
BCB9
330
BC6A
100
AcDbEntity
  8
0
100
AcDbEllipse
 10
54.21114317956123
 20
-7.484769486269957
 30
0.0
 11
-1.249999999999999
 21
2.165063509461096
 31
0.0
210
0.0
220
0.0
230
1.0
 40
0.577350269189626
 41
0.0
 42
6.283185307179586
  0
ELLIPSE
  5
BCBA
330
BC6A
100
AcDbEntity
  8
0
100
AcDbEllipse
 10
54.21114317956123
 20
8.845162132284567
 30
0.0
 11
-1.249999999999999
 21
2.165063509461096
 31
0.0
210
0.0
220
0.0
230
1.0
 40
0.577350269189626
 41
0.0
 42
6.283185307179586
  0
ELLIPSE
  5
BCBB
330
BC6A
100
AcDbEntity
  8
0
100
AcDbEllipse
 10
54.21114317956123
 20
25.17509375083907
 30
0.0
 11
-1.249999999999999
 21
2.165063509461096
 31
0.0
210
0.0
220
0.0
230
1.0
 40
0.577350269189626
 41
0.0
 42
6.283185307179586
  0
ELLIPSE
  5
BCBC
330
BC6A
100
AcDbEntity
  8
0
100
AcDbEllipse
 10
54.21114317956123
 20
41.50502536939359
 30
0.0
 11
-1.249999999999999
 21
2.165063509461096
 31
0.0
210
0.0
220
0.0
230
1.0
 40
0.577350269189626
 41
0.0
 42
6.283185307179586
  0
ELLIPSE
  5
BCBD
330
BC6A
100
AcDbEntity
  8
0
100
AcDbEllipse
 10
54.21114317956123
 20
57.83495698794812
 30
0.0
 11
-1.249999999999999
 21
2.165063509461096
 31
0.0
210
0.0
220
0.0
230
1.0
 40
0.577350269189626
 41
0.0
 42
6.283185307179586
  0
ELLIPSE
  5
BCBE
330
BC6A
100
AcDbEntity
  8
0
100
AcDbEllipse
 10
54.21114317956123
 20
74.16488860650263
 30
0.0
 11
-1.249999999999999
 21
2.165063509461096
 31
0.0
210
0.0
220
0.0
230
1.0
 40
0.577350269189626
 41
0.0
 42
6.283185307179586
  0
ELLIPSE
  5
BCBF
330
BC6A
100
AcDbEntity
  8
0
100
AcDbEllipse
 10
55.62535674193434
 20
91.31131680598487
 30
0.0
 11
1.250000000000129
 21
-2.165063509461021
 31
0.0
210
0.0
220
0.0
230
1.0
 40
0.5773502691896259
 41
3.742856870268589
 42
5.681921090500106
  0
ELLIPSE
  5
BCC0
330
BC6A
100
AcDbEntity
  8
0
100
AcDbEllipse
 10
3.299454934129806
 20
119.8886971384553
 30
0.0
 11
1.249999999999999
 21
-2.165063509461096
 31
0.0
210
0.0
220
0.0
230
1.0
 40
0.5773502691896259
 41
0.0
 42
6.283185307179586
  0
ELLIPSE
  5
BCC1
330
BC6A
100
AcDbEntity
  8
0
100
AcDbEllipse
 10
4.71366849650292
 20
120.705193719383
 30
0.0
 11
1.250000000000129
 21
-2.165063509461021
 31
0.0
210
0.0
220
0.0
230
1.0
 40
0.5773502691896258
 41
3.742856870268587
 42
5.68192109050011
  0
ELLIPSE
  5
BCC2
330
BC6A
100
AcDbEntity
  8
0
100
AcDbEllipse
 10
54.21114317956123
 20
90.49482022505715
 30
0.0
 11
-1.249999999999999
 21
2.165063509461096
 31
0.0
210
0.0
220
0.0
230
1.0
 40
0.577350269189626
 41
0.0
 42
6.283185307179586
  0
ELLIPSE
  5
BCC3
330
BC6A
100
AcDbEntity
  8
0
100
AcDbEllipse
 10
71.18170592803839
 20
-40.14463272337899
 30
0.0
 11
1.250000000000129
 21
-2.165063509461021
 31
0.0
210
0.0
220
0.0
230
1.0
 40
0.5773502691896258
 41
3.742856870268591
 42
5.681921090500105
  0
ELLIPSE
  5
BCC4
330
BC6A
100
AcDbEntity
  8
0
100
AcDbEllipse
 10
71.18170592803839
 20
-23.81470110482446
 30
0.0
 11
1.250000000000128
 21
-2.165063509461021
 31
0.0
210
0.0
220
0.0
230
1.0
 40
0.5773502691896259
 41
3.742856870268592
 42
5.681921090500106
  0
ELLIPSE
  5
BCC5
330
BC6A
100
AcDbEntity
  8
0
100
AcDbEllipse
 10
71.18170592803839
 20
-7.484769486269939
 30
0.0
 11
1.250000000000128
 21
-2.165063509461021
 31
0.0
210
0.0
220
0.0
230
1.0
 40
0.5773502691896259
 41
3.742856870268589
 42
5.681921090500106
  0
ELLIPSE
  5
BCC6
330
BC6A
100
AcDbEntity
  8
0
100
AcDbEllipse
 10
71.18170592803839
 20
8.845162132284585
 30
0.0
 11
1.250000000000128
 21
-2.165063509461021
 31
0.0
210
0.0
220
0.0
230
1.0
 40
0.5773502691896259
 41
3.742856870268589
 42
5.681921090500106
  0
ELLIPSE
  5
BCC7
330
BC6A
100
AcDbEntity
  8
0
100
AcDbEllipse
 10
71.18170592803839
 20
25.17509375083909
 30
0.0
 11
1.250000000000128
 21
-2.165063509461021
 31
0.0
210
0.0
220
0.0
230
1.0
 40
0.5773502691896259
 41
3.742856870268592
 42
5.681921090500106
  0
ELLIPSE
  5
BCC8
330
BC6A
100
AcDbEntity
  8
0
100
AcDbEllipse
 10
71.18170592803839
 20
41.50502536939362
 30
0.0
 11
1.250000000000128
 21
-2.165063509461021
 31
0.0
210
0.0
220
0.0
230
1.0
 40
0.5773502691896259
 41
3.742856870268585
 42
5.681921090500106
  0
ELLIPSE
  5
BCC9
330
BC6A
100
AcDbEntity
  8
0
100
AcDbEllipse
 10
71.18170592803839
 20
57.83495698794812
 30
0.0
 11
1.250000000000128
 21
-2.165063509461021
 31
0.0
210
0.0
220
0.0
230
1.0
 40
0.5773502691896259
 41
3.742856870268585
 42
5.681921090500106
  0
ELLIPSE
  5
BCCA
330
BC6A
100
AcDbEntity
  8
0
100
AcDbEllipse
 10
69.76749236566528
 20
-40.96112930430672
 30
0.0
 11
-1.249999999999999
 21
2.165063509461096
 31
0.0
210
0.0
220
0.0
230
1.0
 40
0.577350269189626
 41
0.0
 42
6.283185307179586
  0
ELLIPSE
  5
BCCB
330
BC6A
100
AcDbEntity
  8
0
100
AcDbEllipse
 10
69.76749236566528
 20
-24.6311976857522
 30
0.0
 11
-1.249999999999999
 21
2.165063509461096
 31
0.0
210
0.0
220
0.0
230
1.0
 40
0.577350269189626
 41
0.0
 42
6.283185307179586
  0
ELLIPSE
  5
BCCC
330
BC6A
100
AcDbEntity
  8
0
100
AcDbEllipse
 10
69.76749236566528
 20
-8.301266067197676
 30
0.0
 11
-1.249999999999999
 21
2.165063509461096
 31
0.0
210
0.0
220
0.0
230
1.0
 40
0.577350269189626
 41
0.0
 42
6.283185307179586
  0
ELLIPSE
  5
BCCD
330
BC6A
100
AcDbEntity
  8
0
100
AcDbEllipse
 10
69.76749236566528
 20
8.028665551356848
 30
0.0
 11
-1.249999999999999
 21
2.165063509461096
 31
0.0
210
0.0
220
0.0
230
1.0
 40
0.577350269189626
 41
0.0
 42
6.283185307179586
  0
ELLIPSE
  5
BCCE
330
BC6A
100
AcDbEntity
  8
0
100
AcDbEllipse
 10
69.76749236566528
 20
24.35859716991136
 30
0.0
 11
-1.249999999999999
 21
2.165063509461096
 31
0.0
210
0.0
220
0.0
230
1.0
 40
0.577350269189626
 41
0.0
 42
6.283185307179586
  0
ELLIPSE
  5
BCCF
330
BC6A
100
AcDbEntity
  8
0
100
AcDbEllipse
 10
69.76749236566528
 20
40.68852878846588
 30
0.0
 11
-1.249999999999999
 21
2.165063509461096
 31
0.0
210
0.0
220
0.0
230
1.0
 40
0.577350269189626
 41
0.0
 42
6.283185307179586
  0
ELLIPSE
  5
BCD0
330
BC6A
100
AcDbEntity
  8
0
100
AcDbEllipse
 10
69.76749236566528
 20
57.01846040702038
 30
0.0
 11
-1.249999999999999
 21
2.165063509461096
 31
0.0
210
0.0
220
0.0
230
1.0
 40
0.577350269189626
 41
0.0
 42
6.283185307179586
  0
LINE
  5
BCD1
330
BC6A
100
AcDbEntity
  8
0
100
AcDbLine
 10
-15.37060660694111
 20
4.051770190029539
 30
0.0
 11
-14.67586569935905
 21
3.048998065005683
 31
0.0
  0
LINE
  5
BCD2
330
BC6A
100
AcDbEntity
  8
0
100
AcDbLine
 10
-20.03506884502627
 20
-26.67243913807155
 30
0.0
 11
-48.31934009248816
 21
-67.49726818445781
 31
0.0
  0
LINE
  5
BCD3
330
BC6A
100
AcDbEntity
  8
0
100
AcDbLine
 10
-21.44928240739936
 20
-25.85594255714382
 30
0.0
 11
-20.03506884502627
 21
-26.67243913807155
 31
0.0
  0
LINE
  5
BCD4
330
BC6A
100
AcDbEntity
  8
0
100
AcDbLine
 10
-49.73355365486125
 20
-66.68077160353009
 30
0.0
 11
-21.44928240739936
 21
-25.85594255714382
 31
0.0
  0
LINE
  5
BCD5
330
BC6A
100
AcDbEntity
  8
0
100
AcDbLine
 10
-48.31934009248816
 20
-67.49726818445781
 30
0.0
 11
-49.73355365486125
 21
-66.68077160353009
 31
0.0
  0
LINE
  5
BCD6
330
BC6A
100
AcDbEntity
  8
0
100
AcDbLine
 10
-20.03506884502625
 20
101.5175240675814
 30
0.0
 11
-20.03506884502627
 21
-26.67243913807153
 31
0.0
  0
LINE
  5
BCD7
330
BC6A
100
AcDbEntity
  8
0
100
AcDbLine
 10
-21.44928240739934
 20
102.3340206485092
 30
0.0
 11
-20.03506884502625
 21
101.5175240675814
 31
0.0
  0
LINE
  5
BCD8
330
BC6A
100
AcDbEntity
  8
0
100
AcDbLine
 10
-21.44928240739936
 20
-25.85594255714382
 30
0.0
 11
-21.44928240739934
 21
102.3340206485092
 31
0.0
  0
ELLIPSE
  5
BCD9
330
BC6A
100
AcDbEntity
  8
0
100
AcDbEllipse
 10
-4.478719658922218
 20
112.1319796196419
 30
0.0
 11
-3.250000000000006
 21
5.629165124598845
 31
0.0
210
0.0
220
0.0
230
0.9999999999999998
 40
0.5773502691896258
 41
4.71238898038469
 42
7.853981633974483
  0
ELLIPSE
  5
BCDA
330
BC6A
100
AcDbEntity
  8
0
100
AcDbEllipse
 10
-3.064506096549104
 20
112.9484762005696
 30
0.0
 11
-3.249999999999999
 21
5.629165124598848
 31
0.0
210
0.0
220
0.0
230
0.9999999999999996
 40
0.5773502691896258
 41
0.2193254863005931
 42
1.570796326794897
  0
ELLIPSE
  5
BCDB
330
BC6A
100
AcDbEntity
  8
0
100
AcDbEllipse
 10
-12.25689425197424
 20
120.705193719383
 30
0.0
 11
1.249999999999999
 21
-2.165063509461096
 31
0.0
210
0.0
220
0.0
230
1.0
 40
0.5773502691896259
 41
0.0
 42
6.283185307179586
  0
ELLIPSE
  5
BCDC
330
BC6A
100
AcDbEntity
  8
0
100
AcDbEllipse
 10
-10.84268068960112
 20
121.5216903003107
 30
0.0
 11
1.250000000000129
 21
-2.165063509461021
 31
0.0
210
0.0
220
0.0
230
1.0
 40
0.5773502691896259
 41
3.742856870268587
 42
5.681921090500111
  0
LINE
  5
BCDD
330
BC6A
100
AcDbEntity
  8
0
100
AcDbLine
 10
8.249202402435656
 20
119.4804488479914
 30
0.0
 11
8.24920240243566
 21
121.1134420098469
 31
0.0
  0
ELLIPSE
  5
BCDE
330
BC6A
100
AcDbEntity
  8
0
100
AcDbEllipse
 10
6.834988840062563
 20
120.2969454289191
 30
0.0
 11
1.999999999999997
 21
0.0000000000000001
 31
0.0
210
0.0
220
0.0
230
1.0
 40
0.5773502691896258
 41
5.49778714378214
 42
7.068583470577029
  0
LINE
  5
BCDF
330
BC6A
100
AcDbEntity
  8
0
100
AcDbLine
 10
9.663415964808756
 20
118.6639522670637
 30
0.0
 11
9.663415964808756
 21
-32.08172898671775
 31
0.0
  0
ELLIPSE
  5
BCE0
330
BC6A
100
AcDbEntity
  8
0
100
AcDbEllipse
 10
6.834988840062563
 20
120.2969454289191
 30
0.0
 11
3.999999999999998
 21
-0.0000000000000003
 31
0.0
210
0.0
220
0.0
230
1.0
 40
0.5773502691896258
 41
5.497787143782137
 42
7.068583470577034
  0
LINE
  5
BCE1
330
BC6A
100
AcDbEntity
  8
0
100
AcDbLine
 10
8.24920240243566
 20
121.1134420098469
 30
0.0
 11
9.663415964808756
 21
121.9299385907746
 31
0.0
  0
LINE
  5
BCE2
330
BC6A
100
AcDbEntity
  8
0
100
AcDbLine
 10
8.24920240243566
 20
119.4804488479914
 30
0.0
 11
9.663415964808756
 21
118.6639522670637
 31
0.0
  0
LINE
  5
BCE3
330
BC6A
100
AcDbEntity
  8
0
100
AcDbLine
 10
10.83498884006256
 20
-30.44873582486229
 30
0.0
 11
10.83498884006256
 21
120.2969454289191
 31
0.0
  0
LINE
  5
BCE4
330
BC6A
100
AcDbEntity
  8
0
100
AcDbLine
 10
-18.26730189205988
 20
136.4227529022417
 30
0.0
 11
8.24920240243566
 21
121.1134420098469
 31
0.0
  0
LINE
  5
BCE5
330
BC6A
100
AcDbEntity
  8
0
100
AcDbLine
 10
-18.26730189205994
 20
104.1711379555965
 30
0.0
 11
-18.26730189205988
 21
136.4227529022417
 31
0.0
  0
LINE
  5
BCE6
330
BC6A
100
AcDbEntity
  8
0
100
AcDbLine
 10
-48.31934009248812
 20
-96.89114509785596
 30
0.0
 11
-48.31934009248816
 21
-67.49726818445781
 31
0.0
  0
LINE
  5
BCE7
330
BC6A
100
AcDbEntity
  8
0
100
AcDbLine
 10
-20.03506884502625
 20
101.5175240675814
 30
0.0
 11
9.663415964808756
 21
118.6639522670637
 31
0.0
  0
LINE
  5
BCE8
330
BC6A
100
AcDbEntity
  8
0
100
AcDbLine
 10
-49.73355365486125
 20
-66.68077160353009
 30
0.0
 11
-49.73355365486122
 21
-96.07464851692823
 31
0.0
  0
LINE
  5
BCE9
330
BC6A
100
AcDbEntity
  8
0
100
AcDbLine
 10
8.24920240243566
 20
119.4804488479914
 30
0.0
 11
-21.44928240739934
 21
102.3340206485092
 31
0.0
  0
LINE
  5
BCEA
330
BC6A
100
AcDbEntity
  8
0
100
AcDbLine
 10
9.663415964808756
 20
121.9299385907746
 30
0.0
 11
-16.85308832968678
 21
137.2392494831695
 31
0.0
  0
LINE
  5
BCEB
330
BC6A
100
AcDbEntity
  8
0
100
AcDbLine
 10
-16.85308832968678
 20
137.2392494831695
 30
0.0
 11
-18.26730189205988
 21
136.4227529022417
 31
0.0
  0
ELLIPSE
  5
BCEC
330
BC6A
100
AcDbEntity
  8
0
100
AcDbEllipse
 10
20.62357107320022
 20
-58.71992993948475
 30
0.0
 11
1.24999999999987
 21
2.16506350946117
 31
0.0
210
0.0
220
0.0
230
1.0
 40
0.577350269189626
 41
3.74285687026858
 42
5.681921090500117
  0
ELLIPSE
  5
BCED
330
BC6A
100
AcDbEntity
  8
0
100
AcDbEllipse
 10
22.03778463557332
 20
-59.53642652041247
 30
0.0
 11
-1.25
 21
-2.165063509461095
 31
0.0
210
0.0
220
0.0
230
1.0
 40
0.577350269189626
 41
0.0
 42
6.283185307179586
  0
ELLIPSE
  5
BCEE
330
BC6A
100
AcDbEntity
  8
0
100
AcDbEllipse
 10
20.62357107320022
 20
-42.38999832093023
 30
0.0
 11
1.24999999999987
 21
2.16506350946117
 31
0.0
210
0.0
220
0.0
230
1.0
 40
0.577350269189626
 41
3.74285687026858
 42
5.681921090500117
  0
ELLIPSE
  5
BCEF
330
BC6A
100
AcDbEntity
  8
0
100
AcDbEllipse
 10
22.03778463557332
 20
-43.20649490185796
 30
0.0
 11
-1.25
 21
-2.165063509461095
 31
0.0
210
0.0
220
0.0
230
1.0
 40
0.577350269189626
 41
0.0
 42
6.283185307179586
  0
ELLIPSE
  5
BCF0
330
BC6A
100
AcDbEntity
  8
0
100
AcDbEllipse
 10
20.62357107320022
 20
-26.06006670237571
 30
0.0
 11
1.24999999999987
 21
2.16506350946117
 31
0.0
210
0.0
220
0.0
230
1.0
 40
0.577350269189626
 41
3.74285687026858
 42
5.681921090500117
  0
ELLIPSE
  5
BCF1
330
BC6A
100
AcDbEntity
  8
0
100
AcDbEllipse
 10
22.03778463557332
 20
-26.87656328330344
 30
0.0
 11
-1.25
 21
-2.165063509461095
 31
0.0
210
0.0
220
0.0
230
1.0
 40
0.577350269189626
 41
0.0
 42
6.283185307179586
  0
ELLIPSE
  5
BCF2
330
BC6A
100
AcDbEntity
  8
0
100
AcDbEllipse
 10
20.62357107320022
 20
-9.730135083821194
 30
0.0
 11
1.24999999999987
 21
2.16506350946117
 31
0.0
210
0.0
220
0.0
230
1.0
 40
0.577350269189626
 41
3.74285687026858
 42
5.681921090500117
  0
ELLIPSE
  5
BCF3
330
BC6A
100
AcDbEntity
  8
0
100
AcDbEllipse
 10
22.03778463557332
 20
-10.54663166474892
 30
0.0
 11
-1.25
 21
-2.165063509461095
 31
0.0
210
0.0
220
0.0
230
1.0
 40
0.577350269189626
 41
0.0
 42
6.283185307179586
  0
ELLIPSE
  5
BCF4
330
BC6A
100
AcDbEntity
  8
0
100
AcDbEllipse
 10
20.62357107320022
 20
6.599796534733339
 30
0.0
 11
1.24999999999987
 21
2.16506350946117
 31
0.0
210
0.0
220
0.0
230
1.0
 40
0.577350269189626
 41
3.742856870268578
 42
5.681921090500114
  0
ELLIPSE
  5
BCF5
330
BC6A
100
AcDbEntity
  8
0
100
AcDbEllipse
 10
22.03778463557332
 20
5.783299953805602
 30
0.0
 11
-1.25
 21
-2.165063509461095
 31
0.0
210
0.0
220
0.0
230
1.0
 40
0.577350269189626
 41
0.0
 42
6.283185307179586
  0
ELLIPSE
  5
BCF6
330
BC6A
100
AcDbEntity
  8
0
100
AcDbEllipse
 10
20.62357107320022
 20
22.92972815328783
 30
0.0
 11
1.24999999999987
 21
2.16506350946117
 31
0.0
210
0.0
220
0.0
230
1.0
 40
0.577350269189626
 41
3.74285687026858
 42
5.681921090500117
  0
ELLIPSE
  5
BCF7
330
BC6A
100
AcDbEntity
  8
0
100
AcDbEllipse
 10
22.03778463557332
 20
22.11323157236011
 30
0.0
 11
-1.25
 21
-2.165063509461095
 31
0.0
210
0.0
220
0.0
230
1.0
 40
0.577350269189626
 41
0.0
 42
6.283185307179586
  0
ELLIPSE
  5
BCF8
330
BC6A
100
AcDbEntity
  8
0
100
AcDbEllipse
 10
20.62357107320022
 20
39.25965977184235
 30
0.0
 11
1.24999999999987
 21
2.16506350946117
 31
0.0
210
0.0
220
0.0
230
1.0
 40
0.577350269189626
 41
3.74285687026858
 42
5.681921090500101
  0
ELLIPSE
  5
BCF9
330
BC6A
100
AcDbEntity
  8
0
100
AcDbEllipse
 10
22.03778463557332
 20
38.44316319091463
 30
0.0
 11
-1.25
 21
-2.165063509461095
 31
0.0
210
0.0
220
0.0
230
1.0
 40
0.577350269189626
 41
0.0
 42
6.283185307179586
  0
ELLIPSE
  5
BCFA
330
BC6A
100
AcDbEntity
  8
0
100
AcDbEllipse
 10
20.62357107320022
 20
55.58959139039687
 30
0.0
 11
1.24999999999987
 21
2.16506350946117
 31
0.0
210
0.0
220
0.0
230
1.0
 40
0.577350269189626
 41
3.74285687026858
 42
5.681921090500101
  0
ELLIPSE
  5
BCFB
330
BC6A
100
AcDbEntity
  8
0
100
AcDbEllipse
 10
22.03778463557332
 20
54.77309480946914
 30
0.0
 11
-1.25
 21
-2.165063509461095
 31
0.0
210
0.0
220
0.0
230
1.0
 40
0.577350269189626
 41
0.0
 42
6.283185307179586
  0
ELLIPSE
  5
BCFC
330
BC6A
100
AcDbEntity
  8
0
100
AcDbEllipse
 10
-16.14598154850022
 20
-29.32605302608661
 30
0.0
 11
1.24999999999987
 21
2.165063509461171
 31
0.0
210
0.0
220
0.0
230
1.0
 40
0.5773502691896258
 41
3.74285687026858
 42
5.681921090500115
  0
ELLIPSE
  5
BCFD
330
BC6A
100
AcDbEntity
  8
0
100
AcDbEllipse
 10
-14.73176798612712
 20
-30.14254960701434
 30
0.0
 11
1.249999999999999
 21
2.165063509461096
 31
0.0
210
0.0
220
0.0
230
1.0
 40
0.5773502691896258
 41
0.0
 42
6.283185307179586
  0
ELLIPSE
  5
BCFE
330
BC6A
100
AcDbEntity
  8
0
100
AcDbEllipse
 10
-16.14598154850022
 20
-12.99612140753209
 30
0.0
 11
1.24999999999987
 21
2.165063509461171
 31
0.0
210
0.0
220
0.0
230
1.0
 40
0.5773502691896258
 41
3.74285687026858
 42
5.681921090500112
  0
ELLIPSE
  5
BCFF
330
BC6A
100
AcDbEntity
  8
0
100
AcDbEllipse
 10
-14.73176798612712
 20
-13.81261798845982
 30
0.0
 11
1.249999999999999
 21
2.165063509461096
 31
0.0
210
0.0
220
0.0
230
1.0
 40
0.5773502691896258
 41
0.0
 42
6.283185307179586
  0
ELLIPSE
  5
BD00
330
BC6A
100
AcDbEntity
  8
0
100
AcDbEllipse
 10
-16.14598154850022
 20
3.333810211022418
 30
0.0
 11
1.24999999999987
 21
2.165063509461171
 31
0.0
210
0.0
220
0.0
230
1.0
 40
0.5773502691896258
 41
3.74285687026858
 42
5.681921090500118
  0
ELLIPSE
  5
BD01
330
BC6A
100
AcDbEntity
  8
0
100
AcDbEllipse
 10
-14.73176798612712
 20
2.51731363009469
 30
0.0
 11
1.249999999999999
 21
2.165063509461096
 31
0.0
210
0.0
220
0.0
230
1.0
 40
0.5773502691896258
 41
0.0
 42
6.283185307179586
  0
ELLIPSE
  5
BD02
330
BC6A
100
AcDbEntity
  8
0
100
AcDbEllipse
 10
-16.14598154850022
 20
19.66374182957695
 30
0.0
 11
1.24999999999987
 21
2.165063509461171
 31
0.0
210
0.0
220
0.0
230
1.0
 40
0.5773502691896258
 41
3.74285687026858
 42
5.681921090500117
  0
ELLIPSE
  5
BD03
330
BC6A
100
AcDbEntity
  8
0
100
AcDbEllipse
 10
-14.73176798612712
 20
18.84724524864921
 30
0.0
 11
1.249999999999999
 21
2.165063509461096
 31
0.0
210
0.0
220
0.0
230
1.0
 40
0.5773502691896258
 41
0.0
 42
6.283185307179586
  0
ELLIPSE
  5
BD04
330
BC6A
100
AcDbEntity
  8
0
100
AcDbEllipse
 10
-16.14598154850022
 20
35.99367344813145
 30
0.0
 11
1.24999999999987
 21
2.165063509461171
 31
0.0
210
0.0
220
0.0
230
1.0
 40
0.5773502691896258
 41
3.74285687026858
 42
5.681921090500117
  0
ELLIPSE
  5
BD05
330
BC6A
100
AcDbEntity
  8
0
100
AcDbEllipse
 10
-14.73176798612712
 20
35.17717686720373
 30
0.0
 11
1.249999999999999
 21
2.165063509461096
 31
0.0
210
0.0
220
0.0
230
1.0
 40
0.5773502691896258
 41
0.0
 42
6.283185307179586
  0
ELLIPSE
  5
BD06
330
BC6A
100
AcDbEntity
  8
0
100
AcDbEllipse
 10
-16.14598154850022
 20
52.32360506668597
 30
0.0
 11
1.24999999999987
 21
2.165063509461171
 31
0.0
210
0.0
220
0.0
230
1.0
 40
0.5773502691896258
 41
3.74285687026858
 42
5.681921090500117
  0
ELLIPSE
  5
BD07
330
BC6A
100
AcDbEntity
  8
0
100
AcDbEllipse
 10
-14.73176798612712
 20
51.50710848575825
 30
0.0
 11
1.249999999999999
 21
2.165063509461096
 31
0.0
210
0.0
220
0.0
230
1.0
 40
0.5773502691896258
 41
0.0
 42
6.283185307179586
  0
ELLIPSE
  5
BD08
330
BC6A
100
AcDbEntity
  8
0
100
AcDbEllipse
 10
-16.14598154850022
 20
68.6535366852405
 30
0.0
 11
1.24999999999987
 21
2.165063509461171
 31
0.0
210
0.0
220
0.0
230
1.0
 40
0.5773502691896258
 41
3.74285687026858
 42
5.681921090500102
  0
ELLIPSE
  5
BD09
330
BC6A
100
AcDbEntity
  8
0
100
AcDbEllipse
 10
-14.73176798612712
 20
67.83704010431278
 30
0.0
 11
1.249999999999999
 21
2.165063509461096
 31
0.0
210
0.0
220
0.0
230
1.0
 40
0.5773502691896258
 41
0.0
 42
6.283185307179586
  0
ELLIPSE
  5
BD0A
330
BC6A
100
AcDbEntity
  8
0
100
AcDbEllipse
 10
-16.14598154850022
 20
84.98346830379501
 30
0.0
 11
1.24999999999987
 21
2.165063509461171
 31
0.0
210
0.0
220
0.0
230
1.0
 40
0.5773502691896258
 41
3.742856870268582
 42
5.681921090500102
  0
ELLIPSE
  5
BD0B
330
BC6A
100
AcDbEntity
  8
0
100
AcDbEllipse
 10
-14.73176798612712
 20
84.16697172286729
 30
0.0
 11
1.249999999999999
 21
2.165063509461096
 31
0.0
210
0.0
220
0.0
230
1.0
 40
0.5773502691896258
 41
0.0
 42
6.283185307179586
  0
ELLIPSE
  5
BD0C
330
BC6A
100
AcDbEntity
  8
0
100
AcDbEllipse
 10
-16.14598154850022
 20
101.3133999223495
 30
0.0
 11
1.24999999999987
 21
2.165063509461171
 31
0.0
210
0.0
220
0.0
230
1.0
 40
0.5773502691896258
 41
3.742856870268582
 42
5.681921090500102
  0
ELLIPSE
  5
BD0D
330
BC6A
100
AcDbEntity
  8
0
100
AcDbEllipse
 10
-14.73176798612712
 20
100.4969033414218
 30
0.0
 11
1.249999999999999
 21
2.165063509461096
 31
0.0
210
0.0
220
0.0
230
1.0
 40
0.5773502691896258
 41
0.0
 42
6.283185307179586
  0
ENDBLK
  5
BC6C
330
BC6A
100
AcDbEntity
  8
0
100
AcDbBlockEnd
  0
ENDSEC
  0
SECTION
  2
ENTITIES
  0
INSERT
  5
BD0E
330
1F
100
AcDbEntity
  8
0
100
AcDbBlockReference
  2
SAE500_50_2-Front
 10
0.0
 20
0.0
 30
0.0
  0
INSERT
  5
BD0F
330
1F
100
AcDbEntity
  8
0
100
AcDbBlockReference
  2
SAE500_50_2-Left
 10
134.6
 20
0.0
 30
0.0
  0
INSERT
  5
BD10
330
1F
100
AcDbEntity
  8
0
100
AcDbBlockReference
  2
SAE500_50_2-Right
 10
-134.6
 20
0.0
 30
0.0
  0
INSERT
  5
BD11
330
1F
100
AcDbEntity
  8
0
100
AcDbBlockReference
  2
SAE500_50_2-Top
 10
0.0
 20
-70.10000000000001
 30
0.0
  0
INSERT
  5
BD12
330
1F
100
AcDbEntity
  8
0
100
AcDbBlockReference
  2
SAE500_50_2-Bottom
 10
0.0
 20
293.1
 30
0.0
  0
INSERT
  5
BD13
330
1F
100
AcDbEntity
  8
0
100
AcDbBlockReference
  2
SAE500_50_2-ISO
 10
184.3335536548613
 20
-207.3392494831695
 30
0.0
  0
MTEXT
  5
BD14
330
1F
100
AcDbEntity
  8
0
100
AcDbMText
 10
0.0
 20
-224.2000000000001
 30
0.0
 40
16.825
 41
0.0
 71
     5
 72
     5
  1
SAE500/50/2
 73
     1
 44
1.0
1001
ACAD
1000
MTEXTBEGIN
1070
    73
1070
     1
1070
    44
1040
1.0
1070
    74
1070
     0
1000
MTEXTEND
  0
ENDSEC
  0
SECTION
  2
OBJECTS
  0
DICTIONARY
  5
C
330
0
100
AcDbDictionary
281
     1
  3
ACAD_CIP_PREVIOUS_PRODUCT_INFO
350
216
  3
ACAD_COLOR
350
6B
  3
ACAD_DETAILVIEWSTYLE
350
21B
  3
ACAD_GROUP
350
D
  3
ACAD_LAYOUT
350
1A
  3
ACAD_MATERIAL
350
6A
  3
ACAD_MLEADERSTYLE
350
12D
  3
ACAD_MLINESTYLE
350
17
  3
ACAD_PLOTSETTINGS
350
19
  3
ACAD_PLOTSTYLENAME
350
E
  3
ACAD_SCALELIST
350
10C
  3
ACAD_SECTIONVIEWSTYLE
350
219
  3
ACAD_TABLESTYLE
350
7E
  3
ACAD_VISUALSTYLE
350
EF
  3
ACDB_RECOMPOSE_DATA
350
BE15
  3
AcDbVariableDictionary
350
5E
  3
DWGPROPS
350
BE16
  0
DICTIONARY
  5
BD65
330
8
100
AcDbDictionary
280
     1
281
     1
  0
DICTIONARY
  5
1FF
330
2
100
AcDbDictionary
280
     1
281
     1
  3
ACAD_LAYERSTATES
360
200
  0
DICTIONARY
  5
13C
330
10
100
AcDbDictionary
280
     1
281
     1
  0
DICTIONARY
  5
1CE
330
1F
100
AcDbDictionary
280
     1
281
     1
  3
ACAD_LAYOUTSELFREF
360
BD6D
  0
DICTIONARY
  5
BD18
330
D2
100
AcDbDictionary
280
     1
281
     1
  3
ACAD_LAYOUTSELFREF
360
BD76
  0
DICTIONARY
  5
BD1A
330
D6
100
AcDbDictionary
280
     1
281
     1
  3
ACAD_LAYOUTSELFREF
360
BD79
  0
XRECORD
  5
216
102
{ACAD_REACTORS
330
C
102
}
330
C
100
AcDbXrecord
280
     1
300
ACD
300
2021
300
87393ACD_2021_0F
  0
DICTIONARY
  5
6B
102
{ACAD_REACTORS
330
C
102
}
330
C
100
AcDbDictionary
281
     1
  0
DICTIONARY
  5
21B
102
{ACAD_REACTORS
330
C
102
}
330
C
100
AcDbDictionary
281
     1
  3
Metric50
350
21C
  0
DICTIONARY
  5
D
102
{ACAD_REACTORS
330
C
102
}
330
C
100
AcDbDictionary
281
     1
  0
DICTIONARY
  5
1A
102
{ACAD_REACTORS
330
C
102
}
330
C
100
AcDbDictionary
281
     1
  3
Layout1
350
D3
  3
Layout2
350
D7
  3
Model
350
22
  0
DICTIONARY
  5
6A
102
{ACAD_REACTORS
330
C
102
}
330
C
100
AcDbDictionary
281
     1
  3
ByBlock
350
ED
  3
ByLayer
350
EC
  3
Global
350
EE
  0
DICTIONARY
  5
12D
102
{ACAD_REACTORS
330
C
102
}
330
C
100
AcDbDictionary
281
     1
  3
Standard
350
12E
  0
DICTIONARY
  5
17
102
{ACAD_REACTORS
330
C
102
}
330
C
100
AcDbDictionary
281
     1
  3
Standard
350
18
  0
DICTIONARY
  5
19
102
{ACAD_REACTORS
330
C
102
}
330
C
100
AcDbDictionary
281
     1
  0
ACDBDICTIONARYWDFLT
  5
E
102
{ACAD_REACTORS
330
C
102
}
330
C
100
AcDbDictionary
281
     1
  3
Normal
350
F
100
AcDbDictionaryWithDefault
340
F
  0
DICTIONARY
  5
10C
102
{ACAD_REACTORS
330
C
102
}
330
C
100
AcDbDictionary
281
     1
  3
A0
350
10D
  3
A1
350
1BE
  3
A2
350
1BF
  3
A3
350
1C0
  3
A4
350
1C1
  3
A5
350
1C2
  3
A6
350
1C3
  3
A7
350
1C4
  3
A8
350
1C5
  3
A9
350
1C6
  3
B0
350
1C7
  3
B1
350
1C8
  3
B2
350
1C9
  3
B3
350
1CA
  3
B4
350
1CB
  3
B5
350
1CC
  3
B6
350
1CD
  0
DICTIONARY
  5
219
102
{ACAD_REACTORS
330
C
102
}
330
C
100
AcDbDictionary
281
     1
  3
Metric50
350
21A
  0
DICTIONARY
  5
7E
102
{ACAD_REACTORS
330
C
102
}
330
C
100
AcDbDictionary
281
     1
  3
Standard
350
7F
  0
DICTIONARY
  5
EF
102
{ACAD_REACTORS
330
C
102
}
330
C
100
AcDbDictionary
281
     1
  3
2dWireframe
350
F5
  3
Basic
350
F4
  3
Brighten
350
FB
  3
ColorChange
350
FF
  3
Conceptual
350
F8
  3
Dim
350
FA
  3
EdgeColorOff
350
1E6
  3
Facepattern
350
FE
  3
Flat
350
F0
  3
FlatWithEdges
350
F1
  3
Gouraud
350
F2
  3
GouraudWithEdges
350
F3
  3
Hidden
350
F7
  3
JitterOff
350
1E4
  3
Linepattern
350
FD
  3
OverhangOff
350
1E5
  3
Realistic
350
F9
  3
Shaded
350
1F3
  3
Shaded with edges
350
1F2
  3
Shades of Gray
350
1EF
  3
Sketchy
350
1F0
  3
Thicken
350
FC
  3
Wireframe
350
F6
  3
X-Ray
350
1F1
  0
XRECORD
  5
BE15
102
{ACAD_REACTORS
330
C
102
}
330
C
100
AcDbXrecord
280
     1
 90
        1
330
7F
  0
DICTIONARY
  5
5E
102
{ACAD_REACTORS
330
C
102
}
330
C
100
AcDbDictionary
281
     1
  3
CANNOSCALE
350
146
  3
CENTEREXE
350
259
  3
CENTERLTYPEFILE
350
25A
  3
CMLEADERSTYLE
350
145
  3
CTABLESTYLE
350
84
  3
CVIEWDETAILSTYLE
350
227
  3
CVIEWSECTIONSTYLE
350
228
  3
DIMASSOC
350
5F
  3
HIDETEXT
350
63
  3
INDEXCTL
350
BDC2
  3
LAYEREVAL
350
1AE
  3
LAYERNOTIFY
350
1AF
  3
LIGHTINGUNITS
350
BDC0
  3
MSLTSCALE
350
BDBF
  3
PSOLHEIGHT
350
BE12
  3
PSOLWIDTH
350
BE11
  3
SORTENTS
350
BDC1
  3
XCLIPFRAME
350
BE13
  0
XRECORD
  5
BE16
102
{ACAD_REACTORS
330
C
102
}
330
C
100
AcDbXrecord
280
     1
  1
DWGPROPS COOKIE
  2

  3

  4

  6

  7

  8
truole
  9

300
=
301
=
302
=
303
=
304
=
305
=
306
=
307
=
308
=
309
=
 40
0.0080787037037037
 41
2460398.356956019
 42
2460398.376145833
  1

 90
        0
  0
DICTIONARY
  5
200
102
{ACAD_REACTORS
330
1FF
102
}
330
1FF
100
AcDbDictionary
281
     1
  0
XRECORD
  5
BD6D
102
{ACAD_REACTORS
330
1CE
102
}
330
1CE
100
AcDbXrecord
280
     1
340
1F
  0
XRECORD
  5
BD76
102
{ACAD_REACTORS
330
BD18
102
}
330
BD18
100
AcDbXrecord
280
     1
340
D2
  0
XRECORD
  5
BD79
102
{ACAD_REACTORS
330
BD1A
102
}
330
BD1A
100
AcDbXrecord
280
     1
340
D6
  0
ACDBDETAILVIEWSTYLE
  5
21C
102
{ACAD_XDICTIONARY
360
BE55
102
}
102
{ACAD_REACTORS
330
21B
102
}
330
21B
100
AcDbModelDocViewStyle
 70
     0
  3
Metric50
290
     0
100
AcDbDetailViewStyle
 70
     0
 71
     0
 90
        3
 71
     1
340
11
 40
5.0
340
0
 40
5.0
300

 40
0.0
280
     1
 71
     2
340
16
 90
       25
 71
     3
340
11
 40
5.0
 90
        0
 40
15.0
 90
        1
300
%<\AcVar ViewDetailId>% (%<\AcVar ViewScale \f "%sn">%)
 71
     4
340
16
 90
       25
340
16
 90
       25
280
     0
  0
LAYOUT
  5
D3
102
{ACAD_XDICTIONARY
360
BE1A
102
}
102
{ACAD_REACTORS
330
1A
102
}
330
1A
100
AcDbPlotSettings
  1

  2
C:\Documents and Settings\basas\Application Data\Autodesk\AutoCAD 2005\R16.1\enu\plotters\Default Windows System Printer.pc3
  4

  6

 40
0.0
 41
0.0
 42
0.0
 43
0.0
 44
0.0
 45
0.0
 46
0.0
 47
0.0
 48
0.0
 49
0.0
140
0.0
141
0.0
142
1.0
143
1.0
 70
   688
 72
     0
 73
     0
 74
     5
  7

 75
    16
147
1.0
148
0.0
149
0.0
100
AcDbLayout
  1
Layout1
 70
     1
 71
     1
 10
0.0
 20
0.0
 11
12.0
 21
9.0
 12
0.0
 22
0.0
 32
0.0
 14
0.0
 24
0.0
 34
0.0
 15
0.0
 25
0.0
 35
0.0
146
0.0
 13
0.0
 23
0.0
 33
0.0
 16
1.0
 26
0.0
 36
0.0
 17
0.0
 27
1.0
 37
0.0
 76
     0
330
D2
  0
LAYOUT
  5
D7
102
{ACAD_XDICTIONARY
360
BE1C
102
}
102
{ACAD_REACTORS
330
1A
102
}
330
1A
100
AcDbPlotSettings
  1

  2
C:\Documents and Settings\basas\Application Data\Autodesk\AutoCAD 2005\R16.1\enu\plotters\Default Windows System Printer.pc3
  4

  6

 40
0.0
 41
0.0
 42
0.0
 43
0.0
 44
0.0
 45
0.0
 46
0.0
 47
0.0
 48
0.0
 49
0.0
140
0.0
141
0.0
142
1.0
143
1.0
 70
   688
 72
     0
 73
     0
 74
     5
  7

 75
    16
147
1.0
148
0.0
149
0.0
100
AcDbLayout
  1
Layout2
 70
     1
 71
     2
 10
0.0
 20
0.0
 11
12.0
 21
9.0
 12
0.0
 22
0.0
 32
0.0
 14
0.0
 24
0.0
 34
0.0
 15
0.0
 25
0.0
 35
0.0
146
0.0
 13
0.0
 23
0.0
 33
0.0
 16
1.0
 26
0.0
 36
0.0
 17
0.0
 27
1.0
 37
0.0
 76
     0
330
D6
  0
LAYOUT
  5
22
102
{ACAD_XDICTIONARY
360
BE17
102
}
102
{ACAD_REACTORS
330
1A
102
}
330
1A
100
AcDbPlotSettings
  1

  2
none_device
  4
ISO_A4_(210.00_x_297.00_MM)
  6

 40
7.5
 41
20.0
 42
7.5
 43
20.0
 44
210.0
 45
297.0
 46
11.54999923706054
 47
-13.65000009536743
 48
0.0
 49
0.0
140
0.0
141
0.0
142
1.0
143
8.704084754739808
 70
 11952
 72
     1
 73
     0
 74
     0
  7

 75
     0
147
0.1148885871608098
148
0.0
149
0.0
100
AcDbLayout
  1
Model
 70
     1
 71
     0
 10
0.0
 20
0.0
 11
12.0
 21
9.0
 12
0.0
 22
0.0
 32
0.0
 14
0.0
 24
0.0
 34
0.0
 15
0.0
 25
0.0
 35
0.0
146
0.0
 13
0.0
 23
0.0
 33
0.0
 16
1.0
 26
0.0
 36
0.0
 17
0.0
 27
1.0
 37
0.0
 76
     0
330
1F
331
EA
1001
ACAD_PSEXT
1000
None
1000
None
1000
Not applicable
1000
The layout will not be plotted unless a new plotter configuration name is selected.
1070
     0
  0
MATERIAL
  5
ED
102
{ACAD_XDICTIONARY
360
1F9
102
}
102
{ACAD_REACTORS
330
6A
102
}
330
6A
100
AcDbMaterial
  1
ByBlock
  0
MATERIAL
  5
EC
102
{ACAD_XDICTIONARY
360
1F7
102
}
102
{ACAD_REACTORS
330
6A
102
}
330
6A
100
AcDbMaterial
  1
ByLayer
  0
MATERIAL
  5
EE
102
{ACAD_XDICTIONARY
360
173
102
}
102
{ACAD_REACTORS
330
6A
102
}
330
6A
100
AcDbMaterial
  1
Global
 43
0.0007999999797903
 43
0.0
 43
0.0
 43
0.0
 43
0.0
 43
0.0007999999797903
 43
0.0
 43
0.0
 43
0.0
 43
0.0
 43
1.0
 43
0.0
 43
0.0
 43
0.0
 43
0.0
 43
1.0
 49
0.0007999999797903
 49
0.0
 49
0.0
 49
0.0
 49
0.0
 49
0.0007999999797903
 49
0.0
 49
0.0
 49
0.0
 49
0.0
 49
1.0
 49
0.0
 49
0.0
 49
0.0
 49
0.0
 49
1.0
142
0.0007999999797903
142
0.0
142
0.0
142
0.0
142
0.0
142
0.0007999999797903
142
0.0
142
0.0
142
0.0
142
0.0
142
1.0
142
0.0
142
0.0
142
0.0
142
0.0
142
1.0
144
0.0007999999797903
144
0.0
144
0.0
144
0.0
144
0.0
144
0.0007999999797903
144
0.0
144
0.0
144
0.0
144
0.0
144
1.0
144
0.0
144
0.0
144
0.0
144
0.0
144
1.0
1001
ACAD
1070
    -1
1070
     3
1070
     0
1000

1071
        0
1070
     0
  0
MLEADERSTYLE
  5
12E
102
{ACAD_XDICTIONARY
360
BE41
102
}
102
{ACAD_REACTORS
330
12D
102
}
330
12D
100
AcDbMLeaderStyle
170
     2
171
     1
172
     0
 90
        2
 40
0.0
 41
0.0
173
     1
 91
-1056964608
340
14
 92
       -2
290
     1
 42
2.0
291
     1
 43
8.0
  3
Standard
 44
4.0
300

342
11
174
     1
178
     1
175
     1
176
     0
 93
-1056964608
 45
4.0
292
     0
297
     0
 46
4.0
 94
-1056964608
 47
1.0
 49
1.0
140
1.0
293
     1
141
0.0
294
     1
177
     0
142
1.0
295
     0
296
     0
143
3.75
1001
ACAD_MLEADERVER
1070
     2
  0
MLINESTYLE
  5
18
102
{ACAD_REACTORS
330
17
102
}
330
17
100
AcDbMlineStyle
  2
STANDARD
 70
     0
  3

 62
   256
 51
90.0
 52
90.0
 71
     2
 49
0.5
 62
   256
  6
BYLAYER
 49
-0.5
 62
   256
  6
BYLAYER
  0
ACDBPLACEHOLDER
  5
F
102
{ACAD_REACTORS
330
E
102
}
330
E
  0
SCALE
  5
10D
102
{ACAD_REACTORS
330
10C
102
}
330
10C
100
AcDbScale
 70
     0
300
1:1
140
1.0
141
1.0
290
     1
  0
SCALE
  5
1BE
102
{ACAD_REACTORS
330
10C
102
}
330
10C
100
AcDbScale
 70
     0
300
1:2
140
1.0
141
2.0
290
     0
  0
SCALE
  5
1BF
102
{ACAD_REACTORS
330
10C
102
}
330
10C
100
AcDbScale
 70
     0
300
1:4
140
1.0
141
4.0
290
     0
  0
SCALE
  5
1C0
102
{ACAD_REACTORS
330
10C
102
}
330
10C
100
AcDbScale
 70
     0
300
1:5
140
1.0
141
5.0
290
     0
  0
SCALE
  5
1C1
102
{ACAD_REACTORS
330
10C
102
}
330
10C
100
AcDbScale
 70
     0
300
1:8
140
1.0
141
8.0
290
     0
  0
SCALE
  5
1C2
102
{ACAD_REACTORS
330
10C
102
}
330
10C
100
AcDbScale
 70
     0
300
1:10
140
1.0
141
10.0
290
     0
  0
SCALE
  5
1C3
102
{ACAD_REACTORS
330
10C
102
}
330
10C
100
AcDbScale
 70
     0
300
1:16
140
1.0
141
16.0
290
     0
  0
SCALE
  5
1C4
102
{ACAD_REACTORS
330
10C
102
}
330
10C
100
AcDbScale
 70
     0
300
1:20
140
1.0
141
20.0
290
     0
  0
SCALE
  5
1C5
102
{ACAD_REACTORS
330
10C
102
}
330
10C
100
AcDbScale
 70
     0
300
1:30
140
1.0
141
30.0
290
     0
  0
SCALE
  5
1C6
102
{ACAD_REACTORS
330
10C
102
}
330
10C
100
AcDbScale
 70
     0
300
1:40
140
1.0
141
40.0
290
     0
  0
SCALE
  5
1C7
102
{ACAD_REACTORS
330
10C
102
}
330
10C
100
AcDbScale
 70
     0
300
1:50
140
1.0
141
50.0
290
     0
  0
SCALE
  5
1C8
102
{ACAD_REACTORS
330
10C
102
}
330
10C
100
AcDbScale
 70
     0
300
1:100
140
1.0
141
100.0
290
     0
  0
SCALE
  5
1C9
102
{ACAD_REACTORS
330
10C
102
}
330
10C
100
AcDbScale
 70
     0
300
2:1
140
2.0
141
1.0
290
     0
  0
SCALE
  5
1CA
102
{ACAD_REACTORS
330
10C
102
}
330
10C
100
AcDbScale
 70
     0
300
4:1
140
4.0
141
1.0
290
     0
  0
SCALE
  5
1CB
102
{ACAD_REACTORS
330
10C
102
}
330
10C
100
AcDbScale
 70
     0
300
8:1
140
8.0
141
1.0
290
     0
  0
SCALE
  5
1CC
102
{ACAD_REACTORS
330
10C
102
}
330
10C
100
AcDbScale
 70
     0
300
10:1
140
10.0
141
1.0
290
     0
  0
SCALE
  5
1CD
102
{ACAD_REACTORS
330
10C
102
}
330
10C
100
AcDbScale
 70
     0
300
100:1
140
100.0
141
1.0
290
     0
  0
ACDBSECTIONVIEWSTYLE
  5
21A
102
{ACAD_XDICTIONARY
360
BE53
102
}
102
{ACAD_REACTORS
330
219
102
}
330
219
100
AcDbModelDocViewStyle
 70
     0
  3
Metric50
290
     0
100
AcDbSectionViewStyle
 70
     0
 71
     0
 90
      102
 71
     1
340
11
 40
5.0
340
0
340
0
 40
5.0
300
I, O, Q, S, X, Z
 40
10.0
 90
        0
 40
2.5
 90
        0
 71
     2
340
16
 90
       25
340
16
 90
       50
 40
5.0
 40
2.5
 40
5.0
 71
     3
340
11
 40
5.0
 90
        0
 40
15.0
 90
        1
300
%<\AcVar ViewSectionStartId>%-%<\AcVar ViewSectionEndId>% (%<\AcVar ViewScale \f "%sn">%)
 71
     4
300
ANSI31
 40
1.0
 90
        0
290
     0
290
     0
 90
        6
 40
0.0
 40
1.570796326794896
 40
0.2617993877991494
 40
1.308996938995747
 40
-0.2617993877991494
 40
1.832595714594046
  0
TABLESTYLE
  5
7F
102
{ACAD_XDICTIONARY
360
162
102
}
102
{ACAD_REACTORS
330
7E
102
}
330
7E
100
AcDbTableStyle
  3
Standard
 70
     0
 71
     0
 40
1.5
 41
1.5
280
     0
281
     0
  7
Standard
140
4.5
170
     2
 62
     0
 63
     7
283
     0
274
    -2
284
     1
 64
     0
275
    -2
285
     1
 65
     0
276
    -2
286
     1
 66
     0
277
    -2
287
     1
 67
     0
278
    -2
288
     1
 68
     0
279
    -2
289
     1
 69
     0
  7
Standard
140
6.0
170
     5
 62
     0
 63
     7
283
     0
274
    -2
284
     1
 64
     0
275
    -2
285
     1
 65
     0
276
    -2
286
     1
 66
     0
277
    -2
287
     1
 67
     0
278
    -2
288
     1
 68
     0
279
    -2
289
     1
 69
     0
  7
Standard
140
4.5
170
     5
 62
     0
 63
     7
283
     0
274
    -2
284
     1
 64
     0
275
    -2
285
     1
 65
     0
276
    -2
286
     1
 66
     0
277
    -2
287
     1
 67
     0
278
    -2
288
     1
 68
     0
279
    -2
289
     1
 69
     0
  0
VISUALSTYLE
  5
F5
102
{ACAD_XDICTIONARY
360
BE2B
102
}
102
{ACAD_REACTORS
330
EF
102
}
330
EF
100
AcDbVisualStyle
  2
2dWireframe
 70
     4
 71
     0
 72
     2
 73
     1
 90
        0
 40
-0.6
 41
-30.0
 62
     5
 63
     7
 74
     1
 91
        4
 64
     7
 65
   257
 75
     1
175
     1
 42
1.0
 92
        0
 66
   257
 43
1.0
 76
     1
 77
     6
 78
     2
 67
     7
 79
     5
170
     0
171
     0
290
     0
174
     0
 93
        1
 44
0.0
173
     0
291
     0
 45
0.0
1001
ACAD
1000
AcDbSavedByObjectVersion
1070
     0
  0
VISUALSTYLE
  5
F4
102
{ACAD_XDICTIONARY
360
BE29
102
}
102
{ACAD_REACTORS
330
EF
102
}
330
EF
100
AcDbVisualStyle
  2
Basic
 70
     7
 71
     1
 72
     0
 73
     1
 90
        0
 40
-0.6
 41
-30.0
 62
     5
 63
     7
 74
     0
 91
        4
 64
     7
 65
   257
 75
     1
175
     1
 42
1.0
 92
        8
 66
     7
 43
1.0
 76
     1
 77
     6
 78
     2
 67
     7
 79
     5
170
     0
171
     0
290
     0
174
     0
 93
        1
 44
0.0
173
     0
291
     1
 45
0.0
1001
ACAD
1000
AcDbSavedByObjectVersion
1070
     0
  0
VISUALSTYLE
  5
FB
102
{ACAD_XDICTIONARY
360
BE37
102
}
102
{ACAD_REACTORS
330
EF
102
}
330
EF
100
AcDbVisualStyle
  2
Brighten
 70
    12
 71
     2
 72
     2
 73
     1
 90
        0
 40
-0.6
 41
-30.0
 62
     5
 63
     7
 74
     1
 91
        4
 64
     7
 65
   257
 75
     1
175
     1
 42
1.0
 92
        8
 66
     7
 43
1.0
 76
     1
 77
     6
 78
     2
 67
     7
 79
     5
170
     0
171
     0
290
     0
174
     0
 93
        1
 44
50.0
173
     0
291
     1
 45
0.0
1001
ACAD
1000
AcDbSavedByObjectVersion
1070
     0
  0
VISUALSTYLE
  5
FF
102
{ACAD_XDICTIONARY
360
BE3F
102
}
102
{ACAD_REACTORS
330
EF
102
}
330
EF
100
AcDbVisualStyle
  2
ColorChange
 70
    16
 71
     2
 72
     2
 73
     3
 90
        0
 40
-0.6
 41
-30.0
 62
     5
 63
     8
 74
     1
 91
        4
 64
     7
 65
   257
 75
     1
175
     1
 42
1.0
 92
        8
 66
     8
 43
1.0
 76
     1
 77
     6
 78
     2
 67
     7
 79
     5
170
     0
171
     0
290
     0
174
     0
 93
        1
 44
0.0
173
     0
291
     1
 45
0.0
1001
ACAD
1000
AcDbSavedByObjectVersion
1070
     0
  0
VISUALSTYLE
  5
F8
102
{ACAD_XDICTIONARY
360
BE31
102
}
102
{ACAD_REACTORS
330
EF
102
}
330
EF
100
AcDbVisualStyle
  2
Conceptual
 70
     9
 71
     3
 72
     2
 73
     1
 90
        0
 40
-0.6
 41
-30.0
 62
     5
 63
     7
 74
     2
 91
        2
 64
     7
 65
   257
 75
     1
175
     1
 42
40.0
 92
        8
 66
     7
 43
1.0
 76
     1
 77
     6
 78
     2
 67
     7
 79
     3
170
     0
171
     0
290
     0
174
     0
 93
        1
 44
0.0
173
     0
291
     0
 45
0.0
1001
ACAD
1000
AcDbSavedByObjectVersion
1070
     0
  0
VISUALSTYLE
  5
FA
102
{ACAD_XDICTIONARY
360
BE35
102
}
102
{ACAD_REACTORS
330
EF
102
}
330
EF
100
AcDbVisualStyle
  2
Dim
 70
    11
 71
     2
 72
     2
 73
     1
 90
        0
 40
-0.6
 41
-30.0
 62
     5
 63
     7
 74
     1
 91
        4
 64
     7
 65
   257
 75
     1
175
     1
 42
1.0
 92
        8
 66
     7
 43
1.0
 76
     1
 77
     6
 78
     2
 67
     7
 79
     5
170
     0
171
     0
290
     0
174
     0
 93
        1
 44
-50.0
173
     0
291
     1
 45
0.0
1001
ACAD
1000
AcDbSavedByObjectVersion
1070
     0
  0
VISUALSTYLE
  5
1E6
102
{ACAD_XDICTIONARY
360
BE47
102
}
102
{ACAD_REACTORS
330
EF
102
}
330
EF
100
AcDbVisualStyle
  2
EdgeColorOff
 70
    22
 71
     2
 72
     2
 73
     0
 90
        0
 40
-0.6
 41
-30.0
 62
     5
 63
     7
 74
     1
 91
        4
 64
     7
 65
   257
 75
     1
175
     1
 42
1.0
 92
        8
 66
     7
 43
1.0
 76
     1
 77
     6
 78
     2
 67
     7
 79
     5
170
     0
171
     0
290
     0
174
     0
 93
        1
 44
0.0
173
     0
291
     1
 45
0.0
1001
ACAD
1000
AcDbSavedByObjectVersion
1070
     0
  0
VISUALSTYLE
  5
FE
102
{ACAD_XDICTIONARY
360
BE3D
102
}
102
{ACAD_REACTORS
330
EF
102
}
330
EF
100
AcDbVisualStyle
  2
Facepattern
 70
    15
 71
     2
 72
     2
 73
     1
 90
        0
 40
-0.6
 41
-30.0
 62
     5
 63
     7
 74
     1
 91
        4
 64
     7
 65
   257
 75
     1
175
     1
 42
1.0
 92
        8
 66
     7
 43
1.0
 76
     1
 77
     6
 78
     2
 67
     7
 79
     5
170
     0
171
     0
290
     0
174
     0
 93
        1
 44
0.0
173
     0
291
     1
 45
0.0
1001
ACAD
1000
AcDbSavedByObjectVersion
1070
     0
  0
VISUALSTYLE
  5
F0
102
{ACAD_XDICTIONARY
360
BE21
102
}
102
{ACAD_REACTORS
330
EF
102
}
330
EF
100
AcDbVisualStyle
  2
Flat
 70
     0
 71
     2
 72
     1
 73
     1
 90
        2
 40
-0.6
 41
30.0
 62
     5
 63
     7
 74
     0
 91
        0
 64
     7
 65
   257
 75
     1
175
     1
 42
1.0
 92
        8
 66
     7
 43
1.0
 76
     1
 77
     6
 78
     2
 67
     7
 79
     5
170
     0
171
     0
290
     0
174
     0
 93
       13
 44
0.0
173
     0
291
     1
 45
0.0
1001
ACAD
1000
AcDbSavedByObjectVersion
1070
     0
  0
VISUALSTYLE
  5
F1
102
{ACAD_XDICTIONARY
360
BE23
102
}
102
{ACAD_REACTORS
330
EF
102
}
330
EF
100
AcDbVisualStyle
  2
FlatWithEdges
 70
     1
 71
     2
 72
     1
 73
     1
 90
        2
 40
-0.6
 41
30.0
 62
     5
 63
     7
 74
     1
 91
        0
 64
     7
 65
   257
 75
     1
175
     1
 42
1.0
 92
        0
 66
   257
 43
1.0
 76
     1
 77
     6
 78
     2
 67
     7
 79
     5
170
     0
171
     0
290
     0
174
     0
 93
       13
 44
0.0
173
     0
291
     1
 45
0.0
1001
ACAD
1000
AcDbSavedByObjectVersion
1070
     0
  0
VISUALSTYLE
  5
F2
102
{ACAD_XDICTIONARY
360
BE25
102
}
102
{ACAD_REACTORS
330
EF
102
}
330
EF
100
AcDbVisualStyle
  2
Gouraud
 70
     2
 71
     2
 72
     2
 73
     1
 90
        2
 40
-0.6
 41
30.0
 62
     5
 63
     7
 74
     0
 91
        0
 64
     7
 65
   257
 75
     1
175
     1
 42
1.0
 92
        0
 66
     7
 43
1.0
 76
     1
 77
     6
 78
     2
 67
     7
 79
     5
170
     0
171
     0
290
     0
174
     0
 93
       13
 44
0.0
173
     0
291
     1
 45
0.0
1001
ACAD
1000
AcDbSavedByObjectVersion
1070
     0
  0
VISUALSTYLE
  5
F3
102
{ACAD_XDICTIONARY
360
BE27
102
}
102
{ACAD_REACTORS
330
EF
102
}
330
EF
100
AcDbVisualStyle
  2
GouraudWithEdges
 70
     3
 71
     2
 72
     2
 73
     1
 90
        2
 40
-0.6
 41
30.0
 62
     5
 63
     7
 74
     1
 91
        0
 64
     7
 65
   257
 75
     1
175
     1
 42
1.0
 92
        0
 66
   257
 43
1.0
 76
     1
 77
     6
 78
     2
 67
     7
 79
     5
170
     0
171
     0
290
     0
174
     0
 93
       13
 44
0.0
173
     0
291
     1
 45
0.0
1001
ACAD
1000
AcDbSavedByObjectVersion
1070
     0
  0
VISUALSTYLE
  5
F7
102
{ACAD_XDICTIONARY
360
BE2F
102
}
102
{ACAD_REACTORS
330
EF
102
}
330
EF
100
AcDbVisualStyle
  2
Hidden
 70
     6
 71
     1
 72
     2
 73
     2
 90
        0
 40
-0.6
 41
-30.0
 62
     5
 63
     7
 74
     2
 91
        2
 64
     7
 65
   257
 75
     2
175
     1
 42
40.0
 92
        0
 66
   257
 43
1.0
 76
     1
 77
     6
 78
     2
 67
     7
 79
     3
170
     0
171
     0
290
     0
174
     0
 93
        1
 44
0.0
173
     0
291
     0
 45
0.0
1001
ACAD
1000
AcDbSavedByObjectVersion
1070
     0
  0
VISUALSTYLE
  5
1E4
102
{ACAD_XDICTIONARY
360
BE43
102
}
102
{ACAD_REACTORS
330
EF
102
}
330
EF
100
AcDbVisualStyle
  2
JitterOff
 70
    20
 71
     2
 72
     2
 73
     0
 90
        0
 40
-0.6
 41
-30.0
 62
     5
 63
     7
 74
     1
 91
        4
 64
     7
 65
   257
 75
     1
175
     1
 42
1.0
 92
       10
 66
     7
 43
1.0
 76
     1
 77
     6
 78
     2
 67
     7
 79
     5
170
     0
171
     0
290
     0
174
     0
 93
        1
 44
0.0
173
     0
291
     1
 45
0.0
1001
ACAD
1000
AcDbSavedByObjectVersion
1070
     0
  0
VISUALSTYLE
  5
FD
102
{ACAD_XDICTIONARY
360
BE3B
102
}
102
{ACAD_REACTORS
330
EF
102
}
330
EF
100
AcDbVisualStyle
  2
Linepattern
 70
    14
 71
     2
 72
     2
 73
     1
 90
        0
 40
-0.6
 41
-30.0
 62
     5
 63
     7
 74
     1
 91
        4
 64
     7
 65
   257
 75
     7
175
     7
 42
1.0
 92
        8
 66
     7
 43
1.0
 76
     1
 77
     6
 78
     2
 67
     7
 79
     5
170
     0
171
     0
290
     0
174
     0
 93
        1
 44
0.0
173
     0
291
     1
 45
0.0
1001
ACAD
1000
AcDbSavedByObjectVersion
1070
     0
  0
VISUALSTYLE
  5
1E5
102
{ACAD_XDICTIONARY
360
BE45
102
}
102
{ACAD_REACTORS
330
EF
102
}
330
EF
100
AcDbVisualStyle
  2
OverhangOff
 70
    21
 71
     2
 72
     2
 73
     0
 90
        0
 40
-0.6
 41
-30.0
 62
     5
 63
     7
 74
     1
 91
        4
 64
     7
 65
   257
 75
     1
175
     1
 42
1.0
 92
        9
 66
     7
 43
1.0
 76
     1
 77
     6
 78
     2
 67
     7
 79
     5
170
     0
171
     0
290
     0
174
     0
 93
        1
 44
0.0
173
     0
291
     1
 45
0.0
1001
ACAD
1000
AcDbSavedByObjectVersion
1070
     0
  0
VISUALSTYLE
  5
F9
102
{ACAD_XDICTIONARY
360
BE33
102
}
102
{ACAD_REACTORS
330
EF
102
}
330
EF
100
AcDbVisualStyle
  2
Realistic
 70
     8
 71
     2
 72
     2
 73
     0
 90
        2
 40
-0.6
 41
30.0
 62
     5
 63
     7
 74
     0
 91
        0
 64
     7
 65
   257
 75
     1
175
     1
 42
1.0
 92
        8
 66
   257
 43
1.0
 76
     1
 77
     6
 78
     2
 67
     7
 79
     3
170
     0
171
     0
290
     0
174
     0
 93
       13
 44
0.0
173
     0
291
     0
 45
0.0
1001
ACAD
1000
AcDbSavedByObjectVersion
1070
     0
  0
VISUALSTYLE
  5
1F3
102
{ACAD_XDICTIONARY
360
BE51
102
}
102
{ACAD_REACTORS
330
EF
102
}
330
EF
100
AcDbVisualStyle
  2
Shaded
 70
    27
 71
     2
 72
     2
 73
     1
 90
        2
 40
-0.6
 41
30.0
 62
     5
 63
     7
 74
     0
 91
        4
 64
     7
 65
   257
 75
     1
175
     1
 42
1.0
 92
        8
 66
   257
 43
1.0
 76
     1
 77
     6
 78
     2
 67
     8
 79
     3
170
     0
171
     0
290
     0
174
     0
 93
        5
 44
0.0
173
     0
291
     0
 45
0.0
1001
ACAD
1000
AcDbSavedByObjectVersion
1070
     0
  0
VISUALSTYLE
  5
1F2
102
{ACAD_XDICTIONARY
360
BE4F
102
}
102
{ACAD_REACTORS
330
EF
102
}
330
EF
100
AcDbVisualStyle
  2
Shaded with edges
 70
    26
 71
     2
 72
     2
 73
     1
 90
        2
 40
-0.6
 41
30.0
 62
     5
 63
     7
 74
     1
 91
        2
 64
     7
 65
   257
 75
     2
175
     1
 42
1.0
 92
        8
 66
   257
 43
1.0
 76
     1
 77
     6
 78
     2
 67
     7
 79
     3
170
     0
171
     0
290
     0
174
     0
 93
        5
 44
0.0
173
     0
291
     0
 45
0.0
1001
ACAD
1000
AcDbSavedByObjectVersion
1070
     0
  0
VISUALSTYLE
  5
1EF
102
{ACAD_XDICTIONARY
360
BE49
102
}
102
{ACAD_REACTORS
330
EF
102
}
330
EF
100
AcDbVisualStyle
  2
Shades of Gray
 70
    23
 71
     2
 72
     2
 73
     3
 90
        0
 40
-0.6
 41
-30.0
 62
     5
 63
     7
 74
     2
 91
        2
 64
     7
 65
     7
 75
     1
175
     1
 42
40.0
 92
        8
 66
     7
 43
1.0
 76
     1
 77
     6
 78
     2
 67
     7
 79
     3
170
     0
171
     0
290
     0
174
     0
 93
        1
 44
0.0
173
     0
291
     0
 45
0.0
1001
ACAD
1000
AcDbSavedByObjectVersion
1070
     0
  0
VISUALSTYLE
  5
1F0
102
{ACAD_XDICTIONARY
360
BE4B
102
}
102
{ACAD_REACTORS
330
EF
102
}
330
EF
100
AcDbVisualStyle
  2
Sketchy
 70
    24
 71
     1
 72
     2
 73
     2
 90
        0
 40
-0.6
 41
-30.0
 62
     5
 63
     7
 74
     2
 91
        2
 64
     7
 65
     7
 75
     1
175
     1
 42
40.0
 92
       11
 66
     7
 43
1.0
 76
     1
 77
     6
 78
     2
 67
     7
 79
     6
170
     0
171
     0
290
     0
174
     0
 93
        1
 44
0.0
173
     0
291
     0
 45
0.0
1001
ACAD
1000
AcDbSavedByObjectVersion
1070
     0
  0
VISUALSTYLE
  5
FC
102
{ACAD_XDICTIONARY
360
BE39
102
}
102
{ACAD_REACTORS
330
EF
102
}
330
EF
100
AcDbVisualStyle
  2
Thicken
 70
    13
 71
     2
 72
     2
 73
     1
 90
        0
 40
-0.6
 41
-30.0
 62
     5
 63
     7
 74
     1
 91
        4
 64
     7
 65
   257
 75
     1
175
     1
 42
1.0
 92
       12
 66
     7
 43
1.0
 76
     1
 77
     6
 78
     2
 67
     7
 79
     5
170
     0
171
     0
290
     0
174
     0
 93
        1
 44
0.0
173
     0
291
     1
 45
0.0
1001
ACAD
1000
AcDbSavedByObjectVersion
1070
     0
  0
VISUALSTYLE
  5
F6
102
{ACAD_XDICTIONARY
360
BE2D
102
}
102
{ACAD_REACTORS
330
EF
102
}
330
EF
100
AcDbVisualStyle
  2
Wireframe
 70
     5
 71
     0
 72
     2
 73
     0
 90
        0
 40
-0.6
 41
-30.0
 62
     5
 63
     7
 74
     1
 91
        4
 64
     7
 65
   257
 75
     1
175
     1
 42
1.0
 92
        0
 66
   257
 43
1.0
 76
     1
 77
     6
 78
     2
 67
     7
 79
     3
170
     0
171
     0
290
     0
174
     0
 93
        1
 44
0.0
173
     0
291
     0
 45
0.0
1001
ACAD
1000
AcDbSavedByObjectVersion
1070
     0
  0
VISUALSTYLE
  5
1F1
102
{ACAD_XDICTIONARY
360
BE4D
102
}
102
{ACAD_REACTORS
330
EF
102
}
330
EF
100
AcDbVisualStyle
  2
X-Ray
 70
    25
 71
     2
 72
     2
 73
     1
 90
        1
 40
0.5
 41
-30.0
 62
     5
 63
     7
 74
     1
 91
        0
 64
     7
 65
   257
 75
     1
175
     1
 42
1.0
 92
        8
 66
     7
 43
1.0
 76
     1
 77
     6
 78
     2
 67
     7
 79
     3
170
     0
171
     0
290
     0
174
     0
 93
       13
 44
0.0
173
     0
291
     0
 45
0.0
1001
ACAD
1000
AcDbSavedByObjectVersion
1070
     0
  0
DICTIONARYVAR
  5
146
102
{ACAD_REACTORS
330
5E
102
}
330
5E
100
DictionaryVariables
280
     0
  1
1:1
  0
DICTIONARYVAR
  5
259
102
{ACAD_REACTORS
330
5E
102
}
330
5E
100
DictionaryVariables
280
     0
  1
3.500000
  0
DICTIONARYVAR
  5
25A
102
{ACAD_REACTORS
330
5E
102
}
330
5E
100
DictionaryVariables
280
     0
  1
acadiso.lin
  0
DICTIONARYVAR
  5
145
102
{ACAD_REACTORS
330
5E
102
}
330
5E
100
DictionaryVariables
280
     0
  1
STANDARD
  0
DICTIONARYVAR
  5
84
102
{ACAD_REACTORS
330
5E
102
}
330
5E
100
DictionaryVariables
280
     0
  1
STANDARD
  0
DICTIONARYVAR
  5
227
102
{ACAD_REACTORS
330
5E
102
}
330
5E
100
DictionaryVariables
280
     0
  1
Metric50
  0
DICTIONARYVAR
  5
228
102
{ACAD_REACTORS
330
5E
102
}
330
5E
100
DictionaryVariables
280
     0
  1
Metric50
  0
DICTIONARYVAR
  5
5F
102
{ACAD_REACTORS
330
5E
102
}
330
5E
100
DictionaryVariables
280
     0
  1
2
  0
DICTIONARYVAR
  5
63
102
{ACAD_REACTORS
330
5E
102
}
330
5E
100
DictionaryVariables
280
     0
  1
1
  0
DICTIONARYVAR
  5
BDC2
102
{ACAD_REACTORS
330
5E
102
}
330
5E
100
DictionaryVariables
280
     0
  1
0
  0
DICTIONARYVAR
  5
1AE
102
{ACAD_REACTORS
330
5E
102
}
330
5E
100
DictionaryVariables
280
     0
  1
0
  0
DICTIONARYVAR
  5
1AF
102
{ACAD_REACTORS
330
5E
102
}
330
5E
100
DictionaryVariables
280
     0
  1
0
  0
DICTIONARYVAR
  5
BDC0
102
{ACAD_REACTORS
330
5E
102
}
330
5E
100
DictionaryVariables
280
     0
  1
2
  0
DICTIONARYVAR
  5
BDBF
102
{ACAD_REACTORS
330
5E
102
}
330
5E
100
DictionaryVariables
280
     0
  1
1
  0
DICTIONARYVAR
  5
BE12
102
{ACAD_REACTORS
330
5E
102
}
330
5E
100
DictionaryVariables
280
     0
  1
80.000000
  0
DICTIONARYVAR
  5
BE11
102
{ACAD_REACTORS
330
5E
102
}
330
5E
100
DictionaryVariables
280
     0
  1
5.000000
  0
DICTIONARYVAR
  5
BDC1
102
{ACAD_REACTORS
330
5E
102
}
330
5E
100
DictionaryVariables
280
     0
  1
127
  0
DICTIONARYVAR
  5
BE13
102
{ACAD_REACTORS
330
5E
102
}
330
5E
100
DictionaryVariables
280
     0
  1
2
  0
DICTIONARY
  5
BE55
330
21C
100
AcDbDictionary
280
     1
281
     1
  3
ACAD_XREC_ROUNDTRIP
360
BE56
  0
DICTIONARY
  5
BE1A
330
D3
100
AcDbDictionary
280
     1
281
     1
  3
ACAD_XREC_ROUNDTRIP
360
BE1B
  0
DICTIONARY
  5
BE1C
330
D7
100
AcDbDictionary
280
     1
281
     1
  3
ACAD_XREC_ROUNDTRIP
360
BE1D
  0
DICTIONARY
  5
BE17
330
22
100
AcDbDictionary
280
     1
281
     1
  3
ACAD_XREC_ROUNDTRIP
360
BE18
  0
DICTIONARY
  5
1F9
330
ED
100
AcDbDictionary
280
     1
281
     1
  3
ACAD_XREC_ROUNDTRIP
360
BE1F
  3
FBXASSET
360
1FA
  0
DICTIONARY
  5
1F7
330
EC
100
AcDbDictionary
280
     1
281
     1
  3
ACAD_XREC_ROUNDTRIP
360
BE1E
  3
FBXASSET
360
1F8
  0
DICTIONARY
  5
173
330
EE
100
AcDbDictionary
280
     1
281
     1
  3
ACAD_XREC_ROUNDTRIP
360
BE20
  3
BUMPTILE
360
175
  3
DIFFUSETILE
360
174
  3
FBXASSET
360
1FB
  3
OPACITYTILE
360
176
  3
REFLECTIONTILE
360
177
  0
DICTIONARY
  5
BE41
330
12E
100
AcDbDictionary
280
     1
281
     1
  3
ACAD_XREC_ROUNDTRIP
360
BE42
  0
DICTIONARY
  5
BE53
330
21A
100
AcDbDictionary
280
     1
281
     1
  3
ACAD_XREC_ROUNDTRIP
360
BE54
  0
DICTIONARY
  5
162
330
7F
100
AcDbDictionary
280
     1
281
     1
  3
ACAD_ROUNDTRIP_2008_TABLESTYLE_CELLSTYLEMAP
360
BE14
  3
ACAD_XREC_ROUNDTRIP
360
BE19
  0
DICTIONARY
  5
BE2B
330
F5
100
AcDbDictionary
280
     1
281
     1
  3
ACAD_XREC_ROUNDTRIP
360
BE2C
  0
DICTIONARY
  5
BE29
330
F4
100
AcDbDictionary
280
     1
281
     1
  3
ACAD_XREC_ROUNDTRIP
360
BE2A
  0
DICTIONARY
  5
BE37
330
FB
100
AcDbDictionary
280
     1
281
     1
  3
ACAD_XREC_ROUNDTRIP
360
BE38
  0
DICTIONARY
  5
BE3F
330
FF
100
AcDbDictionary
280
     1
281
     1
  3
ACAD_XREC_ROUNDTRIP
360
BE40
  0
DICTIONARY
  5
BE31
330
F8
100
AcDbDictionary
280
     1
281
     1
  3
ACAD_XREC_ROUNDTRIP
360
BE32
  0
DICTIONARY
  5
BE35
330
FA
100
AcDbDictionary
280
     1
281
     1
  3
ACAD_XREC_ROUNDTRIP
360
BE36
  0
DICTIONARY
  5
BE47
330
1E6
100
AcDbDictionary
280
     1
281
     1
  3
ACAD_XREC_ROUNDTRIP
360
BE48
  0
DICTIONARY
  5
BE3D
330
FE
100
AcDbDictionary
280
     1
281
     1
  3
ACAD_XREC_ROUNDTRIP
360
BE3E
  0
DICTIONARY
  5
BE21
330
F0
100
AcDbDictionary
280
     1
281
     1
  3
ACAD_XREC_ROUNDTRIP
360
BE22
  0
DICTIONARY
  5
BE23
330
F1
100
AcDbDictionary
280
     1
281
     1
  3
ACAD_XREC_ROUNDTRIP
360
BE24
  0
DICTIONARY
  5
BE25
330
F2
100
AcDbDictionary
280
     1
281
     1
  3
ACAD_XREC_ROUNDTRIP
360
BE26
  0
DICTIONARY
  5
BE27
330
F3
100
AcDbDictionary
280
     1
281
     1
  3
ACAD_XREC_ROUNDTRIP
360
BE28
  0
DICTIONARY
  5
BE2F
330
F7
100
AcDbDictionary
280
     1
281
     1
  3
ACAD_XREC_ROUNDTRIP
360
BE30
  0
DICTIONARY
  5
BE43
330
1E4
100
AcDbDictionary
280
     1
281
     1
  3
ACAD_XREC_ROUNDTRIP
360
BE44
  0
DICTIONARY
  5
BE3B
330
FD
100
AcDbDictionary
280
     1
281
     1
  3
ACAD_XREC_ROUNDTRIP
360
BE3C
  0
DICTIONARY
  5
BE45
330
1E5
100
AcDbDictionary
280
     1
281
     1
  3
ACAD_XREC_ROUNDTRIP
360
BE46
  0
DICTIONARY
  5
BE33
330
F9
100
AcDbDictionary
280
     1
281
     1
  3
ACAD_XREC_ROUNDTRIP
360
BE34
  0
DICTIONARY
  5
BE51
330
1F3
100
AcDbDictionary
280
     1
281
     1
  3
ACAD_XREC_ROUNDTRIP
360
BE52
  0
DICTIONARY
  5
BE4F
330
1F2
100
AcDbDictionary
280
     1
281
     1
  3
ACAD_XREC_ROUNDTRIP
360
BE50
  0
DICTIONARY
  5
BE49
330
1EF
100
AcDbDictionary
280
     1
281
     1
  3
ACAD_XREC_ROUNDTRIP
360
BE4A
  0
DICTIONARY
  5
BE4B
330
1F0
100
AcDbDictionary
280
     1
281
     1
  3
ACAD_XREC_ROUNDTRIP
360
BE4C
  0
DICTIONARY
  5
BE39
330
FC
100
AcDbDictionary
280
     1
281
     1
  3
ACAD_XREC_ROUNDTRIP
360
BE3A
  0
DICTIONARY
  5
BE2D
330
F6
100
AcDbDictionary
280
     1
281
     1
  3
ACAD_XREC_ROUNDTRIP
360
BE2E
  0
DICTIONARY
  5
BE4D
330
1F1
100
AcDbDictionary
280
     1
281
     1
  3
ACAD_XREC_ROUNDTRIP
360
BE4E
  0
XRECORD
  5
BE56
102
{ACAD_REACTORS
330
BE55
102
}
330
BE55
100
AcDbXrecord
280
     1
102
DISPLAYNAME
  1
Metric50
102
FLAGS
 90
        0
  0
XRECORD
  5
BE1B
102
{ACAD_REACTORS
330
BE1A
102
}
330
BE1A
100
AcDbXrecord
280
     1
102
SHADEPLOT
 70
     0
102
SHADEPLOTRESLEVEL
 70
     2
102
SHADEPLOTCUSTOMDPI
 70
   300
  0
XRECORD
  5
BE1D
102
{ACAD_REACTORS
330
BE1C
102
}
330
BE1C
100
AcDbXrecord
280
     1
102
SHADEPLOT
 70
     0
102
SHADEPLOTRESLEVEL
 70
     2
102
SHADEPLOTCUSTOMDPI
 70
   300
  0
XRECORD
  5
BE18
102
{ACAD_REACTORS
330
BE17
102
}
330
BE17
100
AcDbXrecord
280
     1
102
SHADEPLOT
 70
     0
102
SHADEPLOTRESLEVEL
 70
     2
102
SHADEPLOTCUSTOMDPI
 70
   300
  0
XRECORD
  5
BE1F
102
{ACAD_REACTORS
330
1F9
102
}
330
1F9
100
AcDbXrecord
280
     1
102
MATERIAL
148
0.0
149
0.0
149
0.0
 93
        0
 94
       63
282
     0
 72
     1
 77
     1
171
     1
175
     1
179
     1
273
     0
  0
XRECORD
  5
1FA
102
{ACAD_REACTORS
330
1F9
102
}
330
1F9
100
AcDbXrecord
280
     1
 70
     1
 90
429727718
  1
D62C5603-E3A1-4AEA-B7FB-FE5D8D0755AF
310
504B03040A0000080000CC70623B3DEE336E79000000790000001B0000006175746F6465736B2D64657369676E2D7061636B6167652E786D6C3C3F786D6C2076657273696F6E3D22312E302220656E636F64696E673D227574662D3822203F3E3C666F726D6174733E3C666F726D61743E687474703A2F2F736368656D612E
310
6175746F6465736B2E636F6D2F64657369676E2D7061636B6167652F323030393C2F666F726D61743E3C2F666F726D6174733E504B0304140006080800CC70623BD486FD9CA0000000F4000000130000005B436F6E74656E745F54797065735D2E786D6C7D8EC10E82300C865F65E91D8A1E8C310C0EEA1BF002731658846E
310
D98AC1B77784ABF1D8FE5FBFBF75BBCE937A534CCEB38643598122B6FEE978D0B0485F9C41B54DDD7D022595594E1A469170414C76A4D9A4D207E29CF43ECE46F218070CC6BECC4078ACAA135ACF422C856C0E68EA1BF5669944DDD7BCDE7B1F8E415D77AECB980613C2E4AC91FC167A2B244592486606FC29C8FD7F045B9A
310
EF7053A7E60B504B0304140006080800CC70623B853B8169EB0000007C01000008000000636F72652E786D6C8D90416EC3201045AF62CDB6C206821CC7C244919D9CA01740401C94182C03558F5F9C3852BBEB6A467FFE9B197D7EFC9E1EC5975982F5AE035262288C535E5B377690E21535501C055FBC8FBF6C503839990E
310
5619041F179FE64D52DE45E362569DD7661365082642A11EB9E920A89B99642953CC8E702F67A9EE7234257977194EC9EAE275C4EABCCF5EAD5940D4AC6F0E35A568B8F43562CD7046CD199FD07E60174276A7BE677B5EADB0E0D14EEFFB6A31321A0D82627C4084204C3F096B71DD52F6819B16635EADF63F509AF53FA164
310
5DDCD1EDDD17164090FCC8732078B56691CB33A85CD7DCC40F504B0304140006080800CC70623B55019EA25F0000007C00000007000000636E782E786D6C4DCB3B0E80201045D1AD90E915ED2CF8AC45050C11660C8261F98AB1B07AC9C97D42D718D865D3E909258CFD00CCE24AC6E326A164D74DC0B4128928FF32603847
310
2BA13128B1252AC747C6BAB984FC68F0B87FE8960A5C09FE86CFB69FBA01504B0304140006080800CC70623BDBABAAF470010000D40300000C0000006662782F636F72652E786D6CC553D16E823014FD95A6AF4B694182CC941A83FA05FB810A9511A125A5257EFE2E82712ECEB8A7F100CD39F7F69E734AF9FADC366850B6
310
AF8DCE7018308C942E4C59EB2AC3DE1D498AD15A706B8CFB56869196ADCAF00863C12B6B7C374385D14E6907A836A59A41D9F7CA615434B0C8705F7CAA5606D23BA8E84F41278B93AC54100640439DE0BDB320004D43C63716C7C399D30917DCFBBA9CD9BA8469F5B156168B24CED3F7248AC8769F27244EB73B92EED8862C
310
B7F13E0C179B3C8F979C8ECD82BBBABDAA2BAC924E9558448CBD9330242CFA08E3154B5651FCC6D215639C8EE5774DBE2B5F6CF2B5768B68963BB5F5588420E442FC700B1139D4CB01F450C1E918227C2E09DF070D8140C84E1E9AAB8F1340832A9CB13130A5F1376A908D57309505ECF2A0DF179C4E9D30F5B239B87E3823
310
7A79C6F31DE1A8A5AEC08474B03C7837EAE4938639B44E5932B833D2C6B6B279CDC613877FA26EE21F4A2A4C63EC7F29A2F301D1F9F7A0E37D145F504B0304140006080800CC70623B9C113CC27E0000009D0000000B0000006662782F636E782E786D6C4DCCDF0A83201C86E15B91DFB94BFB330DD428C8FB886521330DA7
310
6397BF1A1DECE883878F57749FCDA1B7892F1BBC047A23808C7F84D9FA55424E0BE6803A256208E9EF06C84F9B91703228B1C690F78B66B34CD9A5439DF5CF0BFBF65E35BCA1B8D6A5C6F540381E886698B5741C695F9503EBA150A2F8958E3DC3EA0B504B0304140006080800CC70623B7DF2F77C2A010000120200003100
310
00006662782F41393633353835312D344632462D344230382D423046372D3739314545314133324237412F636F72652E786D6C8D51DB8EC22014FC15C2939B0D2DB4B45643319AE817EC0F6041255A68B86CFCFC856D4D76DF7CE190393373060EDB3DC707F856CE6B6B7A480A0C81328395DA5C7B18C3057510EC3873D686
310
3F34088C18550F330C39BB3A1BA7051AAC09CA84841A2BD5020AEF55806078A44B0FFD7053A328440C89E1EFC52486BBB8AA8214A99D789CF9E05200300FC927E4FB4D5B375D43103D5527440FB843077C5AA3F5861C8F645F5787F59E95B390B318B55CE45AA638FAA2957BD7248B390B7A7CC51F9C124149C82B8C378810
310
84AB2F42B7B8DD56F413775B8C5999E9FF4471926F8AA236A1AE96B8B3CC434E5839373893369E1FAF30EA395917409EB7F26AF8801C171837A4A6AC9C89E9F9C9B1A58BA30FD6A5EF5DDDCF894B9AD9B6A59C957943A9FCAE2FD5BC4DFE03504B0304140006080800CC70623BAD7543B64E01000033030000300000006662
310
782F41393633353835312D344632462D344230382D423046372D3739314545314133324237412F636E782E786D6CD593CD6EC32010845F0571AD6CE3D48AD20813A9873E410FBD12D82434182C7EAAE6EDBB2424CD25871E7B41D6EC30B3FA84F9E67BB2E40B4234DE8DB46F1925E094D7C6ED479AD3AE5951B2113C789FEE
310
6C943839C1488B4C05DF079FE72A69D8C96C13AAD6B8631503449F83828872B949AC57D26200B826A308D316B4064D6E46FCDA41C05550DC9E483A00797BFD207EFB092A45DE9514C1BBD22178396BD39D891265658C238DEA00936C654E5E433CB65A26D9F6EDB5EBC14EBF49A45CB856E66048291F6939A9A81BB5C89177
310
38143CA680F4AA299D66A042CEB3354A2684DC9D8D178FE0D9B8B41CAAD720F880EE7EF93C0C18769E099ECC04D5A102C8049A8A05632F4DDF376CF1DE0F6BB65C2F8627B65A33C6BB62177CEBBDAD973006829F89F22E814B54F4BC2BE347F8AA8F681390B50FA73F804400B5F542E796F19FF974E7F78DB802FE05E20750
310
4B0304140006080800CC70623BE75B7789680500003C100000340000006662782F41393633353835312D344632462D344230382D423046372D3739314545314133324237412F6F626A656374732E786D6CAD575B8F9B3818FD2B887D06C22499CB8AA1CA655245D5B455A356FB305264C061D8018C6C3393D95FBFC7600890
310
A4CD5EF210B0B1BFEBF98E3F7B1FF6596ABC522E1296DF9BAE3D320D9A872C4AF2F8DE2CE5CEBA358D0FBEC719939D65A691938CDE9B6ADAF4BD98B3B2D05311DD91329583D9D5FC0F438434A7A611A644887B5384CF34233629258BA878B12322891DEFF6B66BD70BFB62634E8AE781D082709A4B588AF91C528CDA28B73F
310
1C998EEF39EABBEFA97FBD6A7C7E9553F9D3D79FE442923C3C523610337627CB87ABE99D359D4CC6D6E4FACAB5E6ABF9D2726FC6A3C5F56271377BB88362213924694B38DD99FE47C48627A1E7D49F5A8BB5E1A74C0A599ED3B0F21F1E56366B89112D681E218F0915D0D6F17AD41FBA2A369DCF6335D62ABBD39779D5DDD1
310
11D4D8DE3CBB96B2E04FB8202E41051754A1AA8E8F76B4C6DFE810B580B1547F4B84911149794252234D024EF8BBE963A95AE27B3D310A9D5C215C7960FAEE415ED75694C6AFB17BCACA5D99A60A9AA65F217B0BFC53292ACB92BF283FAD0D3621576592CB5BED907C2FA8E9DF794E35E97BEA31BED21FEB401ABB94C44839
310
DCACBF0E1C5DA8DA5B2F4DFFD32AD86F543D9E565E7056502E157C00AD2671CD534549AB752FCA9CDA00677A313F04E51B22FF19E57B300579E3C97EB29F682D92935CEC18CF901B7B54FD8C51F362B56FC72FE0B3C1EAE335EDCCBF5AEC39ADB17DC238973F804BA5E6F6BFE7AF1FB32E523BE9F3BD571418E3631DCA4D48
310
5250CF639223210A9446CA30052EDF057BD35F8329C1ECD84552BF0DC8D18BE7BCE23BFE6BD960AB4A7DE79923A103BEBD80F911CBAA2C60DB19B01CF164A5583B772EE6D3FFA56666CBCDA74DC97724A48F9A58967497E489C4D979006FD7A05E227A1EBDD0F737C623387A9C844D3709995625106D157315F8B8392CD4E0
310
A0B9A720C4BE9829CEF37EA1E13111214D53925356365ADA634861B52519DD27A00AEB808EAF0628E6F435519D446F45CF2C9CF5214F0A15B2F6D06B79DA3EE3CBF7F56780D2F4E7EF73A0F5E5B02A38D07DC852C6B7C1FBB6664213E0C39E3EBA7FF4E1AD23EA2829407C85E586727488B751B2DB9502BC7B228A3FD68B6E
310
A65A22397E690AA8D158D7E404EC8CDA235CC3B7D1898680131CEC2CDF2638C65196279577750F15884AEE19F94199155B92B13297978469D4F8D358DF0AEF7631E28DC8F0D9F437D5D39A83B2231A1D52D543813A824EF8D44BCFF2FA6A31BD1E8DAD87F1CCB526B3879935BF59CDADD5C37479BB1CDD4CA7B3556B516589
310
EF352754B706114D9C885EC9131DE6EFEB43D99AFE2391C2F958179413D7CFEF6B1B6DB1E7600F00DE6E5C67454A339A4BA2E0FBA85ED26F045D454F463DBFCE484C2F90F2E5E3666003662ED8F755951A7D1BECD5B30B550B2785C8E7320B7292A4838DDA71BBC863ED7613CAF659337A3354231D4FF4A182A54904C2898C
310
98B28C4AD0CE056CCF332A80986E571EE9DBC305BB5FEB7E509220A58D25CF042D712A806AC0AD0C657FDEF80D2D9CEAA2EE4D1C76F60BFE74219A06527D6F82DF6412526107381E55E353090704D085B52408A8913C4ED159D79BDA71BB4BC506F4831350EB6F975CD22D69BF7AC49B91A2C0A9DDA3D5CA36AD20FC478E37
310
E61844E2352865EBCB61A275A65283CAAA9DD27703B4102F5AF51EF5F573B75CBB5AD38BC845F7A49F82A0966A49C2E3EA5EA0ECD326CD965F1DB402C6FA8B51A4658C5C5E2EC9E214602E55810345408596591009A82E7E7FFACA19EEA299B14A0081A705CB3296EBC14CDF658DCD336EA6D1136881AAEB87B81AB9EE53D5
310
F5EB8BC8362082DA24122F98680A4E7930C01A0079749CEA14382A0783E5EBA5A10F8C098456A03D6A4AEB6BB881E2513747552A5DB22C7EDAF83BD5528081A365F7FF06504B0304140006080000CC70623B000000000000000000000000350000006662782F41393633353835312D344632462D344230382D423046372D37
310
39314545314133324237412F76657274696365732E62696E504B0304140006080800CC70623BF270F1330600000004000000360000006662782F41393633353835312D344632462D344230382D423046372D3739314545314133324237412F747269616E676C65732E62696E636660600000504B0304140006080000CC7062
310
3B000000000000000000000000370000006662782F41393633353835312D344632462D344230382D423046372D3739314545314133324237412F617474726962757465732E62696E504B0304140006080800CC70623B08DA0BD19000000041010000360000006662782F41393633353835312D344632462D344230382D4230
310
46372D3739314545314133324237412F6469726563746F72792E786D6C858F410AC3201045AF22B36F53E9A60B35CBEEBAE80D244E44489C6234F4F835464A48035D0DF398FF9F8AF63D0E6CC63039F212F8F9020C7D47C6792B21C5FE7403D62A1188E2E60C98D7234A5830286103A55745067B9D86B8A3CF9C7F90C11DE6
310
07FB144396D7B6A82D282E9A152AD114D5EF2CB866EEE831B8EEA07A7BB5A8D7D61A2BAAEB7FD5F70921FF497D00504B0304140006080800CC70623BEDD1DC58FD000000A00100003B0000006662782F41393633353835312D344632462D344230382D423046372D3739314545314133324237412F7265736F75726365732F
310
636F72652E786D6C8D504B6E833010BD0A9A6D65B00922041947112427E8052C33A156828DFCA97AFC9A40A576D7CDCCE87D344F8F9FBFE667F689CE6B6B3A6039850C8DB2A336530731DC4903D95970676DF82583CCC8193B5861107C72362E3BA4AC096842428D1D7107A5F7182053CF7474E0D507CE32973124857FE48B
310
540F3961CEF244279DE03EB81420DB9EAC1384436FA353E879B1B182C7A8C75DA3C7F453DF353A1075D537A7BA6464B8F535A99AE14A9A2BBD90E350DD183B5CFABE3AF262350B1EF4FC9351399401471025A527C218A1E53BAB5A5AB765F5469B96525EACF23FA6B88CFF34456DC2A1DCE36E360F82A5202F42F062ED2BAD
310
579969AFDD8A6F504B010214000A0000080000CC70623B3DEE336E79000000790000001B00000000000000000000000000000000006175746F6465736B2D64657369676E2D7061636B6167652E786D6C504B01021400140006080800CC70623BD486FD9CA0000000F40000001300000000000000000000000000B20000005B
310
436F6E74656E745F54797065735D2E786D6C504B01021400140006080800CC70623B853B8169EB0000007C010000080000000000000000000000000083010000636F72652E786D6C504B01021400140006080800CC70623B55019EA25F0000007C000000070000000000000000000000000094020000636E782E786D6C504B
310
01021400140006080800CC70623BDBABAAF470010000D40300000C00000000000000000000000000180300006662782F636F72652E786D6C504B01021400140006080800CC70623B9C113CC27E0000009D0000000B00000000000000000000000000B20400006662782F636E782E786D6C504B01021400140006080800CC70
310
623B7DF2F77C2A010000120200003100000000000000000000000000590500006662782F41393633353835312D344632462D344230382D423046372D3739314545314133324237412F636F72652E786D6C504B01021400140006080800CC70623BAD7543B64E010000330300003000000000000000000000000000D2060000
310
6662782F41393633353835312D344632462D344230382D423046372D3739314545314133324237412F636E782E786D6C504B01021400140006080800CC70623BE75B7789680500003C10000034000000000000000000000000006E0800006662782F41393633353835312D344632462D344230382D423046372D3739314545
310
314133324237412F6F626A656374732E786D6C504B01021400140006080000CC70623B0000000000000000000000003500000000000000000000000000280E00006662782F41393633353835312D344632462D344230382D423046372D3739314545314133324237412F76657274696365732E62696E504B01021400140006
310
080800CC70623BF270F133060000000400000036000000000000000000000000007B0E00006662782F41393633353835312D344632462D344230382D423046372D3739314545314133324237412F747269616E676C65732E62696E504B01021400140006080000CC70623B0000000000000000000000003700000000000000
310
000000000000D50E00006662782F41393633353835312D344632462D344230382D423046372D3739314545314133324237412F617474726962757465732E62696E504B01021400140006080800CC70623B08DA0BD1900000004101000036000000000000000000000000002A0F00006662782F41393633353835312D344632
310
462D344230382D423046372D3739314545314133324237412F6469726563746F72792E786D6C504B01021400140006080800CC70623BEDD1DC58FD000000A00100003B000000000000000000000000000E1000006662782F41393633353835312D344632462D344230382D423046372D3739314545314133324237412F7265
310
736F75726365732F636F72652E786D6C504B0506000000000E000E0080040000641100000000
  0
XRECORD
  5
BE1E
102
{ACAD_REACTORS
330
1F7
102
}
330
1F7
100
AcDbXrecord
280
     1
102
MATERIAL
148
0.0
149
0.0
149
0.0
 93
        0
 94
       63
282
     0
 72
     1
 77
     1
171
     1
175
     1
179
     1
273
     0
  0
XRECORD
  5
1F8
102
{ACAD_REACTORS
330
1F7
102
}
330
1F7
100
AcDbXrecord
280
     1
 70
     1
 90
429727718
  1
30362254-06B7-45E0-A893-8CFA70E3D6BC
310
504B03040A0000080000CC70623B3DEE336E79000000790000001B0000006175746F6465736B2D64657369676E2D7061636B6167652E786D6C3C3F786D6C2076657273696F6E3D22312E302220656E636F64696E673D227574662D3822203F3E3C666F726D6174733E3C666F726D61743E687474703A2F2F736368656D612E
310
6175746F6465736B2E636F6D2F64657369676E2D7061636B6167652F323030393C2F666F726D61743E3C2F666F726D6174733E504B0304140006080800CC70623BD486FD9CA0000000F4000000130000005B436F6E74656E745F54797065735D2E786D6C7D8EC10E82300C865F65E91D8A1E8C310C0EEA1BF002731658846E
310
D98AC1B77784ABF1D8FE5FBFBF75BBCE937A534CCEB38643598122B6FEE978D0B0485F9C41B54DDD7D022595594E1A469170414C76A4D9A4D207E29CF43ECE46F218070CC6BECC4078ACAA135ACF422C856C0E68EA1BF5669944DDD7BCDE7B1F8E415D77AECB980613C2E4AC91FC167A2B244592486606FC29C8FD7F045B9A
310
EF7053A7E60B504B0304140006080800CC70623B1EC5D7A3EB0000007C01000008000000636F72652E786D6C8D90416EC3201045AF82665B6103C6756C6122AB4D4ED00B204C5C94182C03558F5F9C3852BBEB6A467FFE9B197D71FC9E6FE8CBACC17AD7032D0820E3B41FAD9B7A48F1820F808E52ACDEC75F36404ECDA687
310
4D0629A6D5A76597B477D1B89855E747B38B2A041301E95B6E7A08FAD3CCAA50296647B8168BD2573599823EBB0CA76447F43862C7BCCF5EAC59410E4DDD9C7973C2755553CCCFA4C603E3040F1565ED3B1FDE4E432BCA0D9622DAF9795FAF464533826484B498524CD807E51D79ED187F21878E10516EF63F505AC67F42C9
310
BA58B1FDDD071640D2FCC87D2045B96591CB3DA85CB7DCE40F504B0304140006080800CC70623B55019EA25F0000007C00000007000000636E782E786D6C4DCB3B0E80201045D1AD90E915ED2CF8AC45050C11660C8261F98AB1B07AC9C97D42D718D865D3E909258CFD00CCE24AC6E326A164D74DC0B4128928FF32603847
310
2BA13128B1252AC747C6BAB984FC68F0B87FE8960A5C09FE86CFB69FBA01504B0304140006080800CC70623B8C9102E971010000D40300000C0000006662782F636F72652E786D6CC5535B6E833010BC8AE5DF0A6C08340F1947A84D4ED00B38C6A128602363A31CBFCB234A53A551FA553EC09AD9F5CE8C31DB9E9B1AF5CA
310
7695D1198E428A91D2D214952E33ECDD315861B4E5CC1AE3BE9561A445A3323CC098B3D21ADFCE9034DA29ED00D5A6503328BA4E398C640D8B0C77F253352214DE4145770A5B214FA2546114020D759C75CE8200340D19DE981F0F6746269C33EFAB6266AB02A655C74A59CCF365BADC27CB5D902ED22848F6340DF238A141
310
BE88E2F57B92BFEDF23523433367AE6A2EEAA455C2A902F398D2751045018D3FA264435F3771F242571B4A1919CA6F9A7C5B3CD9E42BED16F12C776AEB308F40C848FC700B1139D4891EF410CEC810227CC6846F8386402064270EF5C5C709A05E49676C024C61FC95EA45ED154CA5211D1FF4FB8291A913A68E9B83EBBB33
310
E2A7673CDE118E5AE8124C0807CB8377834E366998436B950D7A7746DAD846D4CFD978E0F04FD455FC5D49D2D4C6FE9722321F10997F0F32DC47FE05504B0304140006080800CC70623BFFEA85907E0000009D0000000B0000006662782F636E782E786D6C4DCCD10A83201886E15B91FFDC95D95A811AB6F23E625948A6C3
310
E9D8E5AF46073BFAE0E1E365ED67B3E8ADC3CB78C7815C7240DA3DFC64DCC221C519D7805AC182F7F1EF06C88D9BE6703008B6049F9E274D7A1E938DBB5AE3D6131B2589BA0D3D965551E0B2EA732C9B9A624AAEB41E3A557677029960D9AFB4EF11165F504B0304140006080800CC70623B4FEEA4082C0100001202000031
310
0000006662782F39464131463745442D413632322D343644302D413938332D3331353338454246344243312F636F72652E786D6C8D515B6EC32010BC0AE2AB55850DD871ED0813254D72825EC00192A2C460F1A872FC42ED48ED5F7E00CDCECCCEB26C731F6FE05B39AFADE921293004CA082BB5B9F43086336A21D870E6AC
310
0D7F68109861543DCC30E4ECE26C9C164858139409093556AA051CBC570102714B8F1E7AF1A5C6A11862480C7F2DA6415C878B2A4891CA89C7990F2E050073937C42DE1DB7E4F87ED8A36D4329AA9B3D46DBAEAD504556557BD81DEBDD0761E52CE42C462D17B996298E3E6BE59E35C962CE821E1FF18553435012728A7187
310
0841987E927A8D9B35ADDF70BBC6989599FE4F1427F9A4286A132ABAC49D651EF234CD5CE04CDA78BA3DC2A8FB645D00B9DF8B57E215725C60BCA2A463E54C4CE327C7A65E1C7DB02E7DEFCBF594B864C5CA6CDBD49C957943E9FA5D5FBAF336F90F504B0304140006080800CC70623BAD7543B64E01000033030000300000
310
006662782F39464131463745442D413632322D343644302D413938332D3331353338454246344243312F636E782E786D6CD593CD6EC32010845F0571AD6CE3D48AD20813A9873E410FBD12D82434182C7EAAE6EDBB2424CD25871E7B41D6EC30B3FA84F9E67BB2E40B4234DE8DB46F1925E094D7C6ED479AD3AE5951B2113C
310
789FEE6C943839C1488B4C05DF079FE72A69D8C96C13AAD6B8631503449F83828872B949AC57D26200B826A308D316B4064D6E46FCDA41C05550DC9E483A00797BFD207EFB092A45DE9514C1BBD22178396BD39D891265658C238DEA00936C654E5E433CB65A26D9F6EDB5EBC14EBF49A45CB856E66048291F6939A9A81BB5
310
C8917738143CA680F4AA299D66A042CEB3354A2684DC9D8D178FE0D9B8B41CAAD720F880EE7EF93C0C18769E099ECC04D5A102C8049A8A05632F4DDF376CF1DE0F6BB65C2F8627B65A33C6BB62177CEBBDAD973006829F89F22E814B54F4BC2BE347F8AA8F681390B50FA73F804400B5F542E796F19FF974E7F78DB802FE05
310
E207504B0304140006080800CC70623B16AB87BA640500003C100000340000006662782F39464131463745442D413632322D343644302D413938332D3331353338454246344243312F6F626A656374732E786D6CAD575B6FA33818FD2B887DE6924B3BED8A326A92B68A663B534DD4D13E548A0C38942D60649B369D5FBFC7
310
600890A493BDE42160637FD7F31D7FF63E6FB3D478A55C242CBF3247B66B1A340F5994E4F19559CA8D75611A9F7D8F33263BCB4C232719BD32D5B4E97B316765A1A722BA21652A07B3B7B33F0D11D29C9A46981221AE4C113ED38CD8A4942CA2E2C58E882476BCD9DA23BB5ED8171B73523C0F841684D35CC252CCE79062D4
310
468DFA43D7747CCF51DF7D4FFDEB5593E3AB9CCA9FBEFE241792E4E19EB28198C968BAB8199F5D5A67D3E9C49A9E8F47D6EC76B6B0469F26EEFC7C3EBFBCBEB98462213924694B38DD98FE1D62C393D073EA4FADC5DAF04326852CCF6958F90F0F2B9BB5C48816348F90C7840A68EB78EDF68723159BCEE7891A6B95DDE9D3
310
BCEAEEE8086A6C6F9E5D4B59F0175C10A7A0820BAA5055C7473B5AE3CFDD452D602CD5DF12616444529E90D448938013FE6EFA58AA96F85E4F8C42275708571E98FE6827AF6B2B4AE3D7D83D64E5A64C53054DD3AF90BD06FEA9149565C94FCA0F6B834DC85599E4F2423B24DF0B6AFA979E534DFA9E7A4CC6FA631D486393
310
921829879BF5D781A373557BCB85E97FB90DB62B558F8795179C15944B051F40AB495CF35451D26A4727654E6D8033BD98EF82F21D91FF8AF2DD9982BCF1643BDD4EB516C9492E368C67C88DED563FC36D5EACF66DFF057C3658BDBFA69DF9578B3DA735B64F18C7F20770A9D45CFCF7FCF563D6456A277DBEF78A02637CA2
310
43B90A490AEAB94F72244481D24819A6C0E59B606BFA4B3025981DBB48EAB701D97BF19C577CC77F2D1B6C55A9EF3C732474C0B727303F625995056C3B02963D9EAC146BE78EC5FCEC7FA999EBC5EACBAAE41B12D27B4D2C0BBA49F244E2ECDC81B76B502F113D8F5EE8FB1BE3111CDD4FC2AA9B844CAB1288B68AB90A7CDC
310
1C166AB0D3DC5310625FCC14E779BFD0709F8890A629C9292B1B2DED31A4B0DA928CEE135085754027E3018A397D4D5427D15BD1330B677DC8934285AC3DF45A9EB68FF8F2B8FC0A509AFEECFD0FF2DE25CC6047F7214B195F07EFEB9A094D800F7BFAE8FED187B78EA8A3A400F115961BCAD1215E47C966530AF0EE8128FE
310
58CEBB996A8964FFA529A046635D9353B0336A8F700DDF46271A024E70B0B37C9DE01847591E54DED53D54202AB947E4076556AC49C6CA5C9E1226B7F1A7B1BE15DEED62C41B91E1B3E9AFAAA735036547343A925075041DF0A9979E893B391F8FCFA6967B3EFB644DCF6E5CEBFAE272625DCC6FAF3FB93793C5F90CE1EF57
310
407342756B10D1C489E8953CD1617E5CEECAD6F4EF8914CE5D5D504E5C3F1F9736DA62CFC11E00BCDDB8CC8A9466349744C1F75EBDA4DF09BA8A9E8C7A7E9991989E20E5DBDD6A6003664ED8F7A04A8DBE0DF6EAD9B9AA858342E47399053949D2C146EDB85DE4B176BB0965FBAC19BD19AA918E27FA50C1D22402E144464C
310
59462568E704B6E71915404CB72B8FF4EDE184DDAF753F284990D2C6926782963815403548A70C657FDEF80D2D9CEAA2AE4C1C76F60BFE74219A06527D6582DF6412526107381E55E353090704D085B52408D0933C4ED159D79BDA71BB4BC506F4831350EB6F979CD22D69BF7AC49B91A2C0A9DDA3D5CA36AD20FC478E37E6
310
1844E2352865EBCB6EA275A652E3836BE04EFB400BF1A2556F515F1FBB35B2AB35BD889C744FFA1004B5544B121E57F70215746DD2F5E2C1412B602CBF19455AC6C8E5E9922C4E01E65215385004546899059180EAFCF7A707CE7017CD8CDB0410789AB32C63B91E5CEBBBACB17AC6CD347A022D5075FD106377347AAABA7E
310
7D11590744509B44E205134DC1290F06580320F78E537D3D73540E06CB970B431F185308AD40BBD794D6D77003C5A36E8EAA54BA64597CD8F83BD552A080A365F7FF06504B0304140006080000CC70623B000000000000000000000000350000006662782F39464131463745442D413632322D343644302D413938332D3331
310
353338454246344243312F76657274696365732E62696E504B0304140006080800CC70623BF270F1330600000004000000360000006662782F39464131463745442D413632322D343644302D413938332D3331353338454246344243312F747269616E676C65732E62696E636660600000504B0304140006080000CC70623B
310
000000000000000000000000370000006662782F39464131463745442D413632322D343644302D413938332D3331353338454246344243312F617474726962757465732E62696E504B0304140006080800CC70623B08DA0BD19000000041010000360000006662782F39464131463745442D413632322D343644302D413938
310
332D3331353338454246344243312F6469726563746F72792E786D6C858F410AC3201045AF22B36F53E9A60B35CBEEBAE80D244E44489C6234F4F835464A48035D0DF398FF9F8AF63D0E6CC63039F212F8F9020C7D47C6792B21C5FE7403D62A1188E2E60C98D7234A5830286103A55745067B9D86B8A3CF9C7F90C11DE607
310
FB144396D7B6A82D282E9A152AD114D5EF2CB866EEE831B8EEA07A7BB5A8D7D61A2BAAEB7FD5F70921FF497D00504B0304140006080800CC70623B0D6EF93BFE000000A00100003B0000006662782F39464131463745442D413632322D343644302D413938332D3331353338454246344243312F7265736F75726365732F63
310
6F72652E786D6C8D50596E833010BD0A9ADFCA60B334011947A8694ED00B586642AC041B79A97AFC9A40A5F6AF3F33A3B7689E1E3F7DCD8FEC139DD7D6F4C0720A191A65476DA61E62B892236427C19DB5E1970C322367EC618541F0C9D9B8EC90B226A009093576C41D94DE63804C3DD2D18357379C652E63480A7FCF17A9
310
EE72C29CE5894E3AC17D702940B63D59270887DE46A7D0F36263058F518FBB468FE9A7BE6A7420864373B8D4873369AA8691FA421B3294352543C5CAF65C0F6FEF43CB8BD52C78D0F34F46E550061C419494B6843142CB0F5677F4B52BEB177AEC28E5C52AFF638ACBF84F53D42654E51E77B379102C05791282176B5F693D
310
CB4C7BED567C03504B010214000A0000080000CC70623B3DEE336E79000000790000001B00000000000000000000000000000000006175746F6465736B2D64657369676E2D7061636B6167652E786D6C504B01021400140006080800CC70623BD486FD9CA0000000F40000001300000000000000000000000000B20000005B
310
436F6E74656E745F54797065735D2E786D6C504B01021400140006080800CC70623B1EC5D7A3EB0000007C010000080000000000000000000000000083010000636F72652E786D6C504B01021400140006080800CC70623B55019EA25F0000007C000000070000000000000000000000000094020000636E782E786D6C504B
310
01021400140006080800CC70623B8C9102E971010000D40300000C00000000000000000000000000180300006662782F636F72652E786D6C504B01021400140006080800CC70623BFFEA85907E0000009D0000000B00000000000000000000000000B30400006662782F636E782E786D6C504B01021400140006080800CC70
310
623B4FEEA4082C0100001202000031000000000000000000000000005A0500006662782F39464131463745442D413632322D343644302D413938332D3331353338454246344243312F636F72652E786D6C504B01021400140006080800CC70623BAD7543B64E010000330300003000000000000000000000000000D5060000
310
6662782F39464131463745442D413632322D343644302D413938332D3331353338454246344243312F636E782E786D6C504B01021400140006080800CC70623B16AB87BA640500003C1000003400000000000000000000000000710800006662782F39464131463745442D413632322D343644302D413938332D3331353338
310
454246344243312F6F626A656374732E786D6C504B01021400140006080000CC70623B0000000000000000000000003500000000000000000000000000270E00006662782F39464131463745442D413632322D343644302D413938332D3331353338454246344243312F76657274696365732E62696E504B01021400140006
310
080800CC70623BF270F133060000000400000036000000000000000000000000007A0E00006662782F39464131463745442D413632322D343644302D413938332D3331353338454246344243312F747269616E676C65732E62696E504B01021400140006080000CC70623B0000000000000000000000003700000000000000
310
000000000000D40E00006662782F39464131463745442D413632322D343644302D413938332D3331353338454246344243312F617474726962757465732E62696E504B01021400140006080800CC70623B08DA0BD190000000410100003600000000000000000000000000290F00006662782F39464131463745442D413632
310
322D343644302D413938332D3331353338454246344243312F6469726563746F72792E786D6C504B01021400140006080800CC70623B0D6EF93BFE000000A00100003B000000000000000000000000000D1000006662782F39464131463745442D413632322D343644302D413938332D3331353338454246344243312F7265
310
736F75726365732F636F72652E786D6C504B0506000000000E000E0080040000641100000000
  0
XRECORD
  5
BE20
102
{ACAD_REACTORS
330
173
102
}
330
173
100
AcDbXrecord
280
     1
102
MATERIAL
148
0.0
149
0.0
149
0.0
 93
        0
 94
       63
282
     0
 72
     1
 77
     1
171
     1
175
     1
179
     1
273
     0
  0
XRECORD
  5
175
102
{ACAD_REACTORS
330
173
102
}
330
173
100
AcDbXrecord
280
     1
270
     1
271
     1
  0
XRECORD
  5
174
102
{ACAD_REACTORS
330
173
102
}
330
173
100
AcDbXrecord
280
     1
270
     1
271
     1
  0
XRECORD
  5
1FB
102
{ACAD_REACTORS
330
173
102
}
330
173
100
AcDbXrecord
280
     1
 70
     0
 90
1673772943
  1
ECE7A1D2-D628-4531-984C-D00F80459256
310
504B03040A0000080000CC70623B3DEE336E79000000790000001B0000006175746F6465736B2D64657369676E2D7061636B6167652E786D6C3C3F786D6C2076657273696F6E3D22312E302220656E636F64696E673D227574662D3822203F3E3C666F726D6174733E3C666F726D61743E687474703A2F2F736368656D612E
310
6175746F6465736B2E636F6D2F64657369676E2D7061636B6167652F323030393C2F666F726D61743E3C2F666F726D6174733E504B0304140006080800CC70623BD486FD9CA0000000F4000000130000005B436F6E74656E745F54797065735D2E786D6C7D8EC10E82300C865F65E91D8A1E8C310C0EEA1BF002731658846E
310
D98AC1B77784ABF1D8FE5FBFBF75BBCE937A534CCEB38643598122B6FEE978D0B0485F9C41B54DDD7D022595594E1A469170414C76A4D9A4D207E29CF43ECE46F218070CC6BECC4078ACAA135ACF422C856C0E68EA1BF5669944DDD7BCDE7B1F8E415D77AECB980613C2E4AC91FC167A2B244592486606FC29C8FD7F045B9A
310
EF7053A7E60B504B0304140006080800CC70623BD9DDAED0EC0000007C01000008000000636F72652E786D6C8D90416EC3201045AF82665B61836D9CD8C2444DD39CA01740405C94182C03558F5F9C3852BBEB6A467FFE9B197D7EF89E6EE8CB2CC17A37002D0820E394D7D68D03A478C17B4007C117EFE32F1B20272733C0
310
2A83E0E3E2D3BC49CABB685CCCAAF3DA6CA20CC14440EA969B0182FA34932C648AD911AEC52CD5558EA6A0CF2EC329598D1E47ACCEFBECC59A050463A7EA5833865FEBDD0E37353BE3EE8DBDE3F6786A48D375FBF6CC78B9C282473B3DEFABC5C86834888A900E538A49F5419B9EB47DD5BC907D4F082F57FB1F28CDFA9F50
310
B22ED6D5F6EE030B20687EE43E10BC5CB3C8E51E54AE6B6EE207504B0304140006080800CC70623B55019EA25F0000007C00000007000000636E782E786D6C4DCB3B0E80201045D1AD90E915ED2CF8AC45050C11660C8261F98AB1B07AC9C97D42D718D865D3E909258CFD00CCE24AC6E326A164D74DC0B4128928FF326038
310
472BA13128B1252AC747C6BAB984FC68F0B87FE8960A5C09FE86CFB69FBA01504B0304140006080800CC70623BA24EB22D72010000D40300000C0000006662782F636F72652E786D6CC5535B6E833010BC8AE5DF0A6C5E49888CA3A6694ED00B38E05014B091B1518EDFE511A5A9D228FD2A1F60CDEC7A67C6986DCE4D8D7A
310
69BA4AAB0C073EC548AA5C17952A33ECECD15B61B4E1CC686DBF9561A44423333CC098B3D268D7CE50AE9595CA02AA74216750749DB418E5352C32DCE59FB211BE70162ABA93DF8AFC244AE9073ED050C759670D0840D390E18DF9F1706664C23973AE2A66B62A605A75ACA4C13C4976E1364A12EF355A2EBD384AF65EFA96
310
BC7B8BED2EA6719AAE16FB8491A199335B351775B991C2CA02F390D2D40B028F861F41BCA68B7518BFD0D59A524686F29B26D7164F36B94AD9289CE54E6D1DE6010819891F6E21228B3AD1831EC219194284CF98F06DD01008846CC5A1BEF83801D4CBDC6A1303536877A57A513B0953A94FC707FDBE6064EA84A9E3E6E0FA
310
EE8CF0E9198F7784A316AA0413C2C2F2E0ECA0934D1AE6D05A69BCDE9E91D2A611F573361E38FC1375157F5752AE6B6DFE4B11990F88CCBF0719EE23FF02504B0304140006080800CC70623B408A7D3B7C0000009D0000000B0000006662782F636E782E786D6C4DCCD10A83201886E15B91FFDC552A92A0064DBC8F581632
310
D3703A76F9ABD1C18E3E78F878E5F0D9027ABBFCF2292AE86E2D20171F69F6715550CB827B40839639A5F2770314A7CD293819B45C73AAFB45B35BA61ACAA1C1C7E7855C58C15BC331339661262CC762340413D68D77DA5B42298546CBE6573AF60CEB2F504B0304140006080800CC70623B449FB9BD290100001202000031
310
0000006662782F36394639363044362D344446342D343946362D394244322D3234314243333846323333332F636F72652E786D6C8D515B6EC32010BC0AE22B55850D98B871848994463E412FE002495162B07854397EA176A4F62F3F2C9A9D991D587EB84F37F0AD7D30CEF6905418026DA553C65E7A98E219ED203808EE9D
310
8B7F6810D871D23D2C3014FCE25D9A57483A1BB58D19B54EE9151C43D0110279CB971E06F9A5A7B11A53CC8C70ADE6515EC78BAE4895DB992778883E0700CB907242D17643D7E2538BD869608875438BBAE38922CAC8F1BDD90DB4691A5E2F42C153326A951B95E398B3D1FE599322163C9AE9115F7A3D46ADA0A018778810
310
84E907617BDCEE297BC5BB3DC6BC2EF47FA234AB2745C9D8D8D035EE220B50105E2F0DC1954B9FB747187D9F9D8FA0CCDB042D5FA0C015C65B42DF78BD10F3F3B363CB56C7109DCFDFBBB97E662ED92EB62D13BC2E1BCAE5777DB9966D8A1F504B0304140006080800CC70623BAD7543B64E01000033030000300000006662
310
782F36394639363044362D344446342D343946362D394244322D3234314243333846323333332F636E782E786D6CD593CD6EC32010845F0571AD6CE3D48AD20813A9873E410FBD12D82434182C7EAAE6EDBB2424CD25871E7B41D6EC30B3FA84F9E67BB2E40B4234DE8DB46F1925E094D7C6ED479AD3AE5951B2113C789FEE
310
6C943839C1488B4C05DF079FE72A69D8C96C13AAD6B8631503449F83828872B949AC57D26200B826A308D316B4064D6E46FCDA41C05550DC9E483A00797BFD207EFB092A45DE9514C1BBD22178396BD39D891265658C238DEA00936C654E5E433CB65A26D9F6EDB5EBC14EBF49A45CB856E66048291F6939A9A81BB5C89177
310
38143CA680F4AA299D66A042CEB3354A2684DC9D8D178FE0D9B8B41CAAD720F880EE7EF93C0C18769E099ECC04D5A102C8049A8A05632F4DDF376CF1DE0F6BB65C2F8627B65A33C6BB62177CEBBDAD973006829F89F22E814B54F4BC2BE347F8AA8F681390B50FA73F804400B5F542E796F19FF974E7F78DB802FE05E20750
310
4B0304140006080800CC70623B8D05915C650500003B100000340000006662782F36394639363044362D344446342D343946362D394244322D3234314243333846323333332F6F626A656374732E786D6CAD575B6FA33814FE2B887D06429276DA1565D4266D158D3A339A6846FB502932E050B66023DB74D2FDF5FB190C01
310
9276B2973C046C8ECFF53B17071F77456EBD502133CEAE6CDF9DD81665314F32965ED995DA3A17B6F5310C04E7AA47665B8C14F4CAD6DB7618A48257A5D94AE89654B91AEDDEDDFC61C998326A5B714EA4BCB265FC440BE2924AF184CA6737218AB8E976E7FA6E4338649B0A523E8D98964450A6A029F619B8588D52FE7039
310
B1BD30F0F4F730D0FF866AF6369557DB33949F31A9088B0F848DD8CCFCF9F2767A76E99CCDE733677E3EF59D9BBB9BA5E37F984D16E78BC5E5F5ED25044B25C0C96822E8D60EEFE11B91C581D77CEA34368A1F5329E68CD1B8B61F16D63A1B8E092D294B10C78C4A48EB593D192E7DED9BDEE7995E1B91FDEDD3ACEA9FE831
310
6A756F9F7D4D79F4274C90A7A04248AA51D5F8C718DAE06FB2F75AC4796EBE65D22A88A22223B995679120E2D50E41AA49C260C046A35368846B0BECD0DFF3EBEB8AD4F835768F69B9ADF25C43D30E6B646F807FAA64AD59F61715C7A54127C4AACA98BA3006A9D792DAE165E0D59B61A01FB3A9F9D838D2DAE62445C86166
310
F37564E842E7DE6A69879FEEA2DD5AE7E371E1A5E025154AC307D06A03D73EB5978C58FFA4C8E9033066E0F3BD53BEC1F39F91BE7B55103791EDE6BBB991A2046172CB4581D8B893FA674DDA17A77B3B7C413D1B511FD2743BFF8A38F03A658705E3ADF8015C3A3417FF3D7E439FF591DA0B5F18BC20C1B8981957AE6392A3
310
F43C640C01D1A0B4728E2DD4F26DB4B3C3152A252A3B4E913CEC1C72F012782FF88EFF8637AA552DBEF76408E8A8DE9E50F9E1CB3A2DA0DB1B6039A893B56063DC5B3E3FFB5F72E67AB9FEB4AEC496C4F4C1149625DD662C53E89D7BF0F6151A046260D1337DFDC94502430F83B0EE07A130A224BCAD7DAE1D9FB6CD422FF6
310
920702629C4BB9AE79C12F243C6432A6794E18E5552BA56B431AAB5D91317302B2B071E86C3A42B1A02F999E24061403B5D0EB639195DA655DD3EBEAB4FB862DDF579F014AD0E73C22F99E28DA57FB98E75C6CA2D74D53086D600F4786E0FE3144B771A8A7B900F03594DB8A633CBC49B2EDB69228BB479CF863B5E807AAAB
310
23872F6DFEB4129B949CA33823F58830E86D65621E10047D9DB34D862E8EAC3C2ABC2F7B2C40D67CDFE01F5545B92105AF983AC54D93D69E56FB8E797F88913F898A9FEC705D3F9D1B54EC8426FB500D40A03BD0119B06E1B95DDC7EB8F6975367793EBD70E66733DFB9BC982F9CE564727731999F5D4ECFCE3B8D6A4DC2A0
310
6D50FD148437D110834A64C6CDDF57FBACB5C307A2A477DFE4939736CFEF2B175371E0E10CF0DD1D5C15654E0BCA14D1E87DD02FF93782A162C0A3D95F1524A52770F972BF1EE9809D13CE7DD599467F8ECE9ADD85CE85A34CD45355448C64F9E8A031DC2D596ACC6E5DD93D9B82DE2EF5CAF81363A8E47996A0DE24564A79
310
4115AACE09C55E14540231FDA13C319787134EBF34E3A022514E5B4D9E0826E25C02D5805B15ABE1BEF51B26383D445DD9E875EE33FE4C22DA16427D65A3BCA92CA6D28DD01DF5DC53330704308475351050232CCD31583787BA75774AFB06E5070DD0C8EF484E19968C5D83BA5B90B244D31E54D55A372320FE4786B7EA58
310
44E135AA5467CB7EA333A61683CC6A8C3257034C10CF46F40EF9F5BE59BE5BD30C3C72D235E95D10345C1D45445A5F0BB47E46A5EBE5570F9380B5FA629579952296A773720405982B9DE04011506178964401AA8BDF1FBF0A8EAB6861DD6580C0E38217056766716DAEB2D6FA0917D3E4116581EADB879C4E7CFFB11EFACD
310
3D641311495D92C8676CB409A72D18610D803CE8A626049E8EC1887CB5B44CC39883690DDA8399B4B9855B481E7D71D4A9D22F96E5BB73BF5793020C02137BF837504B0304140006080000CC70623B000000000000000000000000350000006662782F36394639363044362D344446342D343946362D394244322D32343142
310
43333846323333332F76657274696365732E62696E504B0304140006080800CC70623BF270F1330600000004000000360000006662782F36394639363044362D344446342D343946362D394244322D3234314243333846323333332F747269616E676C65732E62696E636660600000504B0304140006080000CC70623B0000
310
00000000000000000000370000006662782F36394639363044362D344446342D343946362D394244322D3234314243333846323333332F617474726962757465732E62696E504B0304140006080800CC70623B08DA0BD19000000041010000360000006662782F36394639363044362D344446342D343946362D394244322D
310
3234314243333846323333332F6469726563746F72792E786D6C858F410AC3201045AF22B36F53E9A60B35CBEEBAE80D244E44489C6234F4F835464A48035D0DF398FF9F8AF63D0E6CC63039F212F8F9020C7D47C6792B21C5FE7403D62A1188E2E60C98D7234A5830286103A55745067B9D86B8A3CF9C7F90C11DE607FB14
310
4396D7B6A82D282E9A152AD114D5EF2CB866EEE831B8EEA07A7BB5A8D7D61A2BAAEB7FD5F70921FF497D00504B0304140006080800CC70623BCA768048FE000000A00100003B0000006662782F36394639363044362D344446342D343946362D394244322D3234314243333846323333332F7265736F75726365732F636F72
310
652E786D6C8D50596E833010BD0A9ADFCA60D600328E9AA639412F609909B1126CE4A5EAF16B0295DABFFECC8CDEA2797AECF8353F924FB44E193D409E5248504B332A3D0D10FC95B4901C39B3C6F85F3248B49871801506CE266BC2B243D2688FDA47549B11775038871E12F988C7004EDE7016A9083E2ADC3D5D84BC8B09
310
D33C8D74D471E6BC8D0192EDC93A815B742658898E651BCB59086ADC356A8C3FD555A1055ED7E7E254D615792D0F075295F585746FF53B694EE78A565DD736979A65AB9933AFE69F8CD2A2F038022F28ED489E135A7CE4554F9BBEA85E68DB53CAB255FEC71496F19FA6A0B42F8B3DEE6673C0F318E4497096AD7DC5F52C33
310
EEB55BFE0D504B010214000A0000080000CC70623B3DEE336E79000000790000001B00000000000000000000000000000000006175746F6465736B2D64657369676E2D7061636B6167652E786D6C504B01021400140006080800CC70623BD486FD9CA0000000F40000001300000000000000000000000000B20000005B436F
310
6E74656E745F54797065735D2E786D6C504B01021400140006080800CC70623BD9DDAED0EC0000007C010000080000000000000000000000000083010000636F72652E786D6C504B01021400140006080800CC70623B55019EA25F0000007C000000070000000000000000000000000095020000636E782E786D6C504B0102
310
1400140006080800CC70623BA24EB22D72010000D40300000C00000000000000000000000000190300006662782F636F72652E786D6C504B01021400140006080800CC70623B408A7D3B7C0000009D0000000B00000000000000000000000000B50400006662782F636E782E786D6C504B01021400140006080800CC70623B
310
449FB9BD290100001202000031000000000000000000000000005A0500006662782F36394639363044362D344446342D343946362D394244322D3234314243333846323333332F636F72652E786D6C504B01021400140006080800CC70623BAD7543B64E010000330300003000000000000000000000000000D20600006662
310
782F36394639363044362D344446342D343946362D394244322D3234314243333846323333332F636E782E786D6C504B01021400140006080800CC70623B8D05915C650500003B10000034000000000000000000000000006E0800006662782F36394639363044362D344446342D343946362D394244322D32343142433338
310
46323333332F6F626A656374732E786D6C504B01021400140006080000CC70623B0000000000000000000000003500000000000000000000000000250E00006662782F36394639363044362D344446342D343946362D394244322D3234314243333846323333332F76657274696365732E62696E504B010214001400060808
310
00CC70623BF270F13306000000040000003600000000000000000000000000780E00006662782F36394639363044362D344446342D343946362D394244322D3234314243333846323333332F747269616E676C65732E62696E504B01021400140006080000CC70623B00000000000000000000000037000000000000000000
310
00000000D20E00006662782F36394639363044362D344446342D343946362D394244322D3234314243333846323333332F617474726962757465732E62696E504B01021400140006080800CC70623B08DA0BD190000000410100003600000000000000000000000000270F00006662782F36394639363044362D344446342D
310
343946362D394244322D3234314243333846323333332F6469726563746F72792E786D6C504B01021400140006080800CC70623BCA768048FE000000A00100003B000000000000000000000000000B1000006662782F36394639363044362D344446342D343946362D394244322D3234314243333846323333332F7265736F
310
75726365732F636F72652E786D6C504B0506000000000E000E0080040000621100000000
  0
XRECORD
  5
176
102
{ACAD_REACTORS
330
173
102
}
330
173
100
AcDbXrecord
280
     1
270
     1
271
     1
  0
XRECORD
  5
177
102
{ACAD_REACTORS
330
173
102
}
330
173
100
AcDbXrecord
280
     1
270
     1
271
     1
  0
XRECORD
  5
BE42
102
{ACAD_REACTORS
330
BE41
102
}
330
BE41
100
AcDbXrecord
280
     1
102
ACAD_ROUNDTRIP_2012_MLEADER_STYLE
298
     1
  0
XRECORD
  5
BE54
102
{ACAD_REACTORS
330
BE53
102
}
330
BE53
100
AcDbXrecord
280
     1
102
DISPLAYNAME
  1
Metric50
102
FLAGS
 90
        0
  0
CELLSTYLEMAP
  5
BE14
102
{ACAD_REACTORS
330
162
102
}
330
162
100
AcDbCellStyleMap
 90
        3
300
CELLSTYLE
  1
TABLEFORMAT_BEGIN
 90
        5
170
     1
 91
        0
 92
    32768
 62
   257
 93
        1
300
CONTENTFORMAT
  1
CONTENTFORMAT_BEGIN
 90
        0
 91
        0
 92
      512
 93
        0
300

 40
0.0
140
1.0
 94
        5
 62
     0
340
11
144
6.0
309
CONTENTFORMAT_END
171
     1
301
MARGIN
  1
CELLMARGIN_BEGIN
 40
1.5
 40
1.5
 40
1.5
 40
1.5
 40
4.5
 40
4.5
309
CELLMARGIN_END
 94
        6
 95
        1
302
GRIDFORMAT
  1
GRIDFORMAT_BEGIN
 90
        0
 91
        1
 62
     0
 92
       -2
340
14
 93
        0
 40
1.125
309
GRIDFORMAT_END
 95
        2
302
GRIDFORMAT
  1
GRIDFORMAT_BEGIN
 90
        0
 91
        1
 62
     0
 92
       -2
340
14
 93
        0
 40
1.125
309
GRIDFORMAT_END
 95
        4
302
GRIDFORMAT
  1
GRIDFORMAT_BEGIN
 90
        0
 91
        1
 62
     0
 92
       -2
340
14
 93
        0
 40
1.125
309
GRIDFORMAT_END
 95
        8
302
GRIDFORMAT
  1
GRIDFORMAT_BEGIN
 90
        0
 91
        1
 62
     0
 92
       -2
340
14
 93
        0
 40
1.125
309
GRIDFORMAT_END
 95
       16
302
GRIDFORMAT
  1
GRIDFORMAT_BEGIN
 90
        0
 91
        1
 62
     0
 92
       -2
340
14
 93
        0
 40
1.125
309
GRIDFORMAT_END
 95
       32
302
GRIDFORMAT
  1
GRIDFORMAT_BEGIN
 90
        0
 91
        1
 62
     0
 92
       -2
340
14
 93
        0
 40
1.125
309
GRIDFORMAT_END
309
TABLEFORMAT_END
  1
CELLSTYLE_BEGIN
 90
        1
 91
        1
300
_TITLE
309
CELLSTYLE_END
300
CELLSTYLE
  1
TABLEFORMAT_BEGIN
 90
        5
170
     1
 91
        0
 92
        0
 62
   257
 93
        1
300
CONTENTFORMAT
  1
CONTENTFORMAT_BEGIN
 90
        0
 91
        0
 92
      512
 93
        0
300

 40
0.0
140
1.0
 94
        5
 62
     0
340
11
144
4.5
309
CONTENTFORMAT_END
171
     1
301
MARGIN
  1
CELLMARGIN_BEGIN
 40
1.5
 40
1.5
 40
1.5
 40
1.5
 40
4.5
 40
4.5
309
CELLMARGIN_END
 94
        6
 95
        1
302
GRIDFORMAT
  1
GRIDFORMAT_BEGIN
 90
        0
 91
        1
 62
     0
 92
       -2
340
14
 93
        0
 40
1.125
309
GRIDFORMAT_END
 95
        2
302
GRIDFORMAT
  1
GRIDFORMAT_BEGIN
 90
        0
 91
        1
 62
     0
 92
       -2
340
14
 93
        0
 40
1.125
309
GRIDFORMAT_END
 95
        4
302
GRIDFORMAT
  1
GRIDFORMAT_BEGIN
 90
        0
 91
        1
 62
     0
 92
       -2
340
14
 93
        0
 40
1.125
309
GRIDFORMAT_END
 95
        8
302
GRIDFORMAT
  1
GRIDFORMAT_BEGIN
 90
        0
 91
        1
 62
     0
 92
       -2
340
14
 93
        0
 40
1.125
309
GRIDFORMAT_END
 95
       16
302
GRIDFORMAT
  1
GRIDFORMAT_BEGIN
 90
        0
 91
        1
 62
     0
 92
       -2
340
14
 93
        0
 40
1.125
309
GRIDFORMAT_END
 95
       32
302
GRIDFORMAT
  1
GRIDFORMAT_BEGIN
 90
        0
 91
        1
 62
     0
 92
       -2
340
14
 93
        0
 40
1.125
309
GRIDFORMAT_END
309
TABLEFORMAT_END
  1
CELLSTYLE_BEGIN
 90
        2
 91
        1
300
_HEADER
309
CELLSTYLE_END
300
CELLSTYLE
  1
TABLEFORMAT_BEGIN
 90
        5
170
     1
 91
        0
 92
        0
 62
   257
 93
        1
300
CONTENTFORMAT
  1
CONTENTFORMAT_BEGIN
 90
        0
 91
        0
 92
      512
 93
        0
300

 40
0.0
140
1.0
 94
        2
 62
     0
340
11
144
4.5
309
CONTENTFORMAT_END
171
     1
301
MARGIN
  1
CELLMARGIN_BEGIN
 40
1.5
 40
1.5
 40
1.5
 40
1.5
 40
4.5
 40
4.5
309
CELLMARGIN_END
 94
        6
 95
        1
302
GRIDFORMAT
  1
GRIDFORMAT_BEGIN
 90
        0
 91
        1
 62
     0
 92
       -2
340
14
 93
        0
 40
1.125
309
GRIDFORMAT_END
 95
        2
302
GRIDFORMAT
  1
GRIDFORMAT_BEGIN
 90
        0
 91
        1
 62
     0
 92
       -2
340
14
 93
        0
 40
1.125
309
GRIDFORMAT_END
 95
        4
302
GRIDFORMAT
  1
GRIDFORMAT_BEGIN
 90
        0
 91
        1
 62
     0
 92
       -2
340
14
 93
        0
 40
1.125
309
GRIDFORMAT_END
 95
        8
302
GRIDFORMAT
  1
GRIDFORMAT_BEGIN
 90
        0
 91
        1
 62
     0
 92
       -2
340
14
 93
        0
 40
1.125
309
GRIDFORMAT_END
 95
       16
302
GRIDFORMAT
  1
GRIDFORMAT_BEGIN
 90
        0
 91
        1
 62
     0
 92
       -2
340
14
 93
        0
 40
1.125
309
GRIDFORMAT_END
 95
       32
302
GRIDFORMAT
  1
GRIDFORMAT_BEGIN
 90
        0
 91
        1
 62
     0
 92
       -2
340
14
 93
        0
 40
1.125
309
GRIDFORMAT_END
309
TABLEFORMAT_END
  1
CELLSTYLE_BEGIN
 90
        3
 91
        2
300
_DATA
309
CELLSTYLE_END
  0
XRECORD
  5
BE19
102
{ACAD_REACTORS
330
162
102
}
330
162
100
AcDbXrecord
280
     1
102
ACAD_ROUNDTRIP_PRE2007_TABLESTYLE
 90
      512
 91
        0
  1

 92
      512
 93
        0
  2

 94
      512
 95
        0
  3

  0
XRECORD
  5
BE2C
102
{ACAD_REACTORS
330
BE2B
102
}
330
BE2B
100
AcDbXrecord
280
     1
102
RTVSPost2010Prop28
280
     1
102
RTVSPost2010PropOp28
 70
     1
102
RTVSPost2010Prop29
280
     1
102
RTVSPost2010PropOp29
 70
     1
102
RTVSPost2010Prop30
280
     0
102
RTVSPost2010PropOp30
 70
     1
102
RTVSPost2010Prop31
280
     0
102
RTVSPost2010PropOp31
 70
     1
102
RTVSPost2010Prop32
280
     0
102
RTVSPost2010PropOp32
 70
     1
102
RTVSPost2010Prop33
280
     0
102
RTVSPost2010PropOp33
 70
     1
102
RTVSPost2010Prop34
280
     0
102
RTVSPost2010PropOp34
 70
     1
102
RTVSPost2010Prop35
280
     0
102
RTVSPost2010PropOp35
 70
     1
102
RTVSPost2010Prop36
280
     0
102
RTVSPost2010PropOp36
 70
     1
102
RTVSPost2010Prop37
 90
       50
102
RTVSPost2010PropOp37
 70
     1
102
RTVSPost2010Prop38
140
0.0
102
RTVSPost2010PropOp38
 70
     1
102
RTVSPost2010Prop39
140
1.0
102
RTVSPost2010PropOp39
 70
     1
102
RTVSPost2010Prop40
 90
        0
102
RTVSPost2010PropOp40
 70
     1
102
RTVSPost2010Prop41ColorIndex
 90
       18
102
RTVSPost2010Prop41ColorRGB
 90
        0
102
RTVSPost2010PropOp41
 70
     1
102
RTVSPost2010Prop42
 90
       50
102
RTVSPost2010PropOp42
 70
     1
102
RTVSPost2010Prop43
 90
        3
102
RTVSPost2010PropOp43
 70
     1
102
RTVSPost2010Prop44ColorIndex
 90
        5
102
RTVSPost2010Prop44ColorRGB
 90
      255
102
RTVSPost2010PropOp44
 70
     1
102
RTVSPost2010Prop45
280
     0
102
RTVSPost2010PropOp45
 70
     1
102
RTVSPost2010Prop46
 90
       50
102
RTVSPost2010PropOp46
 70
     1
102
RTVSPost2010Prop47
 90
       50
102
RTVSPost2010PropOp47
 70
     1
102
RTVSPost2010Prop48
 90
       50
102
RTVSPost2010PropOp48
 70
     1
102
RTVSPost2010Prop49
280
     0
102
RTVSPost2010PropOp49
 70
     1
102
RTVSPost2010Prop50
 90
       50
102
RTVSPost2010PropOp50
 70
     1
102
RTVSPost2010Prop51ColorIndex
 90
      256
102
RTVSPost2010Prop51ColorRGB
 90
-16777216
102
RTVSPost2010PropOp51
 70
     0
102
RTVSPost2010Prop52
140
1.0
102
RTVSPost2010PropOp52
 70
     0
102
RTVSPost2010Prop53
 90
        2
102
RTVSPost2010PropOp53
 70
     1
102
RTVSPost2010Prop54
  1
strokes_ogs.tif
102
RTVSPost2010PropOp54
 70
     1
102
RTVSPost2010Prop55
280
     0
102
RTVSPost2010PropOp55
 70
     1
102
RTVSPost2010Prop56
140
1.0
102
RTVSPost2010PropOp56
 70
     1
102
RTVSPost2010Prop57
140
1.0
102
RTVSPost2010PropOp57
 70
     1
102
RTVSPropertyOp0
 70
     1
102
RTVSPropertyOp1
 70
     1
102
RTVSPropertyOp2
 70
     1
102
RTVSPropertyOp3
 70
     1
102
RTVSPropertyOp4
 70
     1
102
RTVSPropertyOp5
 70
     1
102
RTVSPropertyOp6
 70
     1
102
RTVSPropertyOp7
 70
     1
102
RTVSPropertyOp8
 70
     1
102
RTVSPropertyOp9
 70
     1
102
RTVSPropertyOp10
 70
     1
102
RTVSPropertyOp11
 70
     1
102
RTVSPropertyOp12
 70
     1
102
RTVSPropertyOp13
 70
     1
102
RTVSPropertyOp14
 70
     1
102
RTVSPropertyOp15
 70
     1
102
RTVSPropertyOp16
 70
     1
102
RTVSPropertyOp17
 70
     1
102
RTVSPropertyOp18
 70
     1
102
RTVSPropertyOp19
 70
     1
102
RTVSPropertyOp20
 70
     1
102
RTVSPropertyOp21
 70
     1
102
RTVSPropertyOp22
 70
     1
102
RTVSPropertyOp23
 70
     1
102
RTVSPropertyOp24
 70
     1
102
RTVSPropertyOp25
 70
     1
102
RTVSPropertyOp26
 70
     1
102
RTVSPropertyOp27
 70
     1
102
RTVSPropertyOp28
 70
     1
102
RTVSPropertyOp29
 70
     1
102
RTVSPropertyOp30
 70
     1
102
RTVSPropertyOp31
 70
     1
102
RTVSPropertyOp32
 70
     1
102
RTVSPropertyOp33
 70
     1
102
RTVSPropertyOp34
 70
     1
102
RTVSPropertyOp35
 70
     1
102
RTVSPropertyOp36
 70
     1
102
RTVSPropertyOp37
 70
     1
102
RTVSPropertyOp38
 70
     1
102
RTVSPropertyOp39
 70
     1
102
RTVSPropertyOp40
 70
     1
102
RTVSPropertyOp41
 70
     1
102
RTVSPropertyOp42
 70
     1
102
RTVSPropertyOp43
 70
     1
102
RTVSPropertyOp44
 70
     1
102
RTVSPropertyOp45
 70
     1
102
RTVSPropertyOp46
 70
     1
102
RTVSPropertyOp47
 70
     1
102
RTVSPropertyOp48
 70
     1
102
RTVSPropertyOp49
 70
     1
102
RTVSPropertyOp50
 70
     1
102
RTVSPropertyOp51
 70
     0
102
RTVSPropertyOp52
 70
     0
102
RTVSPropertyOp53
 70
     1
102
RTVSPropertyOp54
 70
     1
102
RTVSPropertyOp55
 70
     1
102
RTVSPropertyOp56
 70
     1
102
RTVSPropertyOp57
 70
     1
102
RTVSPropertyOp58
 70
     1
102
RTVSPropertyOp59
 70
     1
102
RTVSPropertyOp60
 70
     1
102
RTVSPropertyOp61
 70
     1
102
RTVSPropertyOp62
 70
     1
  0
XRECORD
  5
BE2A
102
{ACAD_REACTORS
330
BE29
102
}
330
BE29
100
AcDbXrecord
280
     1
102
RTVSPost2010Prop28
280
     0
102
RTVSPost2010PropOp28
 70
     1
102
RTVSPost2010Prop29
280
     1
102
RTVSPost2010PropOp29
 70
     1
102
RTVSPost2010Prop30
280
     1
102
RTVSPost2010PropOp30
 70
     1
102
RTVSPost2010Prop31
280
     0
102
RTVSPost2010PropOp31
 70
     1
102
RTVSPost2010Prop32
280
     0
102
RTVSPost2010PropOp32
 70
     1
102
RTVSPost2010Prop33
280
     0
102
RTVSPost2010PropOp33
 70
     1
102
RTVSPost2010Prop34
280
     0
102
RTVSPost2010PropOp34
 70
     1
102
RTVSPost2010Prop35
280
     0
102
RTVSPost2010PropOp35
 70
     1
102
RTVSPost2010Prop36
280
     0
102
RTVSPost2010PropOp36
 70
     1
102
RTVSPost2010Prop37
 90
       50
102
RTVSPost2010PropOp37
 70
     1
102
RTVSPost2010Prop38
140
0.0
102
RTVSPost2010PropOp38
 70
     1
102
RTVSPost2010Prop39
140
1.0
102
RTVSPost2010PropOp39
 70
     1
102
RTVSPost2010Prop40
 90
        0
102
RTVSPost2010PropOp40
 70
     1
102
RTVSPost2010Prop41ColorIndex
 90
       18
102
RTVSPost2010Prop41ColorRGB
 90
        0
102
RTVSPost2010PropOp41
 70
     1
102
RTVSPost2010Prop42
 90
       50
102
RTVSPost2010PropOp42
 70
     1
102
RTVSPost2010Prop43
 90
        3
102
RTVSPost2010PropOp43
 70
     1
102
RTVSPost2010Prop44ColorIndex
 90
        5
102
RTVSPost2010Prop44ColorRGB
 90
      255
102
RTVSPost2010PropOp44
 70
     1
102
RTVSPost2010Prop45
280
     0
102
RTVSPost2010PropOp45
 70
     1
102
RTVSPost2010Prop46
 90
       50
102
RTVSPost2010PropOp46
 70
     1
102
RTVSPost2010Prop47
 90
       50
102
RTVSPost2010PropOp47
 70
     1
102
RTVSPost2010Prop48
 90
       50
102
RTVSPost2010PropOp48
 70
     1
102
RTVSPost2010Prop49
280
     0
102
RTVSPost2010PropOp49
 70
     1
102
RTVSPost2010Prop50
 90
       50
102
RTVSPost2010PropOp50
 70
     1
102
RTVSPost2010Prop51ColorIndex
 90
      256
102
RTVSPost2010Prop51ColorRGB
 90
-16777216
102
RTVSPost2010PropOp51
 70
     0
102
RTVSPost2010Prop52
140
1.0
102
RTVSPost2010PropOp52
 70
     0
102
RTVSPost2010Prop53
 90
        2
102
RTVSPost2010PropOp53
 70
     1
102
RTVSPost2010Prop54
  1
strokes_ogs.tif
102
RTVSPost2010PropOp54
 70
     1
102
RTVSPost2010Prop55
280
     0
102
RTVSPost2010PropOp55
 70
     1
102
RTVSPost2010Prop56
140
1.0
102
RTVSPost2010PropOp56
 70
     1
102
RTVSPost2010Prop57
140
1.0
102
RTVSPost2010PropOp57
 70
     1
102
RTVSPropertyOp0
 70
     1
102
RTVSPropertyOp1
 70
     1
102
RTVSPropertyOp2
 70
     1
102
RTVSPropertyOp3
 70
     1
102
RTVSPropertyOp4
 70
     1
102
RTVSPropertyOp5
 70
     1
102
RTVSPropertyOp6
 70
     1
102
RTVSPropertyOp7
 70
     1
102
RTVSPropertyOp8
 70
     1
102
RTVSPropertyOp9
 70
     1
102
RTVSPropertyOp10
 70
     1
102
RTVSPropertyOp11
 70
     1
102
RTVSPropertyOp12
 70
     1
102
RTVSPropertyOp13
 70
     1
102
RTVSPropertyOp14
 70
     1
102
RTVSPropertyOp15
 70
     1
102
RTVSPropertyOp16
 70
     1
102
RTVSPropertyOp17
 70
     1
102
RTVSPropertyOp18
 70
     1
102
RTVSPropertyOp19
 70
     1
102
RTVSPropertyOp20
 70
     1
102
RTVSPropertyOp21
 70
     1
102
RTVSPropertyOp22
 70
     1
102
RTVSPropertyOp23
 70
     1
102
RTVSPropertyOp24
 70
     1
102
RTVSPropertyOp25
 70
     1
102
RTVSPropertyOp26
 70
     1
102
RTVSPropertyOp27
 70
     1
102
RTVSPropertyOp28
 70
     1
102
RTVSPropertyOp29
 70
     1
102
RTVSPropertyOp30
 70
     1
102
RTVSPropertyOp31
 70
     1
102
RTVSPropertyOp32
 70
     1
102
RTVSPropertyOp33
 70
     1
102
RTVSPropertyOp34
 70
     1
102
RTVSPropertyOp35
 70
     1
102
RTVSPropertyOp36
 70
     1
102
RTVSPropertyOp37
 70
     1
102
RTVSPropertyOp38
 70
     1
102
RTVSPropertyOp39
 70
     1
102
RTVSPropertyOp40
 70
     1
102
RTVSPropertyOp41
 70
     1
102
RTVSPropertyOp42
 70
     1
102
RTVSPropertyOp43
 70
     1
102
RTVSPropertyOp44
 70
     1
102
RTVSPropertyOp45
 70
     1
102
RTVSPropertyOp46
 70
     1
102
RTVSPropertyOp47
 70
     1
102
RTVSPropertyOp48
 70
     1
102
RTVSPropertyOp49
 70
     1
102
RTVSPropertyOp50
 70
     1
102
RTVSPropertyOp51
 70
     0
102
RTVSPropertyOp52
 70
     0
102
RTVSPropertyOp53
 70
     1
102
RTVSPropertyOp54
 70
     1
102
RTVSPropertyOp55
 70
     1
102
RTVSPropertyOp56
 70
     1
102
RTVSPropertyOp57
 70
     1
102
RTVSPropertyOp58
 70
     1
102
RTVSPropertyOp59
 70
     1
102
RTVSPropertyOp60
 70
     1
102
RTVSPropertyOp61
 70
     1
102
RTVSPropertyOp62
 70
     1
  0
XRECORD
  5
BE38
102
{ACAD_REACTORS
330
BE37
102
}
330
BE37
100
AcDbXrecord
280
     1
102
RTVSPost2010Prop28
280
     0
102
RTVSPost2010PropOp28
 70
     1
102
RTVSPost2010Prop29
280
     1
102
RTVSPost2010PropOp29
 70
     1
102
RTVSPost2010Prop30
280
     1
102
RTVSPost2010PropOp30
 70
     1
102
RTVSPost2010Prop31
280
     0
102
RTVSPost2010PropOp31
 70
     1
102
RTVSPost2010Prop32
280
     0
102
RTVSPost2010PropOp32
 70
     1
102
RTVSPost2010Prop33
280
     0
102
RTVSPost2010PropOp33
 70
     1
102
RTVSPost2010Prop34
280
     0
102
RTVSPost2010PropOp34
 70
     1
102
RTVSPost2010Prop35
280
     0
102
RTVSPost2010PropOp35
 70
     1
102
RTVSPost2010Prop36
280
     0
102
RTVSPost2010PropOp36
 70
     1
102
RTVSPost2010Prop37
 90
       50
102
RTVSPost2010PropOp37
 70
     1
102
RTVSPost2010Prop38
140
0.0
102
RTVSPost2010PropOp38
 70
     1
102
RTVSPost2010Prop39
140
1.0
102
RTVSPost2010PropOp39
 70
     1
102
RTVSPost2010Prop40
 90
        0
102
RTVSPost2010PropOp40
 70
     1
102
RTVSPost2010Prop41ColorIndex
 90
       18
102
RTVSPost2010Prop41ColorRGB
 90
        0
102
RTVSPost2010PropOp41
 70
     1
102
RTVSPost2010Prop42
 90
       50
102
RTVSPost2010PropOp42
 70
     1
102
RTVSPost2010Prop43
 90
        3
102
RTVSPost2010PropOp43
 70
     1
102
RTVSPost2010Prop44ColorIndex
 90
        5
102
RTVSPost2010Prop44ColorRGB
 90
      255
102
RTVSPost2010PropOp44
 70
     1
102
RTVSPost2010Prop45
280
     0
102
RTVSPost2010PropOp45
 70
     1
102
RTVSPost2010Prop46
 90
       50
102
RTVSPost2010PropOp46
 70
     1
102
RTVSPost2010Prop47
 90
       50
102
RTVSPost2010PropOp47
 70
     1
102
RTVSPost2010Prop48
 90
       50
102
RTVSPost2010PropOp48
 70
     1
102
RTVSPost2010Prop49
280
     0
102
RTVSPost2010PropOp49
 70
     1
102
RTVSPost2010Prop50
 90
       50
102
RTVSPost2010PropOp50
 70
     1
102
RTVSPost2010Prop51ColorIndex
 90
      256
102
RTVSPost2010Prop51ColorRGB
 90
-16777216
102
RTVSPost2010PropOp51
 70
     0
102
RTVSPost2010Prop52
140
1.0
102
RTVSPost2010PropOp52
 70
     0
102
RTVSPost2010Prop53
 90
        2
102
RTVSPost2010PropOp53
 70
     1
102
RTVSPost2010Prop54
  1
strokes_ogs.tif
102
RTVSPost2010PropOp54
 70
     1
102
RTVSPost2010Prop55
280
     0
102
RTVSPost2010PropOp55
 70
     1
102
RTVSPost2010Prop56
140
1.0
102
RTVSPost2010PropOp56
 70
     1
102
RTVSPost2010Prop57
140
1.0
102
RTVSPost2010PropOp57
 70
     1
102
RTVSPropertyOp0
 70
     1
102
RTVSPropertyOp1
 70
     1
102
RTVSPropertyOp2
 70
     1
102
RTVSPropertyOp3
 70
     1
102
RTVSPropertyOp4
 70
     1
102
RTVSPropertyOp5
 70
     1
102
RTVSPropertyOp6
 70
     1
102
RTVSPropertyOp7
 70
     1
102
RTVSPropertyOp8
 70
     1
102
RTVSPropertyOp9
 70
     1
102
RTVSPropertyOp10
 70
     1
102
RTVSPropertyOp11
 70
     1
102
RTVSPropertyOp12
 70
     1
102
RTVSPropertyOp13
 70
     1
102
RTVSPropertyOp14
 70
     1
102
RTVSPropertyOp15
 70
     1
102
RTVSPropertyOp16
 70
     1
102
RTVSPropertyOp17
 70
     1
102
RTVSPropertyOp18
 70
     1
102
RTVSPropertyOp19
 70
     1
102
RTVSPropertyOp20
 70
     1
102
RTVSPropertyOp21
 70
     1
102
RTVSPropertyOp22
 70
     1
102
RTVSPropertyOp23
 70
     1
102
RTVSPropertyOp24
 70
     1
102
RTVSPropertyOp25
 70
     1
102
RTVSPropertyOp26
 70
     1
102
RTVSPropertyOp27
 70
     1
102
RTVSPropertyOp28
 70
     1
102
RTVSPropertyOp29
 70
     1
102
RTVSPropertyOp30
 70
     1
102
RTVSPropertyOp31
 70
     1
102
RTVSPropertyOp32
 70
     1
102
RTVSPropertyOp33
 70
     1
102
RTVSPropertyOp34
 70
     1
102
RTVSPropertyOp35
 70
     1
102
RTVSPropertyOp36
 70
     1
102
RTVSPropertyOp37
 70
     1
102
RTVSPropertyOp38
 70
     1
102
RTVSPropertyOp39
 70
     1
102
RTVSPropertyOp40
 70
     1
102
RTVSPropertyOp41
 70
     1
102
RTVSPropertyOp42
 70
     1
102
RTVSPropertyOp43
 70
     1
102
RTVSPropertyOp44
 70
     1
102
RTVSPropertyOp45
 70
     1
102
RTVSPropertyOp46
 70
     1
102
RTVSPropertyOp47
 70
     1
102
RTVSPropertyOp48
 70
     1
102
RTVSPropertyOp49
 70
     1
102
RTVSPropertyOp50
 70
     1
102
RTVSPropertyOp51
 70
     0
102
RTVSPropertyOp52
 70
     0
102
RTVSPropertyOp53
 70
     1
102
RTVSPropertyOp54
 70
     1
102
RTVSPropertyOp55
 70
     1
102
RTVSPropertyOp56
 70
     1
102
RTVSPropertyOp57
 70
     1
102
RTVSPropertyOp58
 70
     1
102
RTVSPropertyOp59
 70
     1
102
RTVSPropertyOp60
 70
     1
102
RTVSPropertyOp61
 70
     1
102
RTVSPropertyOp62
 70
     1
  0
XRECORD
  5
BE40
102
{ACAD_REACTORS
330
BE3F
102
}
330
BE3F
100
AcDbXrecord
280
     1
102
RTVSPost2010Prop28
280
     0
102
RTVSPost2010PropOp28
 70
     1
102
RTVSPost2010Prop29
280
     1
102
RTVSPost2010PropOp29
 70
     1
102
RTVSPost2010Prop30
280
     1
102
RTVSPost2010PropOp30
 70
     1
102
RTVSPost2010Prop31
280
     0
102
RTVSPost2010PropOp31
 70
     1
102
RTVSPost2010Prop32
280
     0
102
RTVSPost2010PropOp32
 70
     1
102
RTVSPost2010Prop33
280
     0
102
RTVSPost2010PropOp33
 70
     1
102
RTVSPost2010Prop34
280
     0
102
RTVSPost2010PropOp34
 70
     1
102
RTVSPost2010Prop35
280
     0
102
RTVSPost2010PropOp35
 70
     1
102
RTVSPost2010Prop36
280
     0
102
RTVSPost2010PropOp36
 70
     1
102
RTVSPost2010Prop37
 90
       50
102
RTVSPost2010PropOp37
 70
     1
102
RTVSPost2010Prop38
140
0.0
102
RTVSPost2010PropOp38
 70
     1
102
RTVSPost2010Prop39
140
1.0
102
RTVSPost2010PropOp39
 70
     1
102
RTVSPost2010Prop40
 90
        0
102
RTVSPost2010PropOp40
 70
     1
102
RTVSPost2010Prop41ColorIndex
 90
       18
102
RTVSPost2010Prop41ColorRGB
 90
        0
102
RTVSPost2010PropOp41
 70
     1
102
RTVSPost2010Prop42
 90
       50
102
RTVSPost2010PropOp42
 70
     1
102
RTVSPost2010Prop43
 90
        3
102
RTVSPost2010PropOp43
 70
     1
102
RTVSPost2010Prop44ColorIndex
 90
        5
102
RTVSPost2010Prop44ColorRGB
 90
      255
102
RTVSPost2010PropOp44
 70
     1
102
RTVSPost2010Prop45
280
     0
102
RTVSPost2010PropOp45
 70
     1
102
RTVSPost2010Prop46
 90
       50
102
RTVSPost2010PropOp46
 70
     1
102
RTVSPost2010Prop47
 90
       50
102
RTVSPost2010PropOp47
 70
     1
102
RTVSPost2010Prop48
 90
       50
102
RTVSPost2010PropOp48
 70
     1
102
RTVSPost2010Prop49
280
     0
102
RTVSPost2010PropOp49
 70
     1
102
RTVSPost2010Prop50
 90
       50
102
RTVSPost2010PropOp50
 70
     1
102
RTVSPost2010Prop51ColorIndex
 90
      256
102
RTVSPost2010Prop51ColorRGB
 90
-16777216
102
RTVSPost2010PropOp51
 70
     0
102
RTVSPost2010Prop52
140
1.0
102
RTVSPost2010PropOp52
 70
     0
102
RTVSPost2010Prop53
 90
        2
102
RTVSPost2010PropOp53
 70
     1
102
RTVSPost2010Prop54
  1
strokes_ogs.tif
102
RTVSPost2010PropOp54
 70
     1
102
RTVSPost2010Prop55
280
     0
102
RTVSPost2010PropOp55
 70
     1
102
RTVSPost2010Prop56
140
1.0
102
RTVSPost2010PropOp56
 70
     1
102
RTVSPost2010Prop57
140
1.0
102
RTVSPost2010PropOp57
 70
     1
102
RTVSPropertyOp0
 70
     1
102
RTVSPropertyOp1
 70
     1
102
RTVSPropertyOp2
 70
     1
102
RTVSPropertyOp3
 70
     1
102
RTVSPropertyOp4
 70
     1
102
RTVSPropertyOp5
 70
     1
102
RTVSPropertyOp6
 70
     1
102
RTVSPropertyOp7
 70
     1
102
RTVSPropertyOp8
 70
     1
102
RTVSPropertyOp9
 70
     1
102
RTVSPropertyOp10
 70
     1
102
RTVSPropertyOp11
 70
     1
102
RTVSPropertyOp12
 70
     1
102
RTVSPropertyOp13
 70
     1
102
RTVSPropertyOp14
 70
     1
102
RTVSPropertyOp15
 70
     1
102
RTVSPropertyOp16
 70
     1
102
RTVSPropertyOp17
 70
     1
102
RTVSPropertyOp18
 70
     1
102
RTVSPropertyOp19
 70
     1
102
RTVSPropertyOp20
 70
     1
102
RTVSPropertyOp21
 70
     1
102
RTVSPropertyOp22
 70
     1
102
RTVSPropertyOp23
 70
     1
102
RTVSPropertyOp24
 70
     1
102
RTVSPropertyOp25
 70
     1
102
RTVSPropertyOp26
 70
     1
102
RTVSPropertyOp27
 70
     1
102
RTVSPropertyOp28
 70
     1
102
RTVSPropertyOp29
 70
     1
102
RTVSPropertyOp30
 70
     1
102
RTVSPropertyOp31
 70
     1
102
RTVSPropertyOp32
 70
     1
102
RTVSPropertyOp33
 70
     1
102
RTVSPropertyOp34
 70
     1
102
RTVSPropertyOp35
 70
     1
102
RTVSPropertyOp36
 70
     1
102
RTVSPropertyOp37
 70
     1
102
RTVSPropertyOp38
 70
     1
102
RTVSPropertyOp39
 70
     1
102
RTVSPropertyOp40
 70
     1
102
RTVSPropertyOp41
 70
     1
102
RTVSPropertyOp42
 70
     1
102
RTVSPropertyOp43
 70
     1
102
RTVSPropertyOp44
 70
     1
102
RTVSPropertyOp45
 70
     1
102
RTVSPropertyOp46
 70
     1
102
RTVSPropertyOp47
 70
     1
102
RTVSPropertyOp48
 70
     1
102
RTVSPropertyOp49
 70
     1
102
RTVSPropertyOp50
 70
     1
102
RTVSPropertyOp51
 70
     0
102
RTVSPropertyOp52
 70
     0
102
RTVSPropertyOp53
 70
     1
102
RTVSPropertyOp54
 70
     1
102
RTVSPropertyOp55
 70
     1
102
RTVSPropertyOp56
 70
     1
102
RTVSPropertyOp57
 70
     1
102
RTVSPropertyOp58
 70
     1
102
RTVSPropertyOp59
 70
     1
102
RTVSPropertyOp60
 70
     1
102
RTVSPropertyOp61
 70
     1
102
RTVSPropertyOp62
 70
     1
  0
XRECORD
  5
BE32
102
{ACAD_REACTORS
330
BE31
102
}
330
BE31
100
AcDbXrecord
280
     1
102
RTVSPost2010Prop28
280
     0
102
RTVSPost2010PropOp28
 70
     1
102
RTVSPost2010Prop29
280
     1
102
RTVSPost2010PropOp29
 70
     1
102
RTVSPost2010Prop30
280
     1
102
RTVSPost2010PropOp30
 70
     1
102
RTVSPost2010Prop31
280
     0
102
RTVSPost2010PropOp31
 70
     1
102
RTVSPost2010Prop32
280
     0
102
RTVSPost2010PropOp32
 70
     1
102
RTVSPost2010Prop33
280
     0
102
RTVSPost2010PropOp33
 70
     1
102
RTVSPost2010Prop34
280
     0
102
RTVSPost2010PropOp34
 70
     1
102
RTVSPost2010Prop35
280
     0
102
RTVSPost2010PropOp35
 70
     1
102
RTVSPost2010Prop36
280
     0
102
RTVSPost2010PropOp36
 70
     1
102
RTVSPost2010Prop37
 90
       50
102
RTVSPost2010PropOp37
 70
     1
102
RTVSPost2010Prop38
140
0.0
102
RTVSPost2010PropOp38
 70
     1
102
RTVSPost2010Prop39
140
1.0
102
RTVSPost2010PropOp39
 70
     1
102
RTVSPost2010Prop40
 90
        0
102
RTVSPost2010PropOp40
 70
     1
102
RTVSPost2010Prop41ColorIndex
 90
       18
102
RTVSPost2010Prop41ColorRGB
 90
        0
102
RTVSPost2010PropOp41
 70
     1
102
RTVSPost2010Prop42
 90
       50
102
RTVSPost2010PropOp42
 70
     1
102
RTVSPost2010Prop43
 90
        3
102
RTVSPost2010PropOp43
 70
     1
102
RTVSPost2010Prop44ColorIndex
 90
        5
102
RTVSPost2010Prop44ColorRGB
 90
      255
102
RTVSPost2010PropOp44
 70
     1
102
RTVSPost2010Prop45
280
     0
102
RTVSPost2010PropOp45
 70
     1
102
RTVSPost2010Prop46
 90
       50
102
RTVSPost2010PropOp46
 70
     1
102
RTVSPost2010Prop47
 90
       50
102
RTVSPost2010PropOp47
 70
     1
102
RTVSPost2010Prop48
 90
       50
102
RTVSPost2010PropOp48
 70
     1
102
RTVSPost2010Prop49
280
     0
102
RTVSPost2010PropOp49
 70
     1
102
RTVSPost2010Prop50
 90
       50
102
RTVSPost2010PropOp50
 70
     1
102
RTVSPost2010Prop51ColorIndex
 90
      256
102
RTVSPost2010Prop51ColorRGB
 90
-16777216
102
RTVSPost2010PropOp51
 70
     0
102
RTVSPost2010Prop52
140
1.0
102
RTVSPost2010PropOp52
 70
     0
102
RTVSPost2010Prop53
 90
        2
102
RTVSPost2010PropOp53
 70
     1
102
RTVSPost2010Prop54
  1
strokes_ogs.tif
102
RTVSPost2010PropOp54
 70
     1
102
RTVSPost2010Prop55
280
     0
102
RTVSPost2010PropOp55
 70
     1
102
RTVSPost2010Prop56
140
1.0
102
RTVSPost2010PropOp56
 70
     1
102
RTVSPost2010Prop57
140
1.0
102
RTVSPost2010PropOp57
 70
     1
102
RTVSPropertyOp0
 70
     1
102
RTVSPropertyOp1
 70
     1
102
RTVSPropertyOp2
 70
     1
102
RTVSPropertyOp3
 70
     1
102
RTVSPropertyOp4
 70
     1
102
RTVSPropertyOp5
 70
     1
102
RTVSPropertyOp6
 70
     1
102
RTVSPropertyOp7
 70
     1
102
RTVSPropertyOp8
 70
     1
102
RTVSPropertyOp9
 70
     1
102
RTVSPropertyOp10
 70
     1
102
RTVSPropertyOp11
 70
     1
102
RTVSPropertyOp12
 70
     1
102
RTVSPropertyOp13
 70
     1
102
RTVSPropertyOp14
 70
     1
102
RTVSPropertyOp15
 70
     1
102
RTVSPropertyOp16
 70
     1
102
RTVSPropertyOp17
 70
     1
102
RTVSPropertyOp18
 70
     1
102
RTVSPropertyOp19
 70
     1
102
RTVSPropertyOp20
 70
     1
102
RTVSPropertyOp21
 70
     1
102
RTVSPropertyOp22
 70
     1
102
RTVSPropertyOp23
 70
     1
102
RTVSPropertyOp24
 70
     1
102
RTVSPropertyOp25
 70
     1
102
RTVSPropertyOp26
 70
     1
102
RTVSPropertyOp27
 70
     1
102
RTVSPropertyOp28
 70
     1
102
RTVSPropertyOp29
 70
     1
102
RTVSPropertyOp30
 70
     1
102
RTVSPropertyOp31
 70
     1
102
RTVSPropertyOp32
 70
     1
102
RTVSPropertyOp33
 70
     1
102
RTVSPropertyOp34
 70
     1
102
RTVSPropertyOp35
 70
     1
102
RTVSPropertyOp36
 70
     1
102
RTVSPropertyOp37
 70
     1
102
RTVSPropertyOp38
 70
     1
102
RTVSPropertyOp39
 70
     1
102
RTVSPropertyOp40
 70
     1
102
RTVSPropertyOp41
 70
     1
102
RTVSPropertyOp42
 70
     1
102
RTVSPropertyOp43
 70
     1
102
RTVSPropertyOp44
 70
     1
102
RTVSPropertyOp45
 70
     1
102
RTVSPropertyOp46
 70
     1
102
RTVSPropertyOp47
 70
     1
102
RTVSPropertyOp48
 70
     1
102
RTVSPropertyOp49
 70
     1
102
RTVSPropertyOp50
 70
     1
102
RTVSPropertyOp51
 70
     0
102
RTVSPropertyOp52
 70
     0
102
RTVSPropertyOp53
 70
     1
102
RTVSPropertyOp54
 70
     1
102
RTVSPropertyOp55
 70
     1
102
RTVSPropertyOp56
 70
     1
102
RTVSPropertyOp57
 70
     1
102
RTVSPropertyOp58
 70
     1
102
RTVSPropertyOp59
 70
     1
102
RTVSPropertyOp60
 70
     1
102
RTVSPropertyOp61
 70
     1
102
RTVSPropertyOp62
 70
     1
  0
XRECORD
  5
BE36
102
{ACAD_REACTORS
330
BE35
102
}
330
BE35
100
AcDbXrecord
280
     1
102
RTVSPost2010Prop28
280
     0
102
RTVSPost2010PropOp28
 70
     1
102
RTVSPost2010Prop29
280
     1
102
RTVSPost2010PropOp29
 70
     1
102
RTVSPost2010Prop30
280
     1
102
RTVSPost2010PropOp30
 70
     1
102
RTVSPost2010Prop31
280
     0
102
RTVSPost2010PropOp31
 70
     1
102
RTVSPost2010Prop32
280
     0
102
RTVSPost2010PropOp32
 70
     1
102
RTVSPost2010Prop33
280
     0
102
RTVSPost2010PropOp33
 70
     1
102
RTVSPost2010Prop34
280
     0
102
RTVSPost2010PropOp34
 70
     1
102
RTVSPost2010Prop35
280
     0
102
RTVSPost2010PropOp35
 70
     1
102
RTVSPost2010Prop36
280
     0
102
RTVSPost2010PropOp36
 70
     1
102
RTVSPost2010Prop37
 90
       50
102
RTVSPost2010PropOp37
 70
     1
102
RTVSPost2010Prop38
140
0.0
102
RTVSPost2010PropOp38
 70
     1
102
RTVSPost2010Prop39
140
1.0
102
RTVSPost2010PropOp39
 70
     1
102
RTVSPost2010Prop40
 90
        0
102
RTVSPost2010PropOp40
 70
     1
102
RTVSPost2010Prop41ColorIndex
 90
       18
102
RTVSPost2010Prop41ColorRGB
 90
        0
102
RTVSPost2010PropOp41
 70
     1
102
RTVSPost2010Prop42
 90
       50
102
RTVSPost2010PropOp42
 70
     1
102
RTVSPost2010Prop43
 90
        3
102
RTVSPost2010PropOp43
 70
     1
102
RTVSPost2010Prop44ColorIndex
 90
        5
102
RTVSPost2010Prop44ColorRGB
 90
      255
102
RTVSPost2010PropOp44
 70
     1
102
RTVSPost2010Prop45
280
     0
102
RTVSPost2010PropOp45
 70
     1
102
RTVSPost2010Prop46
 90
       50
102
RTVSPost2010PropOp46
 70
     1
102
RTVSPost2010Prop47
 90
       50
102
RTVSPost2010PropOp47
 70
     1
102
RTVSPost2010Prop48
 90
       50
102
RTVSPost2010PropOp48
 70
     1
102
RTVSPost2010Prop49
280
     0
102
RTVSPost2010PropOp49
 70
     1
102
RTVSPost2010Prop50
 90
       50
102
RTVSPost2010PropOp50
 70
     1
102
RTVSPost2010Prop51ColorIndex
 90
      256
102
RTVSPost2010Prop51ColorRGB
 90
-16777216
102
RTVSPost2010PropOp51
 70
     0
102
RTVSPost2010Prop52
140
1.0
102
RTVSPost2010PropOp52
 70
     0
102
RTVSPost2010Prop53
 90
        2
102
RTVSPost2010PropOp53
 70
     1
102
RTVSPost2010Prop54
  1
strokes_ogs.tif
102
RTVSPost2010PropOp54
 70
     1
102
RTVSPost2010Prop55
280
     0
102
RTVSPost2010PropOp55
 70
     1
102
RTVSPost2010Prop56
140
1.0
102
RTVSPost2010PropOp56
 70
     1
102
RTVSPost2010Prop57
140
1.0
102
RTVSPost2010PropOp57
 70
     1
102
RTVSPropertyOp0
 70
     1
102
RTVSPropertyOp1
 70
     1
102
RTVSPropertyOp2
 70
     1
102
RTVSPropertyOp3
 70
     1
102
RTVSPropertyOp4
 70
     1
102
RTVSPropertyOp5
 70
     1
102
RTVSPropertyOp6
 70
     1
102
RTVSPropertyOp7
 70
     1
102
RTVSPropertyOp8
 70
     1
102
RTVSPropertyOp9
 70
     1
102
RTVSPropertyOp10
 70
     1
102
RTVSPropertyOp11
 70
     1
102
RTVSPropertyOp12
 70
     1
102
RTVSPropertyOp13
 70
     1
102
RTVSPropertyOp14
 70
     1
102
RTVSPropertyOp15
 70
     1
102
RTVSPropertyOp16
 70
     1
102
RTVSPropertyOp17
 70
     1
102
RTVSPropertyOp18
 70
     1
102
RTVSPropertyOp19
 70
     1
102
RTVSPropertyOp20
 70
     1
102
RTVSPropertyOp21
 70
     1
102
RTVSPropertyOp22
 70
     1
102
RTVSPropertyOp23
 70
     1
102
RTVSPropertyOp24
 70
     1
102
RTVSPropertyOp25
 70
     1
102
RTVSPropertyOp26
 70
     1
102
RTVSPropertyOp27
 70
     1
102
RTVSPropertyOp28
 70
     1
102
RTVSPropertyOp29
 70
     1
102
RTVSPropertyOp30
 70
     1
102
RTVSPropertyOp31
 70
     1
102
RTVSPropertyOp32
 70
     1
102
RTVSPropertyOp33
 70
     1
102
RTVSPropertyOp34
 70
     1
102
RTVSPropertyOp35
 70
     1
102
RTVSPropertyOp36
 70
     1
102
RTVSPropertyOp37
 70
     1
102
RTVSPropertyOp38
 70
     1
102
RTVSPropertyOp39
 70
     1
102
RTVSPropertyOp40
 70
     1
102
RTVSPropertyOp41
 70
     1
102
RTVSPropertyOp42
 70
     1
102
RTVSPropertyOp43
 70
     1
102
RTVSPropertyOp44
 70
     1
102
RTVSPropertyOp45
 70
     1
102
RTVSPropertyOp46
 70
     1
102
RTVSPropertyOp47
 70
     1
102
RTVSPropertyOp48
 70
     1
102
RTVSPropertyOp49
 70
     1
102
RTVSPropertyOp50
 70
     1
102
RTVSPropertyOp51
 70
     0
102
RTVSPropertyOp52
 70
     0
102
RTVSPropertyOp53
 70
     1
102
RTVSPropertyOp54
 70
     1
102
RTVSPropertyOp55
 70
     1
102
RTVSPropertyOp56
 70
     1
102
RTVSPropertyOp57
 70
     1
102
RTVSPropertyOp58
 70
     1
102
RTVSPropertyOp59
 70
     1
102
RTVSPropertyOp60
 70
     1
102
RTVSPropertyOp61
 70
     1
102
RTVSPropertyOp62
 70
     1
  0
XRECORD
  5
BE48
102
{ACAD_REACTORS
330
BE47
102
}
330
BE47
100
AcDbXrecord
280
     1
102
RTVSPost2010Prop28
280
     0
102
RTVSPost2010PropOp28
 70
     1
102
RTVSPost2010Prop29
280
     1
102
RTVSPost2010PropOp29
 70
     1
102
RTVSPost2010Prop30
280
     1
102
RTVSPost2010PropOp30
 70
     1
102
RTVSPost2010Prop31
280
     0
102
RTVSPost2010PropOp31
 70
     1
102
RTVSPost2010Prop32
280
     0
102
RTVSPost2010PropOp32
 70
     1
102
RTVSPost2010Prop33
280
     0
102
RTVSPost2010PropOp33
 70
     1
102
RTVSPost2010Prop34
280
     0
102
RTVSPost2010PropOp34
 70
     1
102
RTVSPost2010Prop35
280
     0
102
RTVSPost2010PropOp35
 70
     1
102
RTVSPost2010Prop36
280
     0
102
RTVSPost2010PropOp36
 70
     1
102
RTVSPost2010Prop37
 90
       50
102
RTVSPost2010PropOp37
 70
     1
102
RTVSPost2010Prop38
140
0.0
102
RTVSPost2010PropOp38
 70
     1
102
RTVSPost2010Prop39
140
1.0
102
RTVSPost2010PropOp39
 70
     1
102
RTVSPost2010Prop40
 90
        0
102
RTVSPost2010PropOp40
 70
     1
102
RTVSPost2010Prop41ColorIndex
 90
       18
102
RTVSPost2010Prop41ColorRGB
 90
        0
102
RTVSPost2010PropOp41
 70
     1
102
RTVSPost2010Prop42
 90
       50
102
RTVSPost2010PropOp42
 70
     1
102
RTVSPost2010Prop43
 90
        3
102
RTVSPost2010PropOp43
 70
     1
102
RTVSPost2010Prop44ColorIndex
 90
        5
102
RTVSPost2010Prop44ColorRGB
 90
      255
102
RTVSPost2010PropOp44
 70
     1
102
RTVSPost2010Prop45
280
     0
102
RTVSPost2010PropOp45
 70
     1
102
RTVSPost2010Prop46
 90
       50
102
RTVSPost2010PropOp46
 70
     1
102
RTVSPost2010Prop47
 90
       50
102
RTVSPost2010PropOp47
 70
     1
102
RTVSPost2010Prop48
 90
       50
102
RTVSPost2010PropOp48
 70
     1
102
RTVSPost2010Prop49
280
     0
102
RTVSPost2010PropOp49
 70
     1
102
RTVSPost2010Prop50
 90
       50
102
RTVSPost2010PropOp50
 70
     1
102
RTVSPost2010Prop51ColorIndex
 90
      256
102
RTVSPost2010Prop51ColorRGB
 90
-16777216
102
RTVSPost2010PropOp51
 70
     0
102
RTVSPost2010Prop52
140
1.0
102
RTVSPost2010PropOp52
 70
     0
102
RTVSPost2010Prop53
 90
        2
102
RTVSPost2010PropOp53
 70
     1
102
RTVSPost2010Prop54
  1
strokes_ogs.tif
102
RTVSPost2010PropOp54
 70
     1
102
RTVSPost2010Prop55
280
     0
102
RTVSPost2010PropOp55
 70
     1
102
RTVSPost2010Prop56
140
1.0
102
RTVSPost2010PropOp56
 70
     1
102
RTVSPost2010Prop57
140
1.0
102
RTVSPost2010PropOp57
 70
     1
102
RTVSPropertyOp0
 70
     0
102
RTVSPropertyOp1
 70
     0
102
RTVSPropertyOp2
 70
     0
102
RTVSPropertyOp3
 70
     0
102
RTVSPropertyOp4
 70
     0
102
RTVSPropertyOp5
 70
     0
102
RTVSPropertyOp6
 70
     0
102
RTVSPropertyOp7
 70
     0
102
RTVSPropertyOp8
 70
     0
102
RTVSPropertyOp9
 70
     0
102
RTVSPropertyOp10
 70
     0
102
RTVSPropertyOp11
 70
     0
102
RTVSPropertyOp12
 70
     0
102
RTVSPropertyOp13
 70
     0
102
RTVSPropertyOp14
 70
     2
102
RTVSPropertyOp15
 70
     0
102
RTVSPropertyOp16
 70
     0
102
RTVSPropertyOp17
 70
     0
102
RTVSPropertyOp18
 70
     0
102
RTVSPropertyOp19
 70
     0
102
RTVSPropertyOp20
 70
     0
102
RTVSPropertyOp21
 70
     0
102
RTVSPropertyOp22
 70
     0
102
RTVSPropertyOp23
 70
     0
102
RTVSPropertyOp24
 70
     0
102
RTVSPropertyOp25
 70
     0
102
RTVSPropertyOp26
 70
     0
102
RTVSPropertyOp27
 70
     0
102
RTVSPropertyOp28
 70
     1
102
RTVSPropertyOp29
 70
     1
102
RTVSPropertyOp30
 70
     1
102
RTVSPropertyOp31
 70
     1
102
RTVSPropertyOp32
 70
     1
102
RTVSPropertyOp33
 70
     1
102
RTVSPropertyOp34
 70
     1
102
RTVSPropertyOp35
 70
     1
102
RTVSPropertyOp36
 70
     1
102
RTVSPropertyOp37
 70
     1
102
RTVSPropertyOp38
 70
     1
102
RTVSPropertyOp39
 70
     1
102
RTVSPropertyOp40
 70
     1
102
RTVSPropertyOp41
 70
     1
102
RTVSPropertyOp42
 70
     1
102
RTVSPropertyOp43
 70
     1
102
RTVSPropertyOp44
 70
     1
102
RTVSPropertyOp45
 70
     1
102
RTVSPropertyOp46
 70
     1
102
RTVSPropertyOp47
 70
     1
102
RTVSPropertyOp48
 70
     1
102
RTVSPropertyOp49
 70
     1
102
RTVSPropertyOp50
 70
     1
102
RTVSPropertyOp51
 70
     0
102
RTVSPropertyOp52
 70
     0
102
RTVSPropertyOp53
 70
     1
102
RTVSPropertyOp54
 70
     1
102
RTVSPropertyOp55
 70
     1
102
RTVSPropertyOp56
 70
     1
102
RTVSPropertyOp57
 70
     1
102
RTVSPropertyOp58
 70
     1
102
RTVSPropertyOp59
 70
     1
102
RTVSPropertyOp60
 70
     1
102
RTVSPropertyOp61
 70
     1
102
RTVSPropertyOp62
 70
     1
  0
XRECORD
  5
BE3E
102
{ACAD_REACTORS
330
BE3D
102
}
330
BE3D
100
AcDbXrecord
280
     1
102
RTVSPost2010Prop28
280
     0
102
RTVSPost2010PropOp28
 70
     1
102
RTVSPost2010Prop29
280
     1
102
RTVSPost2010PropOp29
 70
     1
102
RTVSPost2010Prop30
280
     1
102
RTVSPost2010PropOp30
 70
     1
102
RTVSPost2010Prop31
280
     0
102
RTVSPost2010PropOp31
 70
     1
102
RTVSPost2010Prop32
280
     0
102
RTVSPost2010PropOp32
 70
     1
102
RTVSPost2010Prop33
280
     0
102
RTVSPost2010PropOp33
 70
     1
102
RTVSPost2010Prop34
280
     0
102
RTVSPost2010PropOp34
 70
     1
102
RTVSPost2010Prop35
280
     0
102
RTVSPost2010PropOp35
 70
     1
102
RTVSPost2010Prop36
280
     0
102
RTVSPost2010PropOp36
 70
     1
102
RTVSPost2010Prop37
 90
       50
102
RTVSPost2010PropOp37
 70
     1
102
RTVSPost2010Prop38
140
0.0
102
RTVSPost2010PropOp38
 70
     1
102
RTVSPost2010Prop39
140
1.0
102
RTVSPost2010PropOp39
 70
     1
102
RTVSPost2010Prop40
 90
        0
102
RTVSPost2010PropOp40
 70
     1
102
RTVSPost2010Prop41ColorIndex
 90
       18
102
RTVSPost2010Prop41ColorRGB
 90
        0
102
RTVSPost2010PropOp41
 70
     1
102
RTVSPost2010Prop42
 90
       50
102
RTVSPost2010PropOp42
 70
     1
102
RTVSPost2010Prop43
 90
        3
102
RTVSPost2010PropOp43
 70
     1
102
RTVSPost2010Prop44ColorIndex
 90
        5
102
RTVSPost2010Prop44ColorRGB
 90
      255
102
RTVSPost2010PropOp44
 70
     1
102
RTVSPost2010Prop45
280
     0
102
RTVSPost2010PropOp45
 70
     1
102
RTVSPost2010Prop46
 90
       50
102
RTVSPost2010PropOp46
 70
     1
102
RTVSPost2010Prop47
 90
       50
102
RTVSPost2010PropOp47
 70
     1
102
RTVSPost2010Prop48
 90
       50
102
RTVSPost2010PropOp48
 70
     1
102
RTVSPost2010Prop49
280
     0
102
RTVSPost2010PropOp49
 70
     1
102
RTVSPost2010Prop50
 90
       50
102
RTVSPost2010PropOp50
 70
     1
102
RTVSPost2010Prop51ColorIndex
 90
      256
102
RTVSPost2010Prop51ColorRGB
 90
-16777216
102
RTVSPost2010PropOp51
 70
     0
102
RTVSPost2010Prop52
140
1.0
102
RTVSPost2010PropOp52
 70
     0
102
RTVSPost2010Prop53
 90
        2
102
RTVSPost2010PropOp53
 70
     1
102
RTVSPost2010Prop54
  1
strokes_ogs.tif
102
RTVSPost2010PropOp54
 70
     1
102
RTVSPost2010Prop55
280
     0
102
RTVSPost2010PropOp55
 70
     1
102
RTVSPost2010Prop56
140
1.0
102
RTVSPost2010PropOp56
 70
     1
102
RTVSPost2010Prop57
140
1.0
102
RTVSPost2010PropOp57
 70
     1
102
RTVSPropertyOp0
 70
     1
102
RTVSPropertyOp1
 70
     1
102
RTVSPropertyOp2
 70
     1
102
RTVSPropertyOp3
 70
     1
102
RTVSPropertyOp4
 70
     1
102
RTVSPropertyOp5
 70
     1
102
RTVSPropertyOp6
 70
     1
102
RTVSPropertyOp7
 70
     1
102
RTVSPropertyOp8
 70
     1
102
RTVSPropertyOp9
 70
     1
102
RTVSPropertyOp10
 70
     1
102
RTVSPropertyOp11
 70
     1
102
RTVSPropertyOp12
 70
     1
102
RTVSPropertyOp13
 70
     1
102
RTVSPropertyOp14
 70
     1
102
RTVSPropertyOp15
 70
     1
102
RTVSPropertyOp16
 70
     1
102
RTVSPropertyOp17
 70
     1
102
RTVSPropertyOp18
 70
     1
102
RTVSPropertyOp19
 70
     1
102
RTVSPropertyOp20
 70
     1
102
RTVSPropertyOp21
 70
     1
102
RTVSPropertyOp22
 70
     1
102
RTVSPropertyOp23
 70
     1
102
RTVSPropertyOp24
 70
     1
102
RTVSPropertyOp25
 70
     1
102
RTVSPropertyOp26
 70
     1
102
RTVSPropertyOp27
 70
     1
102
RTVSPropertyOp28
 70
     1
102
RTVSPropertyOp29
 70
     1
102
RTVSPropertyOp30
 70
     1
102
RTVSPropertyOp31
 70
     1
102
RTVSPropertyOp32
 70
     1
102
RTVSPropertyOp33
 70
     1
102
RTVSPropertyOp34
 70
     1
102
RTVSPropertyOp35
 70
     1
102
RTVSPropertyOp36
 70
     1
102
RTVSPropertyOp37
 70
     1
102
RTVSPropertyOp38
 70
     1
102
RTVSPropertyOp39
 70
     1
102
RTVSPropertyOp40
 70
     1
102
RTVSPropertyOp41
 70
     1
102
RTVSPropertyOp42
 70
     1
102
RTVSPropertyOp43
 70
     1
102
RTVSPropertyOp44
 70
     1
102
RTVSPropertyOp45
 70
     1
102
RTVSPropertyOp46
 70
     1
102
RTVSPropertyOp47
 70
     1
102
RTVSPropertyOp48
 70
     1
102
RTVSPropertyOp49
 70
     1
102
RTVSPropertyOp50
 70
     1
102
RTVSPropertyOp51
 70
     0
102
RTVSPropertyOp52
 70
     0
102
RTVSPropertyOp53
 70
     1
102
RTVSPropertyOp54
 70
     1
102
RTVSPropertyOp55
 70
     1
102
RTVSPropertyOp56
 70
     1
102
RTVSPropertyOp57
 70
     1
102
RTVSPropertyOp58
 70
     1
102
RTVSPropertyOp59
 70
     1
102
RTVSPropertyOp60
 70
     1
102
RTVSPropertyOp61
 70
     1
102
RTVSPropertyOp62
 70
     1
  0
XRECORD
  5
BE22
102
{ACAD_REACTORS
330
BE21
102
}
330
BE21
100
AcDbXrecord
280
     1
102
RTVSPost2010Prop28
280
     0
102
RTVSPost2010PropOp28
 70
     1
102
RTVSPost2010Prop29
280
     1
102
RTVSPost2010PropOp29
 70
     1
102
RTVSPost2010Prop30
280
     1
102
RTVSPost2010PropOp30
 70
     1
102
RTVSPost2010Prop31
280
     0
102
RTVSPost2010PropOp31
 70
     1
102
RTVSPost2010Prop32
280
     0
102
RTVSPost2010PropOp32
 70
     1
102
RTVSPost2010Prop33
280
     0
102
RTVSPost2010PropOp33
 70
     1
102
RTVSPost2010Prop34
280
     0
102
RTVSPost2010PropOp34
 70
     1
102
RTVSPost2010Prop35
280
     0
102
RTVSPost2010PropOp35
 70
     1
102
RTVSPost2010Prop36
280
     0
102
RTVSPost2010PropOp36
 70
     1
102
RTVSPost2010Prop37
 90
       50
102
RTVSPost2010PropOp37
 70
     1
102
RTVSPost2010Prop38
140
0.0
102
RTVSPost2010PropOp38
 70
     1
102
RTVSPost2010Prop39
140
1.0
102
RTVSPost2010PropOp39
 70
     1
102
RTVSPost2010Prop40
 90
        0
102
RTVSPost2010PropOp40
 70
     1
102
RTVSPost2010Prop41ColorIndex
 90
       18
102
RTVSPost2010Prop41ColorRGB
 90
        0
102
RTVSPost2010PropOp41
 70
     1
102
RTVSPost2010Prop42
 90
       50
102
RTVSPost2010PropOp42
 70
     1
102
RTVSPost2010Prop43
 90
        3
102
RTVSPost2010PropOp43
 70
     1
102
RTVSPost2010Prop44ColorIndex
 90
        5
102
RTVSPost2010Prop44ColorRGB
 90
      255
102
RTVSPost2010PropOp44
 70
     1
102
RTVSPost2010Prop45
280
     0
102
RTVSPost2010PropOp45
 70
     1
102
RTVSPost2010Prop46
 90
       50
102
RTVSPost2010PropOp46
 70
     1
102
RTVSPost2010Prop47
 90
       50
102
RTVSPost2010PropOp47
 70
     1
102
RTVSPost2010Prop48
 90
       50
102
RTVSPost2010PropOp48
 70
     1
102
RTVSPost2010Prop49
280
     0
102
RTVSPost2010PropOp49
 70
     1
102
RTVSPost2010Prop50
 90
       50
102
RTVSPost2010PropOp50
 70
     1
102
RTVSPost2010Prop51ColorIndex
 90
      256
102
RTVSPost2010Prop51ColorRGB
 90
-16777216
102
RTVSPost2010PropOp51
 70
     0
102
RTVSPost2010Prop52
140
1.0
102
RTVSPost2010PropOp52
 70
     0
102
RTVSPost2010Prop53
 90
        2
102
RTVSPost2010PropOp53
 70
     1
102
RTVSPost2010Prop54
  1
strokes_ogs.tif
102
RTVSPost2010PropOp54
 70
     1
102
RTVSPost2010Prop55
280
     0
102
RTVSPost2010PropOp55
 70
     1
102
RTVSPost2010Prop56
140
1.0
102
RTVSPost2010PropOp56
 70
     1
102
RTVSPost2010Prop57
140
1.0
102
RTVSPost2010PropOp57
 70
     1
102
RTVSPropertyOp0
 70
     1
102
RTVSPropertyOp1
 70
     1
102
RTVSPropertyOp2
 70
     1
102
RTVSPropertyOp3
 70
     1
102
RTVSPropertyOp4
 70
     1
102
RTVSPropertyOp5
 70
     1
102
RTVSPropertyOp6
 70
     1
102
RTVSPropertyOp7
 70
     1
102
RTVSPropertyOp8
 70
     1
102
RTVSPropertyOp9
 70
     1
102
RTVSPropertyOp10
 70
     1
102
RTVSPropertyOp11
 70
     1
102
RTVSPropertyOp12
 70
     1
102
RTVSPropertyOp13
 70
     1
102
RTVSPropertyOp14
 70
     1
102
RTVSPropertyOp15
 70
     1
102
RTVSPropertyOp16
 70
     1
102
RTVSPropertyOp17
 70
     1
102
RTVSPropertyOp18
 70
     1
102
RTVSPropertyOp19
 70
     1
102
RTVSPropertyOp20
 70
     1
102
RTVSPropertyOp21
 70
     1
102
RTVSPropertyOp22
 70
     1
102
RTVSPropertyOp23
 70
     1
102
RTVSPropertyOp24
 70
     1
102
RTVSPropertyOp25
 70
     1
102
RTVSPropertyOp26
 70
     1
102
RTVSPropertyOp27
 70
     1
102
RTVSPropertyOp28
 70
     1
102
RTVSPropertyOp29
 70
     1
102
RTVSPropertyOp30
 70
     1
102
RTVSPropertyOp31
 70
     1
102
RTVSPropertyOp32
 70
     1
102
RTVSPropertyOp33
 70
     1
102
RTVSPropertyOp34
 70
     1
102
RTVSPropertyOp35
 70
     1
102
RTVSPropertyOp36
 70
     1
102
RTVSPropertyOp37
 70
     1
102
RTVSPropertyOp38
 70
     1
102
RTVSPropertyOp39
 70
     1
102
RTVSPropertyOp40
 70
     1
102
RTVSPropertyOp41
 70
     1
102
RTVSPropertyOp42
 70
     1
102
RTVSPropertyOp43
 70
     1
102
RTVSPropertyOp44
 70
     1
102
RTVSPropertyOp45
 70
     1
102
RTVSPropertyOp46
 70
     1
102
RTVSPropertyOp47
 70
     1
102
RTVSPropertyOp48
 70
     1
102
RTVSPropertyOp49
 70
     1
102
RTVSPropertyOp50
 70
     1
102
RTVSPropertyOp51
 70
     0
102
RTVSPropertyOp52
 70
     0
102
RTVSPropertyOp53
 70
     1
102
RTVSPropertyOp54
 70
     1
102
RTVSPropertyOp55
 70
     1
102
RTVSPropertyOp56
 70
     1
102
RTVSPropertyOp57
 70
     1
102
RTVSPropertyOp58
 70
     1
102
RTVSPropertyOp59
 70
     1
102
RTVSPropertyOp60
 70
     1
102
RTVSPropertyOp61
 70
     1
102
RTVSPropertyOp62
 70
     1
  0
XRECORD
  5
BE24
102
{ACAD_REACTORS
330
BE23
102
}
330
BE23
100
AcDbXrecord
280
     1
102
RTVSPost2010Prop28
280
     0
102
RTVSPost2010PropOp28
 70
     1
102
RTVSPost2010Prop29
280
     1
102
RTVSPost2010PropOp29
 70
     1
102
RTVSPost2010Prop30
280
     1
102
RTVSPost2010PropOp30
 70
     1
102
RTVSPost2010Prop31
280
     0
102
RTVSPost2010PropOp31
 70
     1
102
RTVSPost2010Prop32
280
     0
102
RTVSPost2010PropOp32
 70
     1
102
RTVSPost2010Prop33
280
     0
102
RTVSPost2010PropOp33
 70
     1
102
RTVSPost2010Prop34
280
     0
102
RTVSPost2010PropOp34
 70
     1
102
RTVSPost2010Prop35
280
     0
102
RTVSPost2010PropOp35
 70
     1
102
RTVSPost2010Prop36
280
     0
102
RTVSPost2010PropOp36
 70
     1
102
RTVSPost2010Prop37
 90
       50
102
RTVSPost2010PropOp37
 70
     1
102
RTVSPost2010Prop38
140
0.0
102
RTVSPost2010PropOp38
 70
     1
102
RTVSPost2010Prop39
140
1.0
102
RTVSPost2010PropOp39
 70
     1
102
RTVSPost2010Prop40
 90
        0
102
RTVSPost2010PropOp40
 70
     1
102
RTVSPost2010Prop41ColorIndex
 90
       18
102
RTVSPost2010Prop41ColorRGB
 90
        0
102
RTVSPost2010PropOp41
 70
     1
102
RTVSPost2010Prop42
 90
       50
102
RTVSPost2010PropOp42
 70
     1
102
RTVSPost2010Prop43
 90
        3
102
RTVSPost2010PropOp43
 70
     1
102
RTVSPost2010Prop44ColorIndex
 90
        5
102
RTVSPost2010Prop44ColorRGB
 90
      255
102
RTVSPost2010PropOp44
 70
     1
102
RTVSPost2010Prop45
280
     0
102
RTVSPost2010PropOp45
 70
     1
102
RTVSPost2010Prop46
 90
       50
102
RTVSPost2010PropOp46
 70
     1
102
RTVSPost2010Prop47
 90
       50
102
RTVSPost2010PropOp47
 70
     1
102
RTVSPost2010Prop48
 90
       50
102
RTVSPost2010PropOp48
 70
     1
102
RTVSPost2010Prop49
280
     0
102
RTVSPost2010PropOp49
 70
     1
102
RTVSPost2010Prop50
 90
       50
102
RTVSPost2010PropOp50
 70
     1
102
RTVSPost2010Prop51ColorIndex
 90
      256
102
RTVSPost2010Prop51ColorRGB
 90
-16777216
102
RTVSPost2010PropOp51
 70
     0
102
RTVSPost2010Prop52
140
1.0
102
RTVSPost2010PropOp52
 70
     0
102
RTVSPost2010Prop53
 90
        2
102
RTVSPost2010PropOp53
 70
     1
102
RTVSPost2010Prop54
  1
strokes_ogs.tif
102
RTVSPost2010PropOp54
 70
     1
102
RTVSPost2010Prop55
280
     0
102
RTVSPost2010PropOp55
 70
     1
102
RTVSPost2010Prop56
140
1.0
102
RTVSPost2010PropOp56
 70
     1
102
RTVSPost2010Prop57
140
1.0
102
RTVSPost2010PropOp57
 70
     1
102
RTVSPropertyOp0
 70
     1
102
RTVSPropertyOp1
 70
     1
102
RTVSPropertyOp2
 70
     1
102
RTVSPropertyOp3
 70
     1
102
RTVSPropertyOp4
 70
     1
102
RTVSPropertyOp5
 70
     1
102
RTVSPropertyOp6
 70
     1
102
RTVSPropertyOp7
 70
     1
102
RTVSPropertyOp8
 70
     1
102
RTVSPropertyOp9
 70
     1
102
RTVSPropertyOp10
 70
     1
102
RTVSPropertyOp11
 70
     1
102
RTVSPropertyOp12
 70
     1
102
RTVSPropertyOp13
 70
     1
102
RTVSPropertyOp14
 70
     1
102
RTVSPropertyOp15
 70
     1
102
RTVSPropertyOp16
 70
     1
102
RTVSPropertyOp17
 70
     1
102
RTVSPropertyOp18
 70
     1
102
RTVSPropertyOp19
 70
     1
102
RTVSPropertyOp20
 70
     1
102
RTVSPropertyOp21
 70
     1
102
RTVSPropertyOp22
 70
     1
102
RTVSPropertyOp23
 70
     1
102
RTVSPropertyOp24
 70
     1
102
RTVSPropertyOp25
 70
     1
102
RTVSPropertyOp26
 70
     1
102
RTVSPropertyOp27
 70
     1
102
RTVSPropertyOp28
 70
     1
102
RTVSPropertyOp29
 70
     1
102
RTVSPropertyOp30
 70
     1
102
RTVSPropertyOp31
 70
     1
102
RTVSPropertyOp32
 70
     1
102
RTVSPropertyOp33
 70
     1
102
RTVSPropertyOp34
 70
     1
102
RTVSPropertyOp35
 70
     1
102
RTVSPropertyOp36
 70
     1
102
RTVSPropertyOp37
 70
     1
102
RTVSPropertyOp38
 70
     1
102
RTVSPropertyOp39
 70
     1
102
RTVSPropertyOp40
 70
     1
102
RTVSPropertyOp41
 70
     1
102
RTVSPropertyOp42
 70
     1
102
RTVSPropertyOp43
 70
     1
102
RTVSPropertyOp44
 70
     1
102
RTVSPropertyOp45
 70
     1
102
RTVSPropertyOp46
 70
     1
102
RTVSPropertyOp47
 70
     1
102
RTVSPropertyOp48
 70
     1
102
RTVSPropertyOp49
 70
     1
102
RTVSPropertyOp50
 70
     1
102
RTVSPropertyOp51
 70
     0
102
RTVSPropertyOp52
 70
     0
102
RTVSPropertyOp53
 70
     1
102
RTVSPropertyOp54
 70
     1
102
RTVSPropertyOp55
 70
     1
102
RTVSPropertyOp56
 70
     1
102
RTVSPropertyOp57
 70
     1
102
RTVSPropertyOp58
 70
     1
102
RTVSPropertyOp59
 70
     1
102
RTVSPropertyOp60
 70
     1
102
RTVSPropertyOp61
 70
     1
102
RTVSPropertyOp62
 70
     1
  0
XRECORD
  5
BE26
102
{ACAD_REACTORS
330
BE25
102
}
330
BE25
100
AcDbXrecord
280
     1
102
RTVSPost2010Prop28
280
     0
102
RTVSPost2010PropOp28
 70
     1
102
RTVSPost2010Prop29
280
     1
102
RTVSPost2010PropOp29
 70
     1
102
RTVSPost2010Prop30
280
     1
102
RTVSPost2010PropOp30
 70
     1
102
RTVSPost2010Prop31
280
     0
102
RTVSPost2010PropOp31
 70
     1
102
RTVSPost2010Prop32
280
     0
102
RTVSPost2010PropOp32
 70
     1
102
RTVSPost2010Prop33
280
     0
102
RTVSPost2010PropOp33
 70
     1
102
RTVSPost2010Prop34
280
     0
102
RTVSPost2010PropOp34
 70
     1
102
RTVSPost2010Prop35
280
     0
102
RTVSPost2010PropOp35
 70
     1
102
RTVSPost2010Prop36
280
     0
102
RTVSPost2010PropOp36
 70
     1
102
RTVSPost2010Prop37
 90
       50
102
RTVSPost2010PropOp37
 70
     1
102
RTVSPost2010Prop38
140
0.0
102
RTVSPost2010PropOp38
 70
     1
102
RTVSPost2010Prop39
140
1.0
102
RTVSPost2010PropOp39
 70
     1
102
RTVSPost2010Prop40
 90
        0
102
RTVSPost2010PropOp40
 70
     1
102
RTVSPost2010Prop41ColorIndex
 90
       18
102
RTVSPost2010Prop41ColorRGB
 90
        0
102
RTVSPost2010PropOp41
 70
     1
102
RTVSPost2010Prop42
 90
       50
102
RTVSPost2010PropOp42
 70
     1
102
RTVSPost2010Prop43
 90
        3
102
RTVSPost2010PropOp43
 70
     1
102
RTVSPost2010Prop44ColorIndex
 90
        5
102
RTVSPost2010Prop44ColorRGB
 90
      255
102
RTVSPost2010PropOp44
 70
     1
102
RTVSPost2010Prop45
280
     0
102
RTVSPost2010PropOp45
 70
     1
102
RTVSPost2010Prop46
 90
       50
102
RTVSPost2010PropOp46
 70
     1
102
RTVSPost2010Prop47
 90
       50
102
RTVSPost2010PropOp47
 70
     1
102
RTVSPost2010Prop48
 90
       50
102
RTVSPost2010PropOp48
 70
     1
102
RTVSPost2010Prop49
280
     0
102
RTVSPost2010PropOp49
 70
     1
102
RTVSPost2010Prop50
 90
       50
102
RTVSPost2010PropOp50
 70
     1
102
RTVSPost2010Prop51ColorIndex
 90
      256
102
RTVSPost2010Prop51ColorRGB
 90
-16777216
102
RTVSPost2010PropOp51
 70
     0
102
RTVSPost2010Prop52
140
1.0
102
RTVSPost2010PropOp52
 70
     0
102
RTVSPost2010Prop53
 90
        2
102
RTVSPost2010PropOp53
 70
     1
102
RTVSPost2010Prop54
  1
strokes_ogs.tif
102
RTVSPost2010PropOp54
 70
     1
102
RTVSPost2010Prop55
280
     0
102
RTVSPost2010PropOp55
 70
     1
102
RTVSPost2010Prop56
140
1.0
102
RTVSPost2010PropOp56
 70
     1
102
RTVSPost2010Prop57
140
1.0
102
RTVSPost2010PropOp57
 70
     1
102
RTVSPropertyOp0
 70
     1
102
RTVSPropertyOp1
 70
     1
102
RTVSPropertyOp2
 70
     1
102
RTVSPropertyOp3
 70
     1
102
RTVSPropertyOp4
 70
     1
102
RTVSPropertyOp5
 70
     1
102
RTVSPropertyOp6
 70
     1
102
RTVSPropertyOp7
 70
     1
102
RTVSPropertyOp8
 70
     1
102
RTVSPropertyOp9
 70
     1
102
RTVSPropertyOp10
 70
     1
102
RTVSPropertyOp11
 70
     1
102
RTVSPropertyOp12
 70
     1
102
RTVSPropertyOp13
 70
     1
102
RTVSPropertyOp14
 70
     1
102
RTVSPropertyOp15
 70
     1
102
RTVSPropertyOp16
 70
     1
102
RTVSPropertyOp17
 70
     1
102
RTVSPropertyOp18
 70
     1
102
RTVSPropertyOp19
 70
     1
102
RTVSPropertyOp20
 70
     1
102
RTVSPropertyOp21
 70
     1
102
RTVSPropertyOp22
 70
     1
102
RTVSPropertyOp23
 70
     1
102
RTVSPropertyOp24
 70
     1
102
RTVSPropertyOp25
 70
     1
102
RTVSPropertyOp26
 70
     1
102
RTVSPropertyOp27
 70
     1
102
RTVSPropertyOp28
 70
     1
102
RTVSPropertyOp29
 70
     1
102
RTVSPropertyOp30
 70
     1
102
RTVSPropertyOp31
 70
     1
102
RTVSPropertyOp32
 70
     1
102
RTVSPropertyOp33
 70
     1
102
RTVSPropertyOp34
 70
     1
102
RTVSPropertyOp35
 70
     1
102
RTVSPropertyOp36
 70
     1
102
RTVSPropertyOp37
 70
     1
102
RTVSPropertyOp38
 70
     1
102
RTVSPropertyOp39
 70
     1
102
RTVSPropertyOp40
 70
     1
102
RTVSPropertyOp41
 70
     1
102
RTVSPropertyOp42
 70
     1
102
RTVSPropertyOp43
 70
     1
102
RTVSPropertyOp44
 70
     1
102
RTVSPropertyOp45
 70
     1
102
RTVSPropertyOp46
 70
     1
102
RTVSPropertyOp47
 70
     1
102
RTVSPropertyOp48
 70
     1
102
RTVSPropertyOp49
 70
     1
102
RTVSPropertyOp50
 70
     1
102
RTVSPropertyOp51
 70
     0
102
RTVSPropertyOp52
 70
     0
102
RTVSPropertyOp53
 70
     1
102
RTVSPropertyOp54
 70
     1
102
RTVSPropertyOp55
 70
     1
102
RTVSPropertyOp56
 70
     1
102
RTVSPropertyOp57
 70
     1
102
RTVSPropertyOp58
 70
     1
102
RTVSPropertyOp59
 70
     1
102
RTVSPropertyOp60
 70
     1
102
RTVSPropertyOp61
 70
     1
102
RTVSPropertyOp62
 70
     1
  0
XRECORD
  5
BE28
102
{ACAD_REACTORS
330
BE27
102
}
330
BE27
100
AcDbXrecord
280
     1
102
RTVSPost2010Prop28
280
     0
102
RTVSPost2010PropOp28
 70
     1
102
RTVSPost2010Prop29
280
     1
102
RTVSPost2010PropOp29
 70
     1
102
RTVSPost2010Prop30
280
     1
102
RTVSPost2010PropOp30
 70
     1
102
RTVSPost2010Prop31
280
     0
102
RTVSPost2010PropOp31
 70
     1
102
RTVSPost2010Prop32
280
     0
102
RTVSPost2010PropOp32
 70
     1
102
RTVSPost2010Prop33
280
     0
102
RTVSPost2010PropOp33
 70
     1
102
RTVSPost2010Prop34
280
     0
102
RTVSPost2010PropOp34
 70
     1
102
RTVSPost2010Prop35
280
     0
102
RTVSPost2010PropOp35
 70
     1
102
RTVSPost2010Prop36
280
     0
102
RTVSPost2010PropOp36
 70
     1
102
RTVSPost2010Prop37
 90
       50
102
RTVSPost2010PropOp37
 70
     1
102
RTVSPost2010Prop38
140
0.0
102
RTVSPost2010PropOp38
 70
     1
102
RTVSPost2010Prop39
140
1.0
102
RTVSPost2010PropOp39
 70
     1
102
RTVSPost2010Prop40
 90
        0
102
RTVSPost2010PropOp40
 70
     1
102
RTVSPost2010Prop41ColorIndex
 90
       18
102
RTVSPost2010Prop41ColorRGB
 90
        0
102
RTVSPost2010PropOp41
 70
     1
102
RTVSPost2010Prop42
 90
       50
102
RTVSPost2010PropOp42
 70
     1
102
RTVSPost2010Prop43
 90
        3
102
RTVSPost2010PropOp43
 70
     1
102
RTVSPost2010Prop44ColorIndex
 90
        5
102
RTVSPost2010Prop44ColorRGB
 90
      255
102
RTVSPost2010PropOp44
 70
     1
102
RTVSPost2010Prop45
280
     0
102
RTVSPost2010PropOp45
 70
     1
102
RTVSPost2010Prop46
 90
       50
102
RTVSPost2010PropOp46
 70
     1
102
RTVSPost2010Prop47
 90
       50
102
RTVSPost2010PropOp47
 70
     1
102
RTVSPost2010Prop48
 90
       50
102
RTVSPost2010PropOp48
 70
     1
102
RTVSPost2010Prop49
280
     0
102
RTVSPost2010PropOp49
 70
     1
102
RTVSPost2010Prop50
 90
       50
102
RTVSPost2010PropOp50
 70
     1
102
RTVSPost2010Prop51ColorIndex
 90
      256
102
RTVSPost2010Prop51ColorRGB
 90
-16777216
102
RTVSPost2010PropOp51
 70
     0
102
RTVSPost2010Prop52
140
1.0
102
RTVSPost2010PropOp52
 70
     0
102
RTVSPost2010Prop53
 90
        2
102
RTVSPost2010PropOp53
 70
     1
102
RTVSPost2010Prop54
  1
strokes_ogs.tif
102
RTVSPost2010PropOp54
 70
     1
102
RTVSPost2010Prop55
280
     0
102
RTVSPost2010PropOp55
 70
     1
102
RTVSPost2010Prop56
140
1.0
102
RTVSPost2010PropOp56
 70
     1
102
RTVSPost2010Prop57
140
1.0
102
RTVSPost2010PropOp57
 70
     1
102
RTVSPropertyOp0
 70
     1
102
RTVSPropertyOp1
 70
     1
102
RTVSPropertyOp2
 70
     1
102
RTVSPropertyOp3
 70
     1
102
RTVSPropertyOp4
 70
     1
102
RTVSPropertyOp5
 70
     1
102
RTVSPropertyOp6
 70
     1
102
RTVSPropertyOp7
 70
     1
102
RTVSPropertyOp8
 70
     1
102
RTVSPropertyOp9
 70
     1
102
RTVSPropertyOp10
 70
     1
102
RTVSPropertyOp11
 70
     1
102
RTVSPropertyOp12
 70
     1
102
RTVSPropertyOp13
 70
     1
102
RTVSPropertyOp14
 70
     1
102
RTVSPropertyOp15
 70
     1
102
RTVSPropertyOp16
 70
     1
102
RTVSPropertyOp17
 70
     1
102
RTVSPropertyOp18
 70
     1
102
RTVSPropertyOp19
 70
     1
102
RTVSPropertyOp20
 70
     1
102
RTVSPropertyOp21
 70
     1
102
RTVSPropertyOp22
 70
     1
102
RTVSPropertyOp23
 70
     1
102
RTVSPropertyOp24
 70
     1
102
RTVSPropertyOp25
 70
     1
102
RTVSPropertyOp26
 70
     1
102
RTVSPropertyOp27
 70
     1
102
RTVSPropertyOp28
 70
     1
102
RTVSPropertyOp29
 70
     1
102
RTVSPropertyOp30
 70
     1
102
RTVSPropertyOp31
 70
     1
102
RTVSPropertyOp32
 70
     1
102
RTVSPropertyOp33
 70
     1
102
RTVSPropertyOp34
 70
     1
102
RTVSPropertyOp35
 70
     1
102
RTVSPropertyOp36
 70
     1
102
RTVSPropertyOp37
 70
     1
102
RTVSPropertyOp38
 70
     1
102
RTVSPropertyOp39
 70
     1
102
RTVSPropertyOp40
 70
     1
102
RTVSPropertyOp41
 70
     1
102
RTVSPropertyOp42
 70
     1
102
RTVSPropertyOp43
 70
     1
102
RTVSPropertyOp44
 70
     1
102
RTVSPropertyOp45
 70
     1
102
RTVSPropertyOp46
 70
     1
102
RTVSPropertyOp47
 70
     1
102
RTVSPropertyOp48
 70
     1
102
RTVSPropertyOp49
 70
     1
102
RTVSPropertyOp50
 70
     1
102
RTVSPropertyOp51
 70
     0
102
RTVSPropertyOp52
 70
     0
102
RTVSPropertyOp53
 70
     1
102
RTVSPropertyOp54
 70
     1
102
RTVSPropertyOp55
 70
     1
102
RTVSPropertyOp56
 70
     1
102
RTVSPropertyOp57
 70
     1
102
RTVSPropertyOp58
 70
     1
102
RTVSPropertyOp59
 70
     1
102
RTVSPropertyOp60
 70
     1
102
RTVSPropertyOp61
 70
     1
102
RTVSPropertyOp62
 70
     1
  0
XRECORD
  5
BE30
102
{ACAD_REACTORS
330
BE2F
102
}
330
BE2F
100
AcDbXrecord
280
     1
102
RTVSPost2010Prop28
280
     0
102
RTVSPost2010PropOp28
 70
     1
102
RTVSPost2010Prop29
280
     1
102
RTVSPost2010PropOp29
 70
     1
102
RTVSPost2010Prop30
280
     1
102
RTVSPost2010PropOp30
 70
     1
102
RTVSPost2010Prop31
280
     0
102
RTVSPost2010PropOp31
 70
     1
102
RTVSPost2010Prop32
280
     0
102
RTVSPost2010PropOp32
 70
     1
102
RTVSPost2010Prop33
280
     0
102
RTVSPost2010PropOp33
 70
     1
102
RTVSPost2010Prop34
280
     0
102
RTVSPost2010PropOp34
 70
     1
102
RTVSPost2010Prop35
280
     0
102
RTVSPost2010PropOp35
 70
     1
102
RTVSPost2010Prop36
280
     0
102
RTVSPost2010PropOp36
 70
     1
102
RTVSPost2010Prop37
 90
       50
102
RTVSPost2010PropOp37
 70
     1
102
RTVSPost2010Prop38
140
0.0
102
RTVSPost2010PropOp38
 70
     1
102
RTVSPost2010Prop39
140
1.0
102
RTVSPost2010PropOp39
 70
     1
102
RTVSPost2010Prop40
 90
        0
102
RTVSPost2010PropOp40
 70
     1
102
RTVSPost2010Prop41ColorIndex
 90
       18
102
RTVSPost2010Prop41ColorRGB
 90
        0
102
RTVSPost2010PropOp41
 70
     1
102
RTVSPost2010Prop42
 90
       50
102
RTVSPost2010PropOp42
 70
     1
102
RTVSPost2010Prop43
 90
        3
102
RTVSPost2010PropOp43
 70
     1
102
RTVSPost2010Prop44ColorIndex
 90
        5
102
RTVSPost2010Prop44ColorRGB
 90
      255
102
RTVSPost2010PropOp44
 70
     1
102
RTVSPost2010Prop45
280
     0
102
RTVSPost2010PropOp45
 70
     1
102
RTVSPost2010Prop46
 90
       50
102
RTVSPost2010PropOp46
 70
     1
102
RTVSPost2010Prop47
 90
       50
102
RTVSPost2010PropOp47
 70
     1
102
RTVSPost2010Prop48
 90
       50
102
RTVSPost2010PropOp48
 70
     1
102
RTVSPost2010Prop49
280
     0
102
RTVSPost2010PropOp49
 70
     1
102
RTVSPost2010Prop50
 90
       50
102
RTVSPost2010PropOp50
 70
     1
102
RTVSPost2010Prop51ColorIndex
 90
      256
102
RTVSPost2010Prop51ColorRGB
 90
-16777216
102
RTVSPost2010PropOp51
 70
     0
102
RTVSPost2010Prop52
140
1.0
102
RTVSPost2010PropOp52
 70
     0
102
RTVSPost2010Prop53
 90
        2
102
RTVSPost2010PropOp53
 70
     1
102
RTVSPost2010Prop54
  1
strokes_ogs.tif
102
RTVSPost2010PropOp54
 70
     1
102
RTVSPost2010Prop55
280
     0
102
RTVSPost2010PropOp55
 70
     1
102
RTVSPost2010Prop56
140
1.0
102
RTVSPost2010PropOp56
 70
     1
102
RTVSPost2010Prop57
140
1.0
102
RTVSPost2010PropOp57
 70
     1
102
RTVSPropertyOp0
 70
     1
102
RTVSPropertyOp1
 70
     1
102
RTVSPropertyOp2
 70
     1
102
RTVSPropertyOp3
 70
     1
102
RTVSPropertyOp4
 70
     1
102
RTVSPropertyOp5
 70
     1
102
RTVSPropertyOp6
 70
     1
102
RTVSPropertyOp7
 70
     1
102
RTVSPropertyOp8
 70
     1
102
RTVSPropertyOp9
 70
     1
102
RTVSPropertyOp10
 70
     1
102
RTVSPropertyOp11
 70
     1
102
RTVSPropertyOp12
 70
     1
102
RTVSPropertyOp13
 70
     1
102
RTVSPropertyOp14
 70
     1
102
RTVSPropertyOp15
 70
     1
102
RTVSPropertyOp16
 70
     1
102
RTVSPropertyOp17
 70
     1
102
RTVSPropertyOp18
 70
     1
102
RTVSPropertyOp19
 70
     1
102
RTVSPropertyOp20
 70
     1
102
RTVSPropertyOp21
 70
     1
102
RTVSPropertyOp22
 70
     1
102
RTVSPropertyOp23
 70
     1
102
RTVSPropertyOp24
 70
     1
102
RTVSPropertyOp25
 70
     1
102
RTVSPropertyOp26
 70
     1
102
RTVSPropertyOp27
 70
     1
102
RTVSPropertyOp28
 70
     1
102
RTVSPropertyOp29
 70
     1
102
RTVSPropertyOp30
 70
     1
102
RTVSPropertyOp31
 70
     1
102
RTVSPropertyOp32
 70
     1
102
RTVSPropertyOp33
 70
     1
102
RTVSPropertyOp34
 70
     1
102
RTVSPropertyOp35
 70
     1
102
RTVSPropertyOp36
 70
     1
102
RTVSPropertyOp37
 70
     1
102
RTVSPropertyOp38
 70
     1
102
RTVSPropertyOp39
 70
     1
102
RTVSPropertyOp40
 70
     1
102
RTVSPropertyOp41
 70
     1
102
RTVSPropertyOp42
 70
     1
102
RTVSPropertyOp43
 70
     1
102
RTVSPropertyOp44
 70
     1
102
RTVSPropertyOp45
 70
     1
102
RTVSPropertyOp46
 70
     1
102
RTVSPropertyOp47
 70
     1
102
RTVSPropertyOp48
 70
     1
102
RTVSPropertyOp49
 70
     1
102
RTVSPropertyOp50
 70
     1
102
RTVSPropertyOp51
 70
     0
102
RTVSPropertyOp52
 70
     0
102
RTVSPropertyOp53
 70
     1
102
RTVSPropertyOp54
 70
     1
102
RTVSPropertyOp55
 70
     1
102
RTVSPropertyOp56
 70
     1
102
RTVSPropertyOp57
 70
     1
102
RTVSPropertyOp58
 70
     1
102
RTVSPropertyOp59
 70
     1
102
RTVSPropertyOp60
 70
     1
102
RTVSPropertyOp61
 70
     1
102
RTVSPropertyOp62
 70
     1
  0
XRECORD
  5
BE44
102
{ACAD_REACTORS
330
BE43
102
}
330
BE43
100
AcDbXrecord
280
     1
102
RTVSPost2010Prop28
280
     0
102
RTVSPost2010PropOp28
 70
     1
102
RTVSPost2010Prop29
280
     1
102
RTVSPost2010PropOp29
 70
     1
102
RTVSPost2010Prop30
280
     1
102
RTVSPost2010PropOp30
 70
     1
102
RTVSPost2010Prop31
280
     0
102
RTVSPost2010PropOp31
 70
     1
102
RTVSPost2010Prop32
280
     0
102
RTVSPost2010PropOp32
 70
     1
102
RTVSPost2010Prop33
280
     0
102
RTVSPost2010PropOp33
 70
     1
102
RTVSPost2010Prop34
280
     0
102
RTVSPost2010PropOp34
 70
     1
102
RTVSPost2010Prop35
280
     0
102
RTVSPost2010PropOp35
 70
     1
102
RTVSPost2010Prop36
280
     0
102
RTVSPost2010PropOp36
 70
     1
102
RTVSPost2010Prop37
 90
       50
102
RTVSPost2010PropOp37
 70
     1
102
RTVSPost2010Prop38
140
0.0
102
RTVSPost2010PropOp38
 70
     1
102
RTVSPost2010Prop39
140
1.0
102
RTVSPost2010PropOp39
 70
     1
102
RTVSPost2010Prop40
 90
        0
102
RTVSPost2010PropOp40
 70
     1
102
RTVSPost2010Prop41ColorIndex
 90
       18
102
RTVSPost2010Prop41ColorRGB
 90
        0
102
RTVSPost2010PropOp41
 70
     1
102
RTVSPost2010Prop42
 90
       50
102
RTVSPost2010PropOp42
 70
     1
102
RTVSPost2010Prop43
 90
        3
102
RTVSPost2010PropOp43
 70
     1
102
RTVSPost2010Prop44ColorIndex
 90
        5
102
RTVSPost2010Prop44ColorRGB
 90
      255
102
RTVSPost2010PropOp44
 70
     1
102
RTVSPost2010Prop45
280
     0
102
RTVSPost2010PropOp45
 70
     1
102
RTVSPost2010Prop46
 90
       50
102
RTVSPost2010PropOp46
 70
     1
102
RTVSPost2010Prop47
 90
       50
102
RTVSPost2010PropOp47
 70
     1
102
RTVSPost2010Prop48
 90
       50
102
RTVSPost2010PropOp48
 70
     1
102
RTVSPost2010Prop49
280
     0
102
RTVSPost2010PropOp49
 70
     1
102
RTVSPost2010Prop50
 90
       50
102
RTVSPost2010PropOp50
 70
     1
102
RTVSPost2010Prop51ColorIndex
 90
      256
102
RTVSPost2010Prop51ColorRGB
 90
-16777216
102
RTVSPost2010PropOp51
 70
     0
102
RTVSPost2010Prop52
140
1.0
102
RTVSPost2010PropOp52
 70
     0
102
RTVSPost2010Prop53
 90
        2
102
RTVSPost2010PropOp53
 70
     1
102
RTVSPost2010Prop54
  1
strokes_ogs.tif
102
RTVSPost2010PropOp54
 70
     1
102
RTVSPost2010Prop55
280
     0
102
RTVSPost2010PropOp55
 70
     1
102
RTVSPost2010Prop56
140
1.0
102
RTVSPost2010PropOp56
 70
     1
102
RTVSPost2010Prop57
140
1.0
102
RTVSPost2010PropOp57
 70
     1
102
RTVSPropertyOp0
 70
     0
102
RTVSPropertyOp1
 70
     0
102
RTVSPropertyOp2
 70
     0
102
RTVSPropertyOp3
 70
     0
102
RTVSPropertyOp4
 70
     0
102
RTVSPropertyOp5
 70
     0
102
RTVSPropertyOp6
 70
     0
102
RTVSPropertyOp7
 70
     0
102
RTVSPropertyOp8
 70
     0
102
RTVSPropertyOp9
 70
     0
102
RTVSPropertyOp10
 70
     0
102
RTVSPropertyOp11
 70
     0
102
RTVSPropertyOp12
 70
     0
102
RTVSPropertyOp13
 70
     0
102
RTVSPropertyOp14
 70
     2
102
RTVSPropertyOp15
 70
     0
102
RTVSPropertyOp16
 70
     0
102
RTVSPropertyOp17
 70
     0
102
RTVSPropertyOp18
 70
     0
102
RTVSPropertyOp19
 70
     0
102
RTVSPropertyOp20
 70
     0
102
RTVSPropertyOp21
 70
     0
102
RTVSPropertyOp22
 70
     0
102
RTVSPropertyOp23
 70
     0
102
RTVSPropertyOp24
 70
     0
102
RTVSPropertyOp25
 70
     0
102
RTVSPropertyOp26
 70
     0
102
RTVSPropertyOp27
 70
     0
102
RTVSPropertyOp28
 70
     1
102
RTVSPropertyOp29
 70
     1
102
RTVSPropertyOp30
 70
     1
102
RTVSPropertyOp31
 70
     1
102
RTVSPropertyOp32
 70
     1
102
RTVSPropertyOp33
 70
     1
102
RTVSPropertyOp34
 70
     1
102
RTVSPropertyOp35
 70
     1
102
RTVSPropertyOp36
 70
     1
102
RTVSPropertyOp37
 70
     1
102
RTVSPropertyOp38
 70
     1
102
RTVSPropertyOp39
 70
     1
102
RTVSPropertyOp40
 70
     1
102
RTVSPropertyOp41
 70
     1
102
RTVSPropertyOp42
 70
     1
102
RTVSPropertyOp43
 70
     1
102
RTVSPropertyOp44
 70
     1
102
RTVSPropertyOp45
 70
     1
102
RTVSPropertyOp46
 70
     1
102
RTVSPropertyOp47
 70
     1
102
RTVSPropertyOp48
 70
     1
102
RTVSPropertyOp49
 70
     1
102
RTVSPropertyOp50
 70
     1
102
RTVSPropertyOp51
 70
     0
102
RTVSPropertyOp52
 70
     0
102
RTVSPropertyOp53
 70
     1
102
RTVSPropertyOp54
 70
     1
102
RTVSPropertyOp55
 70
     1
102
RTVSPropertyOp56
 70
     1
102
RTVSPropertyOp57
 70
     1
102
RTVSPropertyOp58
 70
     1
102
RTVSPropertyOp59
 70
     1
102
RTVSPropertyOp60
 70
     1
102
RTVSPropertyOp61
 70
     1
102
RTVSPropertyOp62
 70
     1
  0
XRECORD
  5
BE3C
102
{ACAD_REACTORS
330
BE3B
102
}
330
BE3B
100
AcDbXrecord
280
     1
102
RTVSPost2010Prop28
280
     0
102
RTVSPost2010PropOp28
 70
     1
102
RTVSPost2010Prop29
280
     1
102
RTVSPost2010PropOp29
 70
     1
102
RTVSPost2010Prop30
280
     1
102
RTVSPost2010PropOp30
 70
     1
102
RTVSPost2010Prop31
280
     0
102
RTVSPost2010PropOp31
 70
     1
102
RTVSPost2010Prop32
280
     0
102
RTVSPost2010PropOp32
 70
     1
102
RTVSPost2010Prop33
280
     0
102
RTVSPost2010PropOp33
 70
     1
102
RTVSPost2010Prop34
280
     0
102
RTVSPost2010PropOp34
 70
     1
102
RTVSPost2010Prop35
280
     0
102
RTVSPost2010PropOp35
 70
     1
102
RTVSPost2010Prop36
280
     0
102
RTVSPost2010PropOp36
 70
     1
102
RTVSPost2010Prop37
 90
       50
102
RTVSPost2010PropOp37
 70
     1
102
RTVSPost2010Prop38
140
0.0
102
RTVSPost2010PropOp38
 70
     1
102
RTVSPost2010Prop39
140
1.0
102
RTVSPost2010PropOp39
 70
     1
102
RTVSPost2010Prop40
 90
        0
102
RTVSPost2010PropOp40
 70
     1
102
RTVSPost2010Prop41ColorIndex
 90
       18
102
RTVSPost2010Prop41ColorRGB
 90
        0
102
RTVSPost2010PropOp41
 70
     1
102
RTVSPost2010Prop42
 90
       50
102
RTVSPost2010PropOp42
 70
     1
102
RTVSPost2010Prop43
 90
        3
102
RTVSPost2010PropOp43
 70
     1
102
RTVSPost2010Prop44ColorIndex
 90
        5
102
RTVSPost2010Prop44ColorRGB
 90
      255
102
RTVSPost2010PropOp44
 70
     1
102
RTVSPost2010Prop45
280
     0
102
RTVSPost2010PropOp45
 70
     1
102
RTVSPost2010Prop46
 90
       50
102
RTVSPost2010PropOp46
 70
     1
102
RTVSPost2010Prop47
 90
       50
102
RTVSPost2010PropOp47
 70
     1
102
RTVSPost2010Prop48
 90
       50
102
RTVSPost2010PropOp48
 70
     1
102
RTVSPost2010Prop49
280
     0
102
RTVSPost2010PropOp49
 70
     1
102
RTVSPost2010Prop50
 90
       50
102
RTVSPost2010PropOp50
 70
     1
102
RTVSPost2010Prop51ColorIndex
 90
      256
102
RTVSPost2010Prop51ColorRGB
 90
-16777216
102
RTVSPost2010PropOp51
 70
     0
102
RTVSPost2010Prop52
140
1.0
102
RTVSPost2010PropOp52
 70
     0
102
RTVSPost2010Prop53
 90
        2
102
RTVSPost2010PropOp53
 70
     1
102
RTVSPost2010Prop54
  1
strokes_ogs.tif
102
RTVSPost2010PropOp54
 70
     1
102
RTVSPost2010Prop55
280
     0
102
RTVSPost2010PropOp55
 70
     1
102
RTVSPost2010Prop56
140
1.0
102
RTVSPost2010PropOp56
 70
     1
102
RTVSPost2010Prop57
140
1.0
102
RTVSPost2010PropOp57
 70
     1
102
RTVSPropertyOp0
 70
     1
102
RTVSPropertyOp1
 70
     1
102
RTVSPropertyOp2
 70
     1
102
RTVSPropertyOp3
 70
     1
102
RTVSPropertyOp4
 70
     1
102
RTVSPropertyOp5
 70
     1
102
RTVSPropertyOp6
 70
     1
102
RTVSPropertyOp7
 70
     1
102
RTVSPropertyOp8
 70
     1
102
RTVSPropertyOp9
 70
     1
102
RTVSPropertyOp10
 70
     1
102
RTVSPropertyOp11
 70
     1
102
RTVSPropertyOp12
 70
     1
102
RTVSPropertyOp13
 70
     1
102
RTVSPropertyOp14
 70
     1
102
RTVSPropertyOp15
 70
     1
102
RTVSPropertyOp16
 70
     1
102
RTVSPropertyOp17
 70
     1
102
RTVSPropertyOp18
 70
     1
102
RTVSPropertyOp19
 70
     1
102
RTVSPropertyOp20
 70
     1
102
RTVSPropertyOp21
 70
     1
102
RTVSPropertyOp22
 70
     1
102
RTVSPropertyOp23
 70
     1
102
RTVSPropertyOp24
 70
     1
102
RTVSPropertyOp25
 70
     1
102
RTVSPropertyOp26
 70
     1
102
RTVSPropertyOp27
 70
     1
102
RTVSPropertyOp28
 70
     1
102
RTVSPropertyOp29
 70
     1
102
RTVSPropertyOp30
 70
     1
102
RTVSPropertyOp31
 70
     1
102
RTVSPropertyOp32
 70
     1
102
RTVSPropertyOp33
 70
     1
102
RTVSPropertyOp34
 70
     1
102
RTVSPropertyOp35
 70
     1
102
RTVSPropertyOp36
 70
     1
102
RTVSPropertyOp37
 70
     1
102
RTVSPropertyOp38
 70
     1
102
RTVSPropertyOp39
 70
     1
102
RTVSPropertyOp40
 70
     1
102
RTVSPropertyOp41
 70
     1
102
RTVSPropertyOp42
 70
     1
102
RTVSPropertyOp43
 70
     1
102
RTVSPropertyOp44
 70
     1
102
RTVSPropertyOp45
 70
     1
102
RTVSPropertyOp46
 70
     1
102
RTVSPropertyOp47
 70
     1
102
RTVSPropertyOp48
 70
     1
102
RTVSPropertyOp49
 70
     1
102
RTVSPropertyOp50
 70
     1
102
RTVSPropertyOp51
 70
     0
102
RTVSPropertyOp52
 70
     0
102
RTVSPropertyOp53
 70
     1
102
RTVSPropertyOp54
 70
     1
102
RTVSPropertyOp55
 70
     1
102
RTVSPropertyOp56
 70
     1
102
RTVSPropertyOp57
 70
     1
102
RTVSPropertyOp58
 70
     1
102
RTVSPropertyOp59
 70
     1
102
RTVSPropertyOp60
 70
     1
102
RTVSPropertyOp61
 70
     1
102
RTVSPropertyOp62
 70
     1
  0
XRECORD
  5
BE46
102
{ACAD_REACTORS
330
BE45
102
}
330
BE45
100
AcDbXrecord
280
     1
102
RTVSPost2010Prop28
280
     0
102
RTVSPost2010PropOp28
 70
     1
102
RTVSPost2010Prop29
280
     1
102
RTVSPost2010PropOp29
 70
     1
102
RTVSPost2010Prop30
280
     1
102
RTVSPost2010PropOp30
 70
     1
102
RTVSPost2010Prop31
280
     0
102
RTVSPost2010PropOp31
 70
     1
102
RTVSPost2010Prop32
280
     0
102
RTVSPost2010PropOp32
 70
     1
102
RTVSPost2010Prop33
280
     0
102
RTVSPost2010PropOp33
 70
     1
102
RTVSPost2010Prop34
280
     0
102
RTVSPost2010PropOp34
 70
     1
102
RTVSPost2010Prop35
280
     0
102
RTVSPost2010PropOp35
 70
     1
102
RTVSPost2010Prop36
280
     0
102
RTVSPost2010PropOp36
 70
     1
102
RTVSPost2010Prop37
 90
       50
102
RTVSPost2010PropOp37
 70
     1
102
RTVSPost2010Prop38
140
0.0
102
RTVSPost2010PropOp38
 70
     1
102
RTVSPost2010Prop39
140
1.0
102
RTVSPost2010PropOp39
 70
     1
102
RTVSPost2010Prop40
 90
        0
102
RTVSPost2010PropOp40
 70
     1
102
RTVSPost2010Prop41ColorIndex
 90
       18
102
RTVSPost2010Prop41ColorRGB
 90
        0
102
RTVSPost2010PropOp41
 70
     1
102
RTVSPost2010Prop42
 90
       50
102
RTVSPost2010PropOp42
 70
     1
102
RTVSPost2010Prop43
 90
        3
102
RTVSPost2010PropOp43
 70
     1
102
RTVSPost2010Prop44ColorIndex
 90
        5
102
RTVSPost2010Prop44ColorRGB
 90
      255
102
RTVSPost2010PropOp44
 70
     1
102
RTVSPost2010Prop45
280
     0
102
RTVSPost2010PropOp45
 70
     1
102
RTVSPost2010Prop46
 90
       50
102
RTVSPost2010PropOp46
 70
     1
102
RTVSPost2010Prop47
 90
       50
102
RTVSPost2010PropOp47
 70
     1
102
RTVSPost2010Prop48
 90
       50
102
RTVSPost2010PropOp48
 70
     1
102
RTVSPost2010Prop49
280
     0
102
RTVSPost2010PropOp49
 70
     1
102
RTVSPost2010Prop50
 90
       50
102
RTVSPost2010PropOp50
 70
     1
102
RTVSPost2010Prop51ColorIndex
 90
      256
102
RTVSPost2010Prop51ColorRGB
 90
-16777216
102
RTVSPost2010PropOp51
 70
     0
102
RTVSPost2010Prop52
140
1.0
102
RTVSPost2010PropOp52
 70
     0
102
RTVSPost2010Prop53
 90
        2
102
RTVSPost2010PropOp53
 70
     1
102
RTVSPost2010Prop54
  1
strokes_ogs.tif
102
RTVSPost2010PropOp54
 70
     1
102
RTVSPost2010Prop55
280
     0
102
RTVSPost2010PropOp55
 70
     1
102
RTVSPost2010Prop56
140
1.0
102
RTVSPost2010PropOp56
 70
     1
102
RTVSPost2010Prop57
140
1.0
102
RTVSPost2010PropOp57
 70
     1
102
RTVSPropertyOp0
 70
     0
102
RTVSPropertyOp1
 70
     0
102
RTVSPropertyOp2
 70
     0
102
RTVSPropertyOp3
 70
     0
102
RTVSPropertyOp4
 70
     0
102
RTVSPropertyOp5
 70
     0
102
RTVSPropertyOp6
 70
     0
102
RTVSPropertyOp7
 70
     0
102
RTVSPropertyOp8
 70
     0
102
RTVSPropertyOp9
 70
     0
102
RTVSPropertyOp10
 70
     0
102
RTVSPropertyOp11
 70
     0
102
RTVSPropertyOp12
 70
     0
102
RTVSPropertyOp13
 70
     0
102
RTVSPropertyOp14
 70
     2
102
RTVSPropertyOp15
 70
     0
102
RTVSPropertyOp16
 70
     0
102
RTVSPropertyOp17
 70
     0
102
RTVSPropertyOp18
 70
     0
102
RTVSPropertyOp19
 70
     0
102
RTVSPropertyOp20
 70
     0
102
RTVSPropertyOp21
 70
     0
102
RTVSPropertyOp22
 70
     0
102
RTVSPropertyOp23
 70
     0
102
RTVSPropertyOp24
 70
     0
102
RTVSPropertyOp25
 70
     0
102
RTVSPropertyOp26
 70
     0
102
RTVSPropertyOp27
 70
     0
102
RTVSPropertyOp28
 70
     1
102
RTVSPropertyOp29
 70
     1
102
RTVSPropertyOp30
 70
     1
102
RTVSPropertyOp31
 70
     1
102
RTVSPropertyOp32
 70
     1
102
RTVSPropertyOp33
 70
     1
102
RTVSPropertyOp34
 70
     1
102
RTVSPropertyOp35
 70
     1
102
RTVSPropertyOp36
 70
     1
102
RTVSPropertyOp37
 70
     1
102
RTVSPropertyOp38
 70
     1
102
RTVSPropertyOp39
 70
     1
102
RTVSPropertyOp40
 70
     1
102
RTVSPropertyOp41
 70
     1
102
RTVSPropertyOp42
 70
     1
102
RTVSPropertyOp43
 70
     1
102
RTVSPropertyOp44
 70
     1
102
RTVSPropertyOp45
 70
     1
102
RTVSPropertyOp46
 70
     1
102
RTVSPropertyOp47
 70
     1
102
RTVSPropertyOp48
 70
     1
102
RTVSPropertyOp49
 70
     1
102
RTVSPropertyOp50
 70
     1
102
RTVSPropertyOp51
 70
     0
102
RTVSPropertyOp52
 70
     0
102
RTVSPropertyOp53
 70
     1
102
RTVSPropertyOp54
 70
     1
102
RTVSPropertyOp55
 70
     1
102
RTVSPropertyOp56
 70
     1
102
RTVSPropertyOp57
 70
     1
102
RTVSPropertyOp58
 70
     1
102
RTVSPropertyOp59
 70
     1
102
RTVSPropertyOp60
 70
     1
102
RTVSPropertyOp61
 70
     1
102
RTVSPropertyOp62
 70
     1
  0
XRECORD
  5
BE34
102
{ACAD_REACTORS
330
BE33
102
}
330
BE33
100
AcDbXrecord
280
     1
102
RTVSPost2010Prop28
280
     0
102
RTVSPost2010PropOp28
 70
     1
102
RTVSPost2010Prop29
280
     1
102
RTVSPost2010PropOp29
 70
     1
102
RTVSPost2010Prop30
280
     1
102
RTVSPost2010PropOp30
 70
     1
102
RTVSPost2010Prop31
280
     0
102
RTVSPost2010PropOp31
 70
     1
102
RTVSPost2010Prop32
280
     0
102
RTVSPost2010PropOp32
 70
     1
102
RTVSPost2010Prop33
280
     0
102
RTVSPost2010PropOp33
 70
     1
102
RTVSPost2010Prop34
280
     0
102
RTVSPost2010PropOp34
 70
     1
102
RTVSPost2010Prop35
280
     0
102
RTVSPost2010PropOp35
 70
     1
102
RTVSPost2010Prop36
280
     0
102
RTVSPost2010PropOp36
 70
     1
102
RTVSPost2010Prop37
 90
       50
102
RTVSPost2010PropOp37
 70
     1
102
RTVSPost2010Prop38
140
0.0
102
RTVSPost2010PropOp38
 70
     1
102
RTVSPost2010Prop39
140
1.0
102
RTVSPost2010PropOp39
 70
     1
102
RTVSPost2010Prop40
 90
        0
102
RTVSPost2010PropOp40
 70
     1
102
RTVSPost2010Prop41ColorIndex
 90
       18
102
RTVSPost2010Prop41ColorRGB
 90
        0
102
RTVSPost2010PropOp41
 70
     1
102
RTVSPost2010Prop42
 90
       50
102
RTVSPost2010PropOp42
 70
     1
102
RTVSPost2010Prop43
 90
        3
102
RTVSPost2010PropOp43
 70
     1
102
RTVSPost2010Prop44ColorIndex
 90
        5
102
RTVSPost2010Prop44ColorRGB
 90
      255
102
RTVSPost2010PropOp44
 70
     1
102
RTVSPost2010Prop45
280
     0
102
RTVSPost2010PropOp45
 70
     1
102
RTVSPost2010Prop46
 90
       50
102
RTVSPost2010PropOp46
 70
     1
102
RTVSPost2010Prop47
 90
       50
102
RTVSPost2010PropOp47
 70
     1
102
RTVSPost2010Prop48
 90
       50
102
RTVSPost2010PropOp48
 70
     1
102
RTVSPost2010Prop49
280
     0
102
RTVSPost2010PropOp49
 70
     1
102
RTVSPost2010Prop50
 90
       50
102
RTVSPost2010PropOp50
 70
     1
102
RTVSPost2010Prop51ColorIndex
 90
      256
102
RTVSPost2010Prop51ColorRGB
 90
-16777216
102
RTVSPost2010PropOp51
 70
     0
102
RTVSPost2010Prop52
140
1.0
102
RTVSPost2010PropOp52
 70
     0
102
RTVSPost2010Prop53
 90
        2
102
RTVSPost2010PropOp53
 70
     1
102
RTVSPost2010Prop54
  1
strokes_ogs.tif
102
RTVSPost2010PropOp54
 70
     1
102
RTVSPost2010Prop55
280
     0
102
RTVSPost2010PropOp55
 70
     1
102
RTVSPost2010Prop56
140
1.0
102
RTVSPost2010PropOp56
 70
     1
102
RTVSPost2010Prop57
140
1.0
102
RTVSPost2010PropOp57
 70
     1
102
RTVSPropertyOp0
 70
     1
102
RTVSPropertyOp1
 70
     1
102
RTVSPropertyOp2
 70
     1
102
RTVSPropertyOp3
 70
     1
102
RTVSPropertyOp4
 70
     1
102
RTVSPropertyOp5
 70
     1
102
RTVSPropertyOp6
 70
     1
102
RTVSPropertyOp7
 70
     1
102
RTVSPropertyOp8
 70
     1
102
RTVSPropertyOp9
 70
     1
102
RTVSPropertyOp10
 70
     1
102
RTVSPropertyOp11
 70
     1
102
RTVSPropertyOp12
 70
     1
102
RTVSPropertyOp13
 70
     1
102
RTVSPropertyOp14
 70
     1
102
RTVSPropertyOp15
 70
     1
102
RTVSPropertyOp16
 70
     1
102
RTVSPropertyOp17
 70
     1
102
RTVSPropertyOp18
 70
     1
102
RTVSPropertyOp19
 70
     1
102
RTVSPropertyOp20
 70
     1
102
RTVSPropertyOp21
 70
     1
102
RTVSPropertyOp22
 70
     1
102
RTVSPropertyOp23
 70
     1
102
RTVSPropertyOp24
 70
     1
102
RTVSPropertyOp25
 70
     1
102
RTVSPropertyOp26
 70
     1
102
RTVSPropertyOp27
 70
     1
102
RTVSPropertyOp28
 70
     1
102
RTVSPropertyOp29
 70
     1
102
RTVSPropertyOp30
 70
     1
102
RTVSPropertyOp31
 70
     1
102
RTVSPropertyOp32
 70
     1
102
RTVSPropertyOp33
 70
     1
102
RTVSPropertyOp34
 70
     1
102
RTVSPropertyOp35
 70
     1
102
RTVSPropertyOp36
 70
     1
102
RTVSPropertyOp37
 70
     1
102
RTVSPropertyOp38
 70
     1
102
RTVSPropertyOp39
 70
     1
102
RTVSPropertyOp40
 70
     1
102
RTVSPropertyOp41
 70
     1
102
RTVSPropertyOp42
 70
     1
102
RTVSPropertyOp43
 70
     1
102
RTVSPropertyOp44
 70
     1
102
RTVSPropertyOp45
 70
     1
102
RTVSPropertyOp46
 70
     1
102
RTVSPropertyOp47
 70
     1
102
RTVSPropertyOp48
 70
     1
102
RTVSPropertyOp49
 70
     1
102
RTVSPropertyOp50
 70
     1
102
RTVSPropertyOp51
 70
     0
102
RTVSPropertyOp52
 70
     0
102
RTVSPropertyOp53
 70
     1
102
RTVSPropertyOp54
 70
     1
102
RTVSPropertyOp55
 70
     1
102
RTVSPropertyOp56
 70
     1
102
RTVSPropertyOp57
 70
     1
102
RTVSPropertyOp58
 70
     1
102
RTVSPropertyOp59
 70
     1
102
RTVSPropertyOp60
 70
     1
102
RTVSPropertyOp61
 70
     1
102
RTVSPropertyOp62
 70
     1
  0
XRECORD
  5
BE52
102
{ACAD_REACTORS
330
BE51
102
}
330
BE51
100
AcDbXrecord
280
     1
102
RTVSPost2010Prop28
280
     0
102
RTVSPost2010PropOp28
 70
     1
102
RTVSPost2010Prop29
280
     1
102
RTVSPost2010PropOp29
 70
     1
102
RTVSPost2010Prop30
280
     1
102
RTVSPost2010PropOp30
 70
     1
102
RTVSPost2010Prop31
280
     0
102
RTVSPost2010PropOp31
 70
     1
102
RTVSPost2010Prop32
280
     0
102
RTVSPost2010PropOp32
 70
     1
102
RTVSPost2010Prop33
280
     0
102
RTVSPost2010PropOp33
 70
     1
102
RTVSPost2010Prop34
280
     0
102
RTVSPost2010PropOp34
 70
     1
102
RTVSPost2010Prop35
280
     0
102
RTVSPost2010PropOp35
 70
     1
102
RTVSPost2010Prop36
280
     0
102
RTVSPost2010PropOp36
 70
     1
102
RTVSPost2010Prop37
 90
       50
102
RTVSPost2010PropOp37
 70
     1
102
RTVSPost2010Prop38
140
0.0
102
RTVSPost2010PropOp38
 70
     1
102
RTVSPost2010Prop39
140
1.0
102
RTVSPost2010PropOp39
 70
     1
102
RTVSPost2010Prop40
 90
        0
102
RTVSPost2010PropOp40
 70
     1
102
RTVSPost2010Prop41ColorIndex
 90
       18
102
RTVSPost2010Prop41ColorRGB
 90
        0
102
RTVSPost2010PropOp41
 70
     1
102
RTVSPost2010Prop42
 90
       50
102
RTVSPost2010PropOp42
 70
     1
102
RTVSPost2010Prop43
 90
        3
102
RTVSPost2010PropOp43
 70
     1
102
RTVSPost2010Prop44ColorIndex
 90
        5
102
RTVSPost2010Prop44ColorRGB
 90
      255
102
RTVSPost2010PropOp44
 70
     1
102
RTVSPost2010Prop45
280
     0
102
RTVSPost2010PropOp45
 70
     1
102
RTVSPost2010Prop46
 90
       50
102
RTVSPost2010PropOp46
 70
     1
102
RTVSPost2010Prop47
 90
       50
102
RTVSPost2010PropOp47
 70
     1
102
RTVSPost2010Prop48
 90
       50
102
RTVSPost2010PropOp48
 70
     1
102
RTVSPost2010Prop49
280
     0
102
RTVSPost2010PropOp49
 70
     1
102
RTVSPost2010Prop50
 90
       50
102
RTVSPost2010PropOp50
 70
     1
102
RTVSPost2010Prop51ColorIndex
 90
      256
102
RTVSPost2010Prop51ColorRGB
 90
-16777216
102
RTVSPost2010PropOp51
 70
     0
102
RTVSPost2010Prop52
140
1.0
102
RTVSPost2010PropOp52
 70
     0
102
RTVSPost2010Prop53
 90
        2
102
RTVSPost2010PropOp53
 70
     1
102
RTVSPost2010Prop54
  1
strokes_ogs.tif
102
RTVSPost2010PropOp54
 70
     1
102
RTVSPost2010Prop55
280
     0
102
RTVSPost2010PropOp55
 70
     1
102
RTVSPost2010Prop56
140
1.0
102
RTVSPost2010PropOp56
 70
     1
102
RTVSPost2010Prop57
140
1.0
102
RTVSPost2010PropOp57
 70
     1
102
RTVSPropertyOp0
 70
     1
102
RTVSPropertyOp1
 70
     1
102
RTVSPropertyOp2
 70
     1
102
RTVSPropertyOp3
 70
     1
102
RTVSPropertyOp4
 70
     1
102
RTVSPropertyOp5
 70
     1
102
RTVSPropertyOp6
 70
     1
102
RTVSPropertyOp7
 70
     1
102
RTVSPropertyOp8
 70
     1
102
RTVSPropertyOp9
 70
     1
102
RTVSPropertyOp10
 70
     1
102
RTVSPropertyOp11
 70
     1
102
RTVSPropertyOp12
 70
     1
102
RTVSPropertyOp13
 70
     1
102
RTVSPropertyOp14
 70
     1
102
RTVSPropertyOp15
 70
     1
102
RTVSPropertyOp16
 70
     1
102
RTVSPropertyOp17
 70
     1
102
RTVSPropertyOp18
 70
     1
102
RTVSPropertyOp19
 70
     1
102
RTVSPropertyOp20
 70
     1
102
RTVSPropertyOp21
 70
     1
102
RTVSPropertyOp22
 70
     1
102
RTVSPropertyOp23
 70
     1
102
RTVSPropertyOp24
 70
     1
102
RTVSPropertyOp25
 70
     1
102
RTVSPropertyOp26
 70
     1
102
RTVSPropertyOp27
 70
     1
102
RTVSPropertyOp28
 70
     1
102
RTVSPropertyOp29
 70
     1
102
RTVSPropertyOp30
 70
     1
102
RTVSPropertyOp31
 70
     1
102
RTVSPropertyOp32
 70
     1
102
RTVSPropertyOp33
 70
     1
102
RTVSPropertyOp34
 70
     1
102
RTVSPropertyOp35
 70
     1
102
RTVSPropertyOp36
 70
     1
102
RTVSPropertyOp37
 70
     1
102
RTVSPropertyOp38
 70
     1
102
RTVSPropertyOp39
 70
     1
102
RTVSPropertyOp40
 70
     1
102
RTVSPropertyOp41
 70
     1
102
RTVSPropertyOp42
 70
     1
102
RTVSPropertyOp43
 70
     1
102
RTVSPropertyOp44
 70
     1
102
RTVSPropertyOp45
 70
     1
102
RTVSPropertyOp46
 70
     1
102
RTVSPropertyOp47
 70
     1
102
RTVSPropertyOp48
 70
     1
102
RTVSPropertyOp49
 70
     1
102
RTVSPropertyOp50
 70
     1
102
RTVSPropertyOp51
 70
     0
102
RTVSPropertyOp52
 70
     0
102
RTVSPropertyOp53
 70
     1
102
RTVSPropertyOp54
 70
     1
102
RTVSPropertyOp55
 70
     1
102
RTVSPropertyOp56
 70
     1
102
RTVSPropertyOp57
 70
     1
102
RTVSPropertyOp58
 70
     1
102
RTVSPropertyOp59
 70
     1
102
RTVSPropertyOp60
 70
     1
102
RTVSPropertyOp61
 70
     1
102
RTVSPropertyOp62
 70
     1
  0
XRECORD
  5
BE50
102
{ACAD_REACTORS
330
BE4F
102
}
330
BE4F
100
AcDbXrecord
280
     1
102
RTVSPost2010Prop28
280
     0
102
RTVSPost2010PropOp28
 70
     1
102
RTVSPost2010Prop29
280
     1
102
RTVSPost2010PropOp29
 70
     1
102
RTVSPost2010Prop30
280
     1
102
RTVSPost2010PropOp30
 70
     1
102
RTVSPost2010Prop31
280
     0
102
RTVSPost2010PropOp31
 70
     1
102
RTVSPost2010Prop32
280
     0
102
RTVSPost2010PropOp32
 70
     1
102
RTVSPost2010Prop33
280
     0
102
RTVSPost2010PropOp33
 70
     1
102
RTVSPost2010Prop34
280
     0
102
RTVSPost2010PropOp34
 70
     1
102
RTVSPost2010Prop35
280
     0
102
RTVSPost2010PropOp35
 70
     1
102
RTVSPost2010Prop36
280
     0
102
RTVSPost2010PropOp36
 70
     1
102
RTVSPost2010Prop37
 90
       50
102
RTVSPost2010PropOp37
 70
     1
102
RTVSPost2010Prop38
140
0.0
102
RTVSPost2010PropOp38
 70
     1
102
RTVSPost2010Prop39
140
1.0
102
RTVSPost2010PropOp39
 70
     1
102
RTVSPost2010Prop40
 90
        0
102
RTVSPost2010PropOp40
 70
     1
102
RTVSPost2010Prop41ColorIndex
 90
       18
102
RTVSPost2010Prop41ColorRGB
 90
        0
102
RTVSPost2010PropOp41
 70
     1
102
RTVSPost2010Prop42
 90
       50
102
RTVSPost2010PropOp42
 70
     1
102
RTVSPost2010Prop43
 90
        3
102
RTVSPost2010PropOp43
 70
     1
102
RTVSPost2010Prop44ColorIndex
 90
        5
102
RTVSPost2010Prop44ColorRGB
 90
      255
102
RTVSPost2010PropOp44
 70
     1
102
RTVSPost2010Prop45
280
     0
102
RTVSPost2010PropOp45
 70
     1
102
RTVSPost2010Prop46
 90
       50
102
RTVSPost2010PropOp46
 70
     1
102
RTVSPost2010Prop47
 90
       50
102
RTVSPost2010PropOp47
 70
     1
102
RTVSPost2010Prop48
 90
       50
102
RTVSPost2010PropOp48
 70
     1
102
RTVSPost2010Prop49
280
     0
102
RTVSPost2010PropOp49
 70
     1
102
RTVSPost2010Prop50
 90
       50
102
RTVSPost2010PropOp50
 70
     1
102
RTVSPost2010Prop51ColorIndex
 90
      256
102
RTVSPost2010Prop51ColorRGB
 90
-16777216
102
RTVSPost2010PropOp51
 70
     0
102
RTVSPost2010Prop52
140
1.0
102
RTVSPost2010PropOp52
 70
     0
102
RTVSPost2010Prop53
 90
        2
102
RTVSPost2010PropOp53
 70
     1
102
RTVSPost2010Prop54
  1
strokes_ogs.tif
102
RTVSPost2010PropOp54
 70
     1
102
RTVSPost2010Prop55
280
     0
102
RTVSPost2010PropOp55
 70
     1
102
RTVSPost2010Prop56
140
1.0
102
RTVSPost2010PropOp56
 70
     1
102
RTVSPost2010Prop57
140
1.0
102
RTVSPost2010PropOp57
 70
     1
102
RTVSPropertyOp0
 70
     1
102
RTVSPropertyOp1
 70
     1
102
RTVSPropertyOp2
 70
     1
102
RTVSPropertyOp3
 70
     1
102
RTVSPropertyOp4
 70
     1
102
RTVSPropertyOp5
 70
     1
102
RTVSPropertyOp6
 70
     1
102
RTVSPropertyOp7
 70
     1
102
RTVSPropertyOp8
 70
     1
102
RTVSPropertyOp9
 70
     1
102
RTVSPropertyOp10
 70
     1
102
RTVSPropertyOp11
 70
     1
102
RTVSPropertyOp12
 70
     1
102
RTVSPropertyOp13
 70
     1
102
RTVSPropertyOp14
 70
     1
102
RTVSPropertyOp15
 70
     1
102
RTVSPropertyOp16
 70
     1
102
RTVSPropertyOp17
 70
     1
102
RTVSPropertyOp18
 70
     1
102
RTVSPropertyOp19
 70
     1
102
RTVSPropertyOp20
 70
     1
102
RTVSPropertyOp21
 70
     1
102
RTVSPropertyOp22
 70
     1
102
RTVSPropertyOp23
 70
     1
102
RTVSPropertyOp24
 70
     1
102
RTVSPropertyOp25
 70
     1
102
RTVSPropertyOp26
 70
     1
102
RTVSPropertyOp27
 70
     1
102
RTVSPropertyOp28
 70
     1
102
RTVSPropertyOp29
 70
     1
102
RTVSPropertyOp30
 70
     1
102
RTVSPropertyOp31
 70
     1
102
RTVSPropertyOp32
 70
     1
102
RTVSPropertyOp33
 70
     1
102
RTVSPropertyOp34
 70
     1
102
RTVSPropertyOp35
 70
     1
102
RTVSPropertyOp36
 70
     1
102
RTVSPropertyOp37
 70
     1
102
RTVSPropertyOp38
 70
     1
102
RTVSPropertyOp39
 70
     1
102
RTVSPropertyOp40
 70
     1
102
RTVSPropertyOp41
 70
     1
102
RTVSPropertyOp42
 70
     1
102
RTVSPropertyOp43
 70
     1
102
RTVSPropertyOp44
 70
     1
102
RTVSPropertyOp45
 70
     1
102
RTVSPropertyOp46
 70
     1
102
RTVSPropertyOp47
 70
     1
102
RTVSPropertyOp48
 70
     1
102
RTVSPropertyOp49
 70
     1
102
RTVSPropertyOp50
 70
     1
102
RTVSPropertyOp51
 70
     0
102
RTVSPropertyOp52
 70
     0
102
RTVSPropertyOp53
 70
     1
102
RTVSPropertyOp54
 70
     1
102
RTVSPropertyOp55
 70
     1
102
RTVSPropertyOp56
 70
     1
102
RTVSPropertyOp57
 70
     1
102
RTVSPropertyOp58
 70
     1
102
RTVSPropertyOp59
 70
     1
102
RTVSPropertyOp60
 70
     1
102
RTVSPropertyOp61
 70
     1
102
RTVSPropertyOp62
 70
     1
  0
XRECORD
  5
BE4A
102
{ACAD_REACTORS
330
BE49
102
}
330
BE49
100
AcDbXrecord
280
     1
102
RTVSPost2010Prop28
280
     0
102
RTVSPost2010PropOp28
 70
     1
102
RTVSPost2010Prop29
280
     1
102
RTVSPost2010PropOp29
 70
     1
102
RTVSPost2010Prop30
280
     1
102
RTVSPost2010PropOp30
 70
     1
102
RTVSPost2010Prop31
280
     0
102
RTVSPost2010PropOp31
 70
     1
102
RTVSPost2010Prop32
280
     0
102
RTVSPost2010PropOp32
 70
     1
102
RTVSPost2010Prop33
280
     0
102
RTVSPost2010PropOp33
 70
     1
102
RTVSPost2010Prop34
280
     0
102
RTVSPost2010PropOp34
 70
     1
102
RTVSPost2010Prop35
280
     0
102
RTVSPost2010PropOp35
 70
     1
102
RTVSPost2010Prop36
280
     0
102
RTVSPost2010PropOp36
 70
     1
102
RTVSPost2010Prop37
 90
       50
102
RTVSPost2010PropOp37
 70
     1
102
RTVSPost2010Prop38
140
0.0
102
RTVSPost2010PropOp38
 70
     1
102
RTVSPost2010Prop39
140
1.0
102
RTVSPost2010PropOp39
 70
     1
102
RTVSPost2010Prop40
 90
        0
102
RTVSPost2010PropOp40
 70
     1
102
RTVSPost2010Prop41ColorIndex
 90
       18
102
RTVSPost2010Prop41ColorRGB
 90
        0
102
RTVSPost2010PropOp41
 70
     1
102
RTVSPost2010Prop42
 90
       50
102
RTVSPost2010PropOp42
 70
     1
102
RTVSPost2010Prop43
 90
        3
102
RTVSPost2010PropOp43
 70
     1
102
RTVSPost2010Prop44ColorIndex
 90
        5
102
RTVSPost2010Prop44ColorRGB
 90
      255
102
RTVSPost2010PropOp44
 70
     1
102
RTVSPost2010Prop45
280
     0
102
RTVSPost2010PropOp45
 70
     1
102
RTVSPost2010Prop46
 90
       50
102
RTVSPost2010PropOp46
 70
     1
102
RTVSPost2010Prop47
 90
       50
102
RTVSPost2010PropOp47
 70
     1
102
RTVSPost2010Prop48
 90
       50
102
RTVSPost2010PropOp48
 70
     1
102
RTVSPost2010Prop49
280
     0
102
RTVSPost2010PropOp49
 70
     1
102
RTVSPost2010Prop50
 90
       50
102
RTVSPost2010PropOp50
 70
     1
102
RTVSPost2010Prop51ColorIndex
 90
      256
102
RTVSPost2010Prop51ColorRGB
 90
-16777216
102
RTVSPost2010PropOp51
 70
     0
102
RTVSPost2010Prop52
140
1.0
102
RTVSPost2010PropOp52
 70
     0
102
RTVSPost2010Prop53
 90
        2
102
RTVSPost2010PropOp53
 70
     1
102
RTVSPost2010Prop54
  1
strokes_ogs.tif
102
RTVSPost2010PropOp54
 70
     1
102
RTVSPost2010Prop55
280
     0
102
RTVSPost2010PropOp55
 70
     1
102
RTVSPost2010Prop56
140
1.0
102
RTVSPost2010PropOp56
 70
     1
102
RTVSPost2010Prop57
140
1.0
102
RTVSPost2010PropOp57
 70
     1
102
RTVSPropertyOp0
 70
     1
102
RTVSPropertyOp1
 70
     1
102
RTVSPropertyOp2
 70
     1
102
RTVSPropertyOp3
 70
     1
102
RTVSPropertyOp4
 70
     1
102
RTVSPropertyOp5
 70
     1
102
RTVSPropertyOp6
 70
     1
102
RTVSPropertyOp7
 70
     1
102
RTVSPropertyOp8
 70
     1
102
RTVSPropertyOp9
 70
     1
102
RTVSPropertyOp10
 70
     1
102
RTVSPropertyOp11
 70
     1
102
RTVSPropertyOp12
 70
     1
102
RTVSPropertyOp13
 70
     1
102
RTVSPropertyOp14
 70
     1
102
RTVSPropertyOp15
 70
     1
102
RTVSPropertyOp16
 70
     1
102
RTVSPropertyOp17
 70
     1
102
RTVSPropertyOp18
 70
     1
102
RTVSPropertyOp19
 70
     1
102
RTVSPropertyOp20
 70
     1
102
RTVSPropertyOp21
 70
     1
102
RTVSPropertyOp22
 70
     1
102
RTVSPropertyOp23
 70
     1
102
RTVSPropertyOp24
 70
     1
102
RTVSPropertyOp25
 70
     1
102
RTVSPropertyOp26
 70
     1
102
RTVSPropertyOp27
 70
     1
102
RTVSPropertyOp28
 70
     1
102
RTVSPropertyOp29
 70
     1
102
RTVSPropertyOp30
 70
     1
102
RTVSPropertyOp31
 70
     1
102
RTVSPropertyOp32
 70
     1
102
RTVSPropertyOp33
 70
     1
102
RTVSPropertyOp34
 70
     1
102
RTVSPropertyOp35
 70
     1
102
RTVSPropertyOp36
 70
     1
102
RTVSPropertyOp37
 70
     1
102
RTVSPropertyOp38
 70
     1
102
RTVSPropertyOp39
 70
     1
102
RTVSPropertyOp40
 70
     1
102
RTVSPropertyOp41
 70
     1
102
RTVSPropertyOp42
 70
     1
102
RTVSPropertyOp43
 70
     1
102
RTVSPropertyOp44
 70
     1
102
RTVSPropertyOp45
 70
     1
102
RTVSPropertyOp46
 70
     1
102
RTVSPropertyOp47
 70
     1
102
RTVSPropertyOp48
 70
     1
102
RTVSPropertyOp49
 70
     1
102
RTVSPropertyOp50
 70
     1
102
RTVSPropertyOp51
 70
     0
102
RTVSPropertyOp52
 70
     0
102
RTVSPropertyOp53
 70
     1
102
RTVSPropertyOp54
 70
     1
102
RTVSPropertyOp55
 70
     1
102
RTVSPropertyOp56
 70
     1
102
RTVSPropertyOp57
 70
     1
102
RTVSPropertyOp58
 70
     1
102
RTVSPropertyOp59
 70
     1
102
RTVSPropertyOp60
 70
     1
102
RTVSPropertyOp61
 70
     1
102
RTVSPropertyOp62
 70
     1
  0
XRECORD
  5
BE4C
102
{ACAD_REACTORS
330
BE4B
102
}
330
BE4B
100
AcDbXrecord
280
     1
102
RTVSPost2010Prop28
280
     0
102
RTVSPost2010PropOp28
 70
     1
102
RTVSPost2010Prop29
280
     1
102
RTVSPost2010PropOp29
 70
     1
102
RTVSPost2010Prop30
280
     1
102
RTVSPost2010PropOp30
 70
     1
102
RTVSPost2010Prop31
280
     0
102
RTVSPost2010PropOp31
 70
     1
102
RTVSPost2010Prop32
280
     0
102
RTVSPost2010PropOp32
 70
     1
102
RTVSPost2010Prop33
280
     0
102
RTVSPost2010PropOp33
 70
     1
102
RTVSPost2010Prop34
280
     0
102
RTVSPost2010PropOp34
 70
     1
102
RTVSPost2010Prop35
280
     0
102
RTVSPost2010PropOp35
 70
     1
102
RTVSPost2010Prop36
280
     0
102
RTVSPost2010PropOp36
 70
     1
102
RTVSPost2010Prop37
 90
       50
102
RTVSPost2010PropOp37
 70
     1
102
RTVSPost2010Prop38
140
0.0
102
RTVSPost2010PropOp38
 70
     1
102
RTVSPost2010Prop39
140
1.0
102
RTVSPost2010PropOp39
 70
     1
102
RTVSPost2010Prop40
 90
        0
102
RTVSPost2010PropOp40
 70
     1
102
RTVSPost2010Prop41ColorIndex
 90
       18
102
RTVSPost2010Prop41ColorRGB
 90
        0
102
RTVSPost2010PropOp41
 70
     1
102
RTVSPost2010Prop42
 90
       50
102
RTVSPost2010PropOp42
 70
     1
102
RTVSPost2010Prop43
 90
        3
102
RTVSPost2010PropOp43
 70
     1
102
RTVSPost2010Prop44ColorIndex
 90
        5
102
RTVSPost2010Prop44ColorRGB
 90
      255
102
RTVSPost2010PropOp44
 70
     1
102
RTVSPost2010Prop45
280
     0
102
RTVSPost2010PropOp45
 70
     1
102
RTVSPost2010Prop46
 90
       50
102
RTVSPost2010PropOp46
 70
     1
102
RTVSPost2010Prop47
 90
       50
102
RTVSPost2010PropOp47
 70
     1
102
RTVSPost2010Prop48
 90
       50
102
RTVSPost2010PropOp48
 70
     1
102
RTVSPost2010Prop49
280
     0
102
RTVSPost2010PropOp49
 70
     1
102
RTVSPost2010Prop50
 90
       50
102
RTVSPost2010PropOp50
 70
     1
102
RTVSPost2010Prop51ColorIndex
 90
      256
102
RTVSPost2010Prop51ColorRGB
 90
-16777216
102
RTVSPost2010PropOp51
 70
     0
102
RTVSPost2010Prop52
140
1.0
102
RTVSPost2010PropOp52
 70
     0
102
RTVSPost2010Prop53
 90
        2
102
RTVSPost2010PropOp53
 70
     1
102
RTVSPost2010Prop54
  1
strokes_ogs.tif
102
RTVSPost2010PropOp54
 70
     1
102
RTVSPost2010Prop55
280
     0
102
RTVSPost2010PropOp55
 70
     1
102
RTVSPost2010Prop56
140
1.0
102
RTVSPost2010PropOp56
 70
     1
102
RTVSPost2010Prop57
140
1.0
102
RTVSPost2010PropOp57
 70
     1
102
RTVSPropertyOp0
 70
     1
102
RTVSPropertyOp1
 70
     1
102
RTVSPropertyOp2
 70
     1
102
RTVSPropertyOp3
 70
     1
102
RTVSPropertyOp4
 70
     1
102
RTVSPropertyOp5
 70
     1
102
RTVSPropertyOp6
 70
     1
102
RTVSPropertyOp7
 70
     1
102
RTVSPropertyOp8
 70
     1
102
RTVSPropertyOp9
 70
     1
102
RTVSPropertyOp10
 70
     1
102
RTVSPropertyOp11
 70
     1
102
RTVSPropertyOp12
 70
     1
102
RTVSPropertyOp13
 70
     1
102
RTVSPropertyOp14
 70
     1
102
RTVSPropertyOp15
 70
     1
102
RTVSPropertyOp16
 70
     1
102
RTVSPropertyOp17
 70
     1
102
RTVSPropertyOp18
 70
     1
102
RTVSPropertyOp19
 70
     1
102
RTVSPropertyOp20
 70
     1
102
RTVSPropertyOp21
 70
     1
102
RTVSPropertyOp22
 70
     1
102
RTVSPropertyOp23
 70
     1
102
RTVSPropertyOp24
 70
     1
102
RTVSPropertyOp25
 70
     1
102
RTVSPropertyOp26
 70
     1
102
RTVSPropertyOp27
 70
     1
102
RTVSPropertyOp28
 70
     1
102
RTVSPropertyOp29
 70
     1
102
RTVSPropertyOp30
 70
     1
102
RTVSPropertyOp31
 70
     1
102
RTVSPropertyOp32
 70
     1
102
RTVSPropertyOp33
 70
     1
102
RTVSPropertyOp34
 70
     1
102
RTVSPropertyOp35
 70
     1
102
RTVSPropertyOp36
 70
     1
102
RTVSPropertyOp37
 70
     1
102
RTVSPropertyOp38
 70
     1
102
RTVSPropertyOp39
 70
     1
102
RTVSPropertyOp40
 70
     1
102
RTVSPropertyOp41
 70
     1
102
RTVSPropertyOp42
 70
     1
102
RTVSPropertyOp43
 70
     1
102
RTVSPropertyOp44
 70
     1
102
RTVSPropertyOp45
 70
     1
102
RTVSPropertyOp46
 70
     1
102
RTVSPropertyOp47
 70
     1
102
RTVSPropertyOp48
 70
     1
102
RTVSPropertyOp49
 70
     1
102
RTVSPropertyOp50
 70
     1
102
RTVSPropertyOp51
 70
     0
102
RTVSPropertyOp52
 70
     0
102
RTVSPropertyOp53
 70
     1
102
RTVSPropertyOp54
 70
     1
102
RTVSPropertyOp55
 70
     1
102
RTVSPropertyOp56
 70
     1
102
RTVSPropertyOp57
 70
     1
102
RTVSPropertyOp58
 70
     1
102
RTVSPropertyOp59
 70
     1
102
RTVSPropertyOp60
 70
     1
102
RTVSPropertyOp61
 70
     1
102
RTVSPropertyOp62
 70
     1
  0
XRECORD
  5
BE3A
102
{ACAD_REACTORS
330
BE39
102
}
330
BE39
100
AcDbXrecord
280
     1
102
RTVSPost2010Prop28
280
     0
102
RTVSPost2010PropOp28
 70
     1
102
RTVSPost2010Prop29
280
     1
102
RTVSPost2010PropOp29
 70
     1
102
RTVSPost2010Prop30
280
     1
102
RTVSPost2010PropOp30
 70
     1
102
RTVSPost2010Prop31
280
     0
102
RTVSPost2010PropOp31
 70
     1
102
RTVSPost2010Prop32
280
     0
102
RTVSPost2010PropOp32
 70
     1
102
RTVSPost2010Prop33
280
     0
102
RTVSPost2010PropOp33
 70
     1
102
RTVSPost2010Prop34
280
     0
102
RTVSPost2010PropOp34
 70
     1
102
RTVSPost2010Prop35
280
     0
102
RTVSPost2010PropOp35
 70
     1
102
RTVSPost2010Prop36
280
     0
102
RTVSPost2010PropOp36
 70
     1
102
RTVSPost2010Prop37
 90
       50
102
RTVSPost2010PropOp37
 70
     1
102
RTVSPost2010Prop38
140
0.0
102
RTVSPost2010PropOp38
 70
     1
102
RTVSPost2010Prop39
140
1.0
102
RTVSPost2010PropOp39
 70
     1
102
RTVSPost2010Prop40
 90
        0
102
RTVSPost2010PropOp40
 70
     1
102
RTVSPost2010Prop41ColorIndex
 90
       18
102
RTVSPost2010Prop41ColorRGB
 90
        0
102
RTVSPost2010PropOp41
 70
     1
102
RTVSPost2010Prop42
 90
       50
102
RTVSPost2010PropOp42
 70
     1
102
RTVSPost2010Prop43
 90
        3
102
RTVSPost2010PropOp43
 70
     1
102
RTVSPost2010Prop44ColorIndex
 90
        5
102
RTVSPost2010Prop44ColorRGB
 90
      255
102
RTVSPost2010PropOp44
 70
     1
102
RTVSPost2010Prop45
280
     0
102
RTVSPost2010PropOp45
 70
     1
102
RTVSPost2010Prop46
 90
       50
102
RTVSPost2010PropOp46
 70
     1
102
RTVSPost2010Prop47
 90
       50
102
RTVSPost2010PropOp47
 70
     1
102
RTVSPost2010Prop48
 90
       50
102
RTVSPost2010PropOp48
 70
     1
102
RTVSPost2010Prop49
280
     0
102
RTVSPost2010PropOp49
 70
     1
102
RTVSPost2010Prop50
 90
       50
102
RTVSPost2010PropOp50
 70
     1
102
RTVSPost2010Prop51ColorIndex
 90
      256
102
RTVSPost2010Prop51ColorRGB
 90
-16777216
102
RTVSPost2010PropOp51
 70
     0
102
RTVSPost2010Prop52
140
1.0
102
RTVSPost2010PropOp52
 70
     0
102
RTVSPost2010Prop53
 90
        2
102
RTVSPost2010PropOp53
 70
     1
102
RTVSPost2010Prop54
  1
strokes_ogs.tif
102
RTVSPost2010PropOp54
 70
     1
102
RTVSPost2010Prop55
280
     0
102
RTVSPost2010PropOp55
 70
     1
102
RTVSPost2010Prop56
140
1.0
102
RTVSPost2010PropOp56
 70
     1
102
RTVSPost2010Prop57
140
1.0
102
RTVSPost2010PropOp57
 70
     1
102
RTVSPropertyOp0
 70
     1
102
RTVSPropertyOp1
 70
     1
102
RTVSPropertyOp2
 70
     1
102
RTVSPropertyOp3
 70
     1
102
RTVSPropertyOp4
 70
     1
102
RTVSPropertyOp5
 70
     1
102
RTVSPropertyOp6
 70
     1
102
RTVSPropertyOp7
 70
     1
102
RTVSPropertyOp8
 70
     1
102
RTVSPropertyOp9
 70
     1
102
RTVSPropertyOp10
 70
     1
102
RTVSPropertyOp11
 70
     1
102
RTVSPropertyOp12
 70
     1
102
RTVSPropertyOp13
 70
     1
102
RTVSPropertyOp14
 70
     1
102
RTVSPropertyOp15
 70
     1
102
RTVSPropertyOp16
 70
     1
102
RTVSPropertyOp17
 70
     1
102
RTVSPropertyOp18
 70
     1
102
RTVSPropertyOp19
 70
     1
102
RTVSPropertyOp20
 70
     1
102
RTVSPropertyOp21
 70
     1
102
RTVSPropertyOp22
 70
     1
102
RTVSPropertyOp23
 70
     1
102
RTVSPropertyOp24
 70
     1
102
RTVSPropertyOp25
 70
     1
102
RTVSPropertyOp26
 70
     1
102
RTVSPropertyOp27
 70
     1
102
RTVSPropertyOp28
 70
     1
102
RTVSPropertyOp29
 70
     1
102
RTVSPropertyOp30
 70
     1
102
RTVSPropertyOp31
 70
     1
102
RTVSPropertyOp32
 70
     1
102
RTVSPropertyOp33
 70
     1
102
RTVSPropertyOp34
 70
     1
102
RTVSPropertyOp35
 70
     1
102
RTVSPropertyOp36
 70
     1
102
RTVSPropertyOp37
 70
     1
102
RTVSPropertyOp38
 70
     1
102
RTVSPropertyOp39
 70
     1
102
RTVSPropertyOp40
 70
     1
102
RTVSPropertyOp41
 70
     1
102
RTVSPropertyOp42
 70
     1
102
RTVSPropertyOp43
 70
     1
102
RTVSPropertyOp44
 70
     1
102
RTVSPropertyOp45
 70
     1
102
RTVSPropertyOp46
 70
     1
102
RTVSPropertyOp47
 70
     1
102
RTVSPropertyOp48
 70
     1
102
RTVSPropertyOp49
 70
     1
102
RTVSPropertyOp50
 70
     1
102
RTVSPropertyOp51
 70
     0
102
RTVSPropertyOp52
 70
     0
102
RTVSPropertyOp53
 70
     1
102
RTVSPropertyOp54
 70
     1
102
RTVSPropertyOp55
 70
     1
102
RTVSPropertyOp56
 70
     1
102
RTVSPropertyOp57
 70
     1
102
RTVSPropertyOp58
 70
     1
102
RTVSPropertyOp59
 70
     1
102
RTVSPropertyOp60
 70
     1
102
RTVSPropertyOp61
 70
     1
102
RTVSPropertyOp62
 70
     1
  0
XRECORD
  5
BE2E
102
{ACAD_REACTORS
330
BE2D
102
}
330
BE2D
100
AcDbXrecord
280
     1
102
RTVSPost2010Prop28
280
     0
102
RTVSPost2010PropOp28
 70
     1
102
RTVSPost2010Prop29
280
     1
102
RTVSPost2010PropOp29
 70
     1
102
RTVSPost2010Prop30
280
     1
102
RTVSPost2010PropOp30
 70
     1
102
RTVSPost2010Prop31
280
     0
102
RTVSPost2010PropOp31
 70
     1
102
RTVSPost2010Prop32
280
     0
102
RTVSPost2010PropOp32
 70
     1
102
RTVSPost2010Prop33
280
     0
102
RTVSPost2010PropOp33
 70
     1
102
RTVSPost2010Prop34
280
     0
102
RTVSPost2010PropOp34
 70
     1
102
RTVSPost2010Prop35
280
     0
102
RTVSPost2010PropOp35
 70
     1
102
RTVSPost2010Prop36
280
     0
102
RTVSPost2010PropOp36
 70
     1
102
RTVSPost2010Prop37
 90
       50
102
RTVSPost2010PropOp37
 70
     1
102
RTVSPost2010Prop38
140
0.0
102
RTVSPost2010PropOp38
 70
     1
102
RTVSPost2010Prop39
140
1.0
102
RTVSPost2010PropOp39
 70
     1
102
RTVSPost2010Prop40
 90
        0
102
RTVSPost2010PropOp40
 70
     1
102
RTVSPost2010Prop41ColorIndex
 90
       18
102
RTVSPost2010Prop41ColorRGB
 90
        0
102
RTVSPost2010PropOp41
 70
     1
102
RTVSPost2010Prop42
 90
       50
102
RTVSPost2010PropOp42
 70
     1
102
RTVSPost2010Prop43
 90
        3
102
RTVSPost2010PropOp43
 70
     1
102
RTVSPost2010Prop44ColorIndex
 90
        5
102
RTVSPost2010Prop44ColorRGB
 90
      255
102
RTVSPost2010PropOp44
 70
     1
102
RTVSPost2010Prop45
280
     0
102
RTVSPost2010PropOp45
 70
     1
102
RTVSPost2010Prop46
 90
       50
102
RTVSPost2010PropOp46
 70
     1
102
RTVSPost2010Prop47
 90
       50
102
RTVSPost2010PropOp47
 70
     1
102
RTVSPost2010Prop48
 90
       50
102
RTVSPost2010PropOp48
 70
     1
102
RTVSPost2010Prop49
280
     0
102
RTVSPost2010PropOp49
 70
     1
102
RTVSPost2010Prop50
 90
       50
102
RTVSPost2010PropOp50
 70
     1
102
RTVSPost2010Prop51ColorIndex
 90
      256
102
RTVSPost2010Prop51ColorRGB
 90
-16777216
102
RTVSPost2010PropOp51
 70
     0
102
RTVSPost2010Prop52
140
1.0
102
RTVSPost2010PropOp52
 70
     0
102
RTVSPost2010Prop53
 90
        2
102
RTVSPost2010PropOp53
 70
     1
102
RTVSPost2010Prop54
  1
strokes_ogs.tif
102
RTVSPost2010PropOp54
 70
     1
102
RTVSPost2010Prop55
280
     0
102
RTVSPost2010PropOp55
 70
     1
102
RTVSPost2010Prop56
140
1.0
102
RTVSPost2010PropOp56
 70
     1
102
RTVSPost2010Prop57
140
1.0
102
RTVSPost2010PropOp57
 70
     1
102
RTVSPropertyOp0
 70
     1
102
RTVSPropertyOp1
 70
     1
102
RTVSPropertyOp2
 70
     1
102
RTVSPropertyOp3
 70
     1
102
RTVSPropertyOp4
 70
     1
102
RTVSPropertyOp5
 70
     1
102
RTVSPropertyOp6
 70
     1
102
RTVSPropertyOp7
 70
     1
102
RTVSPropertyOp8
 70
     1
102
RTVSPropertyOp9
 70
     1
102
RTVSPropertyOp10
 70
     1
102
RTVSPropertyOp11
 70
     1
102
RTVSPropertyOp12
 70
     1
102
RTVSPropertyOp13
 70
     1
102
RTVSPropertyOp14
 70
     1
102
RTVSPropertyOp15
 70
     1
102
RTVSPropertyOp16
 70
     1
102
RTVSPropertyOp17
 70
     1
102
RTVSPropertyOp18
 70
     1
102
RTVSPropertyOp19
 70
     1
102
RTVSPropertyOp20
 70
     1
102
RTVSPropertyOp21
 70
     1
102
RTVSPropertyOp22
 70
     1
102
RTVSPropertyOp23
 70
     1
102
RTVSPropertyOp24
 70
     1
102
RTVSPropertyOp25
 70
     1
102
RTVSPropertyOp26
 70
     1
102
RTVSPropertyOp27
 70
     1
102
RTVSPropertyOp28
 70
     1
102
RTVSPropertyOp29
 70
     1
102
RTVSPropertyOp30
 70
     1
102
RTVSPropertyOp31
 70
     1
102
RTVSPropertyOp32
 70
     1
102
RTVSPropertyOp33
 70
     1
102
RTVSPropertyOp34
 70
     1
102
RTVSPropertyOp35
 70
     1
102
RTVSPropertyOp36
 70
     1
102
RTVSPropertyOp37
 70
     1
102
RTVSPropertyOp38
 70
     1
102
RTVSPropertyOp39
 70
     1
102
RTVSPropertyOp40
 70
     1
102
RTVSPropertyOp41
 70
     1
102
RTVSPropertyOp42
 70
     1
102
RTVSPropertyOp43
 70
     1
102
RTVSPropertyOp44
 70
     1
102
RTVSPropertyOp45
 70
     1
102
RTVSPropertyOp46
 70
     1
102
RTVSPropertyOp47
 70
     1
102
RTVSPropertyOp48
 70
     1
102
RTVSPropertyOp49
 70
     1
102
RTVSPropertyOp50
 70
     1
102
RTVSPropertyOp51
 70
     0
102
RTVSPropertyOp52
 70
     0
102
RTVSPropertyOp53
 70
     1
102
RTVSPropertyOp54
 70
     1
102
RTVSPropertyOp55
 70
     1
102
RTVSPropertyOp56
 70
     1
102
RTVSPropertyOp57
 70
     1
102
RTVSPropertyOp58
 70
     1
102
RTVSPropertyOp59
 70
     1
102
RTVSPropertyOp60
 70
     1
102
RTVSPropertyOp61
 70
     1
102
RTVSPropertyOp62
 70
     1
  0
XRECORD
  5
BE4E
102
{ACAD_REACTORS
330
BE4D
102
}
330
BE4D
100
AcDbXrecord
280
     1
102
RTVSPost2010Prop28
280
     0
102
RTVSPost2010PropOp28
 70
     1
102
RTVSPost2010Prop29
280
     1
102
RTVSPost2010PropOp29
 70
     1
102
RTVSPost2010Prop30
280
     1
102
RTVSPost2010PropOp30
 70
     1
102
RTVSPost2010Prop31
280
     0
102
RTVSPost2010PropOp31
 70
     1
102
RTVSPost2010Prop32
280
     0
102
RTVSPost2010PropOp32
 70
     1
102
RTVSPost2010Prop33
280
     0
102
RTVSPost2010PropOp33
 70
     1
102
RTVSPost2010Prop34
280
     0
102
RTVSPost2010PropOp34
 70
     1
102
RTVSPost2010Prop35
280
     0
102
RTVSPost2010PropOp35
 70
     1
102
RTVSPost2010Prop36
280
     0
102
RTVSPost2010PropOp36
 70
     1
102
RTVSPost2010Prop37
 90
       50
102
RTVSPost2010PropOp37
 70
     1
102
RTVSPost2010Prop38
140
0.0
102
RTVSPost2010PropOp38
 70
     1
102
RTVSPost2010Prop39
140
1.0
102
RTVSPost2010PropOp39
 70
     1
102
RTVSPost2010Prop40
 90
        0
102
RTVSPost2010PropOp40
 70
     1
102
RTVSPost2010Prop41ColorIndex
 90
       18
102
RTVSPost2010Prop41ColorRGB
 90
        0
102
RTVSPost2010PropOp41
 70
     1
102
RTVSPost2010Prop42
 90
       50
102
RTVSPost2010PropOp42
 70
     1
102
RTVSPost2010Prop43
 90
        3
102
RTVSPost2010PropOp43
 70
     1
102
RTVSPost2010Prop44ColorIndex
 90
        5
102
RTVSPost2010Prop44ColorRGB
 90
      255
102
RTVSPost2010PropOp44
 70
     1
102
RTVSPost2010Prop45
280
     0
102
RTVSPost2010PropOp45
 70
     1
102
RTVSPost2010Prop46
 90
       50
102
RTVSPost2010PropOp46
 70
     1
102
RTVSPost2010Prop47
 90
       50
102
RTVSPost2010PropOp47
 70
     1
102
RTVSPost2010Prop48
 90
       50
102
RTVSPost2010PropOp48
 70
     1
102
RTVSPost2010Prop49
280
     0
102
RTVSPost2010PropOp49
 70
     1
102
RTVSPost2010Prop50
 90
       50
102
RTVSPost2010PropOp50
 70
     1
102
RTVSPost2010Prop51ColorIndex
 90
      256
102
RTVSPost2010Prop51ColorRGB
 90
-16777216
102
RTVSPost2010PropOp51
 70
     0
102
RTVSPost2010Prop52
140
1.0
102
RTVSPost2010PropOp52
 70
     0
102
RTVSPost2010Prop53
 90
        2
102
RTVSPost2010PropOp53
 70
     1
102
RTVSPost2010Prop54
  1
strokes_ogs.tif
102
RTVSPost2010PropOp54
 70
     1
102
RTVSPost2010Prop55
280
     0
102
RTVSPost2010PropOp55
 70
     1
102
RTVSPost2010Prop56
140
1.0
102
RTVSPost2010PropOp56
 70
     1
102
RTVSPost2010Prop57
140
1.0
102
RTVSPost2010PropOp57
 70
     1
102
RTVSPropertyOp0
 70
     1
102
RTVSPropertyOp1
 70
     1
102
RTVSPropertyOp2
 70
     1
102
RTVSPropertyOp3
 70
     1
102
RTVSPropertyOp4
 70
     1
102
RTVSPropertyOp5
 70
     1
102
RTVSPropertyOp6
 70
     1
102
RTVSPropertyOp7
 70
     1
102
RTVSPropertyOp8
 70
     1
102
RTVSPropertyOp9
 70
     1
102
RTVSPropertyOp10
 70
     1
102
RTVSPropertyOp11
 70
     1
102
RTVSPropertyOp12
 70
     1
102
RTVSPropertyOp13
 70
     1
102
RTVSPropertyOp14
 70
     1
102
RTVSPropertyOp15
 70
     1
102
RTVSPropertyOp16
 70
     1
102
RTVSPropertyOp17
 70
     1
102
RTVSPropertyOp18
 70
     1
102
RTVSPropertyOp19
 70
     1
102
RTVSPropertyOp20
 70
     1
102
RTVSPropertyOp21
 70
     1
102
RTVSPropertyOp22
 70
     1
102
RTVSPropertyOp23
 70
     1
102
RTVSPropertyOp24
 70
     1
102
RTVSPropertyOp25
 70
     1
102
RTVSPropertyOp26
 70
     1
102
RTVSPropertyOp27
 70
     1
102
RTVSPropertyOp28
 70
     1
102
RTVSPropertyOp29
 70
     1
102
RTVSPropertyOp30
 70
     1
102
RTVSPropertyOp31
 70
     1
102
RTVSPropertyOp32
 70
     1
102
RTVSPropertyOp33
 70
     1
102
RTVSPropertyOp34
 70
     1
102
RTVSPropertyOp35
 70
     1
102
RTVSPropertyOp36
 70
     1
102
RTVSPropertyOp37
 70
     1
102
RTVSPropertyOp38
 70
     1
102
RTVSPropertyOp39
 70
     1
102
RTVSPropertyOp40
 70
     1
102
RTVSPropertyOp41
 70
     1
102
RTVSPropertyOp42
 70
     1
102
RTVSPropertyOp43
 70
     1
102
RTVSPropertyOp44
 70
     1
102
RTVSPropertyOp45
 70
     1
102
RTVSPropertyOp46
 70
     1
102
RTVSPropertyOp47
 70
     1
102
RTVSPropertyOp48
 70
     1
102
RTVSPropertyOp49
 70
     1
102
RTVSPropertyOp50
 70
     1
102
RTVSPropertyOp51
 70
     0
102
RTVSPropertyOp52
 70
     0
102
RTVSPropertyOp53
 70
     1
102
RTVSPropertyOp54
 70
     1
102
RTVSPropertyOp55
 70
     1
102
RTVSPropertyOp56
 70
     1
102
RTVSPropertyOp57
 70
     1
102
RTVSPropertyOp58
 70
     1
102
RTVSPropertyOp59
 70
     1
102
RTVSPropertyOp60
 70
     1
102
RTVSPropertyOp61
 70
     1
102
RTVSPropertyOp62
 70
     1
  0
ENDSEC
  0
EOF
