  0
SECTION
  2
HEADER
  9
$ACADVER
  1
AC1015
  9
$ACADMAINTVER
 70
    18
  9
$DWGCODEPAGE
  3
ANSI_1252
  9
$INSBASE
 10
0.0
 20
0.0
 30
0.0
  9
$EXTMIN
 10
-255.6234734407899
 20
-312.480834633206
 30
-0.0015258207003583
  9
$EXTMAX
 10
367.2052011117401
 20
314.1168372592852
 30
0.0000000349246037
  9
$LIMMIN
 10
0.0
 20
0.0
  9
$LIMMAX
 10
420.0
 20
297.0
  9
$ORTHOMODE
 70
     0
  9
$REGENMODE
 70
     1
  9
$FILLMODE
 70
     1
  9
$QTEXTMODE
 70
     0
  9
$MIRRTEXT
 70
     0
  9
$LTSCALE
 40
1.0
  9
$ATTMODE
 70
     1
  9
$TEXTSIZE
 40
2.5
  9
$TRACEWID
 40
1.0
  9
$TEXTSTYLE
  7
Standard
  9
$CLAYER
  8
0
  9
$CELTYPE
  6
ByLayer
  9
$CECOLOR
 62
   256
  9
$CELTSCALE
 40
1.0
  9
$DISPSILH
 70
     0
  9
$DIMSCALE
 40
1.0
  9
$DIMASZ
 40
2.5
  9
$DIMEXO
 40
0.625
  9
$DIMDLI
 40
3.75
  9
$DIMRND
 40
0.0
  9
$DIMDLE
 40
0.0
  9
$DIMEXE
 40
1.25
  9
$DIMTP
 40
0.0
  9
$DIMTM
 40
0.0
  9
$DIMTXT
 40
2.5
  9
$DIMCEN
 40
2.5
  9
$DIMTSZ
 40
0.0
  9
$DIMTOL
 70
     0
  9
$DIMLIM
 70
     0
  9
$DIMTIH
 70
     0
  9
$DIMTOH
 70
     0
  9
$DIMSE1
 70
     0
  9
$DIMSE2
 70
     0
  9
$DIMTAD
 70
     1
  9
$DIMZIN
 70
     8
  9
$DIMBLK
  1

  9
$DIMASO
 70
     1
  9
$DIMSHO
 70
     1
  9
$DIMPOST
  1

  9
$DIMAPOST
  1

  9
$DIMALT
 70
     0
  9
$DIMALTD
 70
     3
  9
$DIMALTF
 40
0.03937007874016
  9
$DIMLFAC
 40
1.0
  9
$DIMTOFL
 70
     1
  9
$DIMTVP
 40
0.0
  9
$DIMTIX
 70
     0
  9
$DIMSOXD
 70
     0
  9
$DIMSAH
 70
     0
  9
$DIMBLK1
  1

  9
$DIMBLK2
  1

  9
$DIMSTYLE
  2
ISO-25
  9
$DIMCLRD
 70
     0
  9
$DIMCLRE
 70
     0
  9
$DIMCLRT
 70
     0
  9
$DIMTFAC
 40
1.0
  9
$DIMGAP
 40
0.625
  9
$DIMJUST
 70
     0
  9
$DIMSD1
 70
     0
  9
$DIMSD2
 70
     0
  9
$DIMTOLJ
 70
     0
  9
$DIMTZIN
 70
     8
  9
$DIMALTZ
 70
     0
  9
$DIMALTTZ
 70
     0
  9
$DIMUPT
 70
     0
  9
$DIMDEC
 70
     2
  9
$DIMTDEC
 70
     2
  9
$DIMALTU
 70
     2
  9
$DIMALTTD
 70
     3
  9
$DIMTXSTY
  7
Standard
  9
$DIMAUNIT
 70
     0
  9
$DIMADEC
 70
     0
  9
$DIMALTRND
 40
0.0
  9
$DIMAZIN
 70
     0
  9
$DIMDSEP
 70
    44
  9
$DIMATFIT
 70
     3
  9
$DIMFRAC
 70
     0
  9
$DIMLDRBLK
  1

  9
$DIMLUNIT
 70
     2
  9
$DIMLWD
 70
    -2
  9
$DIMLWE
 70
    -2
  9
$DIMTMOVE
 70
     0
  9
$LUNITS
 70
     2
  9
$LUPREC
 70
     4
  9
$SKETCHINC
 40
1.0
  9
$FILLETRAD
 40
0.0
  9
$AUNITS
 70
     0
  9
$AUPREC
 70
     0
  9
$MENU
  1
.
  9
$ELEVATION
 40
0.0
  9
$PELEVATION
 40
0.0
  9
$THICKNESS
 40
0.0
  9
$LIMCHECK
 70
     0
  9
$CHAMFERA
 40
0.0
  9
$CHAMFERB
 40
0.0
  9
$CHAMFERC
 40
0.0
  9
$CHAMFERD
 40
0.0
  9
$SKPOLY
 70
     0
  9
$TDCREATE
 40
2460398.356956019
  9
$TDUCREATE
 40
2460398.065289352
  9
$TDUPDATE
 40
2460398.392777778
  9
$TDUUPDATE
 40
2460398.101111112
  9
$TDINDWG
 40
0.0103819444
  9
$TDUSRTIMER
 40
0.0103819444
  9
$USRTIMER
 70
     1
  9
$ANGBASE
 50
0.0
  9
$ANGDIR
 70
     0
  9
$PDMODE
 70
     0
  9
$PDSIZE
 40
0.0
  9
$PLINEWID
 40
0.0
  9
$SPLFRAME
 70
     0
  9
$SPLINETYPE
 70
     6
  9
$SPLINESEGS
 70
     8
  9
$HANDSEED
  5
2C83E
  9
$SURFTAB1
 70
     6
  9
$SURFTAB2
 70
     6
  9
$SURFTYPE
 70
     6
  9
$SURFU
 70
     6
  9
$SURFV
 70
     6
  9
$UCSBASE
  2

  9
$UCSNAME
  2

  9
$UCSORG
 10
0.0
 20
0.0
 30
0.0
  9
$UCSXDIR
 10
1.0
 20
0.0
 30
0.0
  9
$UCSYDIR
 10
0.0
 20
1.0
 30
0.0
  9
$UCSORTHOREF
  2

  9
$UCSORTHOVIEW
 70
     0
  9
$UCSORGTOP
 10
0.0
 20
0.0
 30
0.0
  9
$UCSORGBOTTOM
 10
0.0
 20
0.0
 30
0.0
  9
$UCSORGLEFT
 10
0.0
 20
0.0
 30
0.0
  9
$UCSORGRIGHT
 10
0.0
 20
0.0
 30
0.0
  9
$UCSORGFRONT
 10
0.0
 20
0.0
 30
0.0
  9
$UCSORGBACK
 10
0.0
 20
0.0
 30
0.0
  9
$PUCSBASE
  2

  9
$PUCSNAME
  2

  9
$PUCSORG
 10
0.0
 20
0.0
 30
0.0
  9
$PUCSXDIR
 10
1.0
 20
0.0
 30
0.0
  9
$PUCSYDIR
 10
0.0
 20
1.0
 30
0.0
  9
$PUCSORTHOREF
  2

  9
$PUCSORTHOVIEW
 70
     0
  9
$PUCSORGTOP
 10
0.0
 20
0.0
 30
0.0
  9
$PUCSORGBOTTOM
 10
0.0
 20
0.0
 30
0.0
  9
$PUCSORGLEFT
 10
0.0
 20
0.0
 30
0.0
  9
$PUCSORGRIGHT
 10
0.0
 20
0.0
 30
0.0
  9
$PUCSORGFRONT
 10
0.0
 20
0.0
 30
0.0
  9
$PUCSORGBACK
 10
0.0
 20
0.0
 30
0.0
  9
$USERI1
 70
     0
  9
$USERI2
 70
     0
  9
$USERI3
 70
     0
  9
$USERI4
 70
     0
  9
$USERI5
 70
     0
  9
$USERR1
 40
0.0
  9
$USERR2
 40
0.0
  9
$USERR3
 40
0.0
  9
$USERR4
 40
0.0
  9
$USERR5
 40
0.0
  9
$WORLDVIEW
 70
     1
  9
$SHADEDGE
 70
     3
  9
$SHADEDIF
 70
    70
  9
$TILEMODE
 70
     1
  9
$MAXACTVP
 70
    48
  9
$PINSBASE
 10
0.0
 20
0.0
 30
0.0
  9
$PLIMCHECK
 70
     0
  9
$PEXTMIN
 10
0.0
 20
0.0
 30
0.0
  9
$PEXTMAX
 10
0.0
 20
0.0
 30
0.0
  9
$PLIMMIN
 10
0.0
 20
0.0
  9
$PLIMMAX
 10
12.0
 20
9.0
  9
$UNITMODE
 70
     0
  9
$VISRETAIN
 70
     1
  9
$PLINEGEN
 70
     0
  9
$PSLTSCALE
 70
     1
  9
$TREEDEPTH
 70
  3020
  9
$CMLSTYLE
  2
Standard
  9
$CMLJUST
 70
     0
  9
$CMLSCALE
 40
20.0
  9
$PROXYGRAPHICS
 70
     1
  9
$MEASUREMENT
 70
     1
  9
$CELWEIGHT
370
    -1
  9
$ENDCAPS
280
     0
  9
$JOINSTYLE
280
     0
  9
$LWDISPLAY
290
     0
  9
$INSUNITS
 70
     4
  9
$HYPERLINKBASE
  1

  9
$STYLESHEET
  1

  9
$XEDIT
290
     1
  9
$CEPSNTYPE
380
     0
  9
$PSTYLEMODE
290
     1
  9
$FINGERPRINTGUID
  2
{6C1266EE-7BC1-BF4A-B059-A6E7702B10CE}
  9
$VERSIONGUID
  2
{D62C7E85-987E-9B4E-B9BA-B594AA10339F}
  9
$EXTNAMES
290
     1
  9
$PSVPSCALE
 40
0.0
  9
$OLESTARTUP
290
     0
  0
ENDSEC
  0
SECTION
  2
CLASSES
  0
CLASS
  1
ACDBDICTIONARYWDFLT
  2
AcDbDictionaryWithDefault
  3
ObjectDBX Classes
 90
        0
280
     0
281
     0
  0
CLASS
  1
ACDBPLACEHOLDER
  2
AcDbPlaceHolder
  3
ObjectDBX Classes
 90
        0
280
     0
281
     0
  0
CLASS
  1
LAYOUT
  2
AcDbLayout
  3
ObjectDBX Classes
 90
        0
280
     0
281
     0
  0
CLASS
  1
DICTIONARYVAR
  2
AcDbDictionaryVar
  3
ObjectDBX Classes
 90
        0
280
     0
281
     0
  0
CLASS
  1
TABLESTYLE
  2
AcDbTableStyle
  3
ObjectDBX Classes
 90
     4095
280
     0
281
     0
  0
CLASS
  1
MATERIAL
  2
AcDbMaterial
  3
ObjectDBX Classes
 90
     1153
280
     0
281
     0
  0
CLASS
  1
VISUALSTYLE
  2
AcDbVisualStyle
  3
ObjectDBX Classes
 90
     4095
280
     0
281
     0
  0
CLASS
  1
SCALE
  2
AcDbScale
  3
ObjectDBX Classes
 90
     1153
280
     0
281
     0
  0
CLASS
  1
MLEADERSTYLE
  2
AcDbMLeaderStyle
  3
ACDB_MLEADERSTYLE_CLASS
 90
     4095
280
     0
281
     0
  0
CLASS
  1
CELLSTYLEMAP
  2
AcDbCellStyleMap
  3
ObjectDBX Classes
 90
     1152
280
     0
281
     0
  0
CLASS
  1
EXACXREFPANELOBJECT
  2
ExAcXREFPanelObject
  3
EXAC_ESW
 90
    33793
280
     0
281
     0
  0
CLASS
  1
NPOCOLLECTION
  2
AcDbImpNonPersistentObjectsCollection
  3
ObjectDBX Classes
 90
    33921
280
     0
281
     0
  0
CLASS
  1
LAYER_INDEX
  2
AcDbLayerIndex
  3
ObjectDBX Classes
 90
    32768
280
     0
281
     0
  0
CLASS
  1
SPATIAL_INDEX
  2
AcDbSpatialIndex
  3
ObjectDBX Classes
 90
    32768
280
     0
281
     0
  0
CLASS
  1
IDBUFFER
  2
AcDbIdBuffer
  3
ObjectDBX Classes
 90
    32768
280
     0
281
     0
  0
CLASS
  1
ACDBSECTIONVIEWSTYLE
  2
AcDbSectionViewStyle
  3
ObjectDBX Classes
 90
     1025
280
     0
281
     0
  0
CLASS
  1
ACDBDETAILVIEWSTYLE
  2
AcDbDetailViewStyle
  3
ObjectDBX Classes
 90
     1025
280
     0
281
     0
  0
CLASS
  1
XRECORD
  2
AcDbXrecord
  3
ObjectDBX Classes
 90
        0
280
     0
281
     0
  0
ENDSEC
  0
SECTION
  2
TABLES
  0
TABLE
  2
VPORT
  5
8
102
{ACAD_XDICTIONARY
360
2C74C
102
}
330
0
100
AcDbSymbolTable
 70
     1
  0
VPORT
  5
EA
330
8
100
AcDbSymbolTableRecord
100
AcDbViewportTableRecord
  2
*Active
 70
     0
 10
0.0
 20
0.0
 11
1.0
 21
1.0
 12
55.79086383547508
 22
0.8180013130395877
 13
0.0
 23
0.0
 14
10.0
 24
10.0
 15
10.0
 25
10.0
 16
0.0
 26
0.0
 36
1.0
 17
0.0
 27
0.0
 37
0.0
 40
672.777156654642
 41
0.9846153846153846
 42
50.0
 43
0.0
 44
0.0
 50
0.0
 51
0.0
 71
     0
 72
  1000
 73
     1
 74
     3
 75
     0
 76
     1
 77
     0
 78
     0
281
     0
 65
     1
110
0.0
120
0.0
130
0.0
111
1.0
121
0.0
131
0.0
112
0.0
122
1.0
132
0.0
 79
     0
146
0.0
1001
ACAD_NAV_VCDISPLAY
1070
     3
  0
ENDTAB
  0
TABLE
  2
LTYPE
  5
5
330
0
100
AcDbSymbolTable
 70
     1
  0
LTYPE
  5
14
330
5
100
AcDbSymbolTableRecord
100
AcDbLinetypeTableRecord
  2
ByBlock
 70
     0
  3

 72
    65
 73
     0
 40
0.0
  0
LTYPE
  5
15
330
5
100
AcDbSymbolTableRecord
100
AcDbLinetypeTableRecord
  2
ByLayer
 70
     0
  3

 72
    65
 73
     0
 40
0.0
  0
LTYPE
  5
16
330
5
100
AcDbSymbolTableRecord
100
AcDbLinetypeTableRecord
  2
Continuous
 70
     0
  3
Solid line
 72
    65
 73
     0
 40
0.0
  0
ENDTAB
  0
TABLE
  2
LAYER
  5
2
102
{ACAD_XDICTIONARY
360
1FF
102
}
330
0
100
AcDbSymbolTable
 70
     1
  0
LAYER
  5
10
102
{ACAD_XDICTIONARY
360
13C
102
}
330
2
100
AcDbSymbolTableRecord
100
AcDbLayerTableRecord
  2
0
 70
     0
 62
     7
  6
Continuous
370
    -3
390
F
  0
ENDTAB
  0
TABLE
  2
STYLE
  5
3
330
0
100
AcDbSymbolTable
 70
     1
  0
STYLE
  5
11
330
3
100
AcDbSymbolTableRecord
100
AcDbTextStyleTableRecord
  2
Standard
 70
     0
 40
0.0
 41
1.0
 50
0.0
 71
     0
 42
2.5
  3
arial.ttf
  4

1001
ACAD
1000
Arial
1071
       34
  0
ENDTAB
  0
TABLE
  2
VIEW
  5
6
330
0
100
AcDbSymbolTable
 70
     0
  0
ENDTAB
  0
TABLE
  2
UCS
  5
7
330
0
100
AcDbSymbolTable
 70
     0
  0
ENDTAB
  0
TABLE
  2
APPID
  5
9
330
0
100
AcDbSymbolTable
 70
     8
  0
APPID
  5
12
330
9
100
AcDbSymbolTableRecord
100
AcDbRegAppTableRecord
  2
ACAD
 70
     0
  0
APPID
  5
9E
330
9
100
AcDbSymbolTableRecord
100
AcDbRegAppTableRecord
  2
ACAD_PSEXT
 70
     0
  0
APPID
  5
133
330
9
100
AcDbSymbolTableRecord
100
AcDbRegAppTableRecord
  2
AcadAnnoPO
 70
     0
  0
APPID
  5
134
330
9
100
AcDbSymbolTableRecord
100
AcDbRegAppTableRecord
  2
AcadAnnotative
 70
     0
  0
APPID
  5
135
330
9
100
AcDbSymbolTableRecord
100
AcDbRegAppTableRecord
  2
ACAD_DSTYLE_DIMJAG
 70
     0
  0
APPID
  5
136
330
9
100
AcDbSymbolTableRecord
100
AcDbRegAppTableRecord
  2
ACAD_DSTYLE_DIMTALN
 70
     0
  0
APPID
  5
165
330
9
100
AcDbSymbolTableRecord
100
AcDbRegAppTableRecord
  2
ACAD_MLEADERVER
 70
     0
  0
APPID
  5
217
330
9
100
AcDbSymbolTableRecord
100
AcDbRegAppTableRecord
  2
ACAD_NAV_VCDISPLAY
 70
     0
  0
ENDTAB
  0
TABLE
  2
DIMSTYLE
  5
A
330
0
100
AcDbSymbolTable
 70
     1
100
AcDbDimStyleTable
 71
     0
  0
DIMSTYLE
105
27
330
A
100
AcDbSymbolTableRecord
100
AcDbDimStyleTableRecord
  2
ISO-25
 70
     0
 41
2.5
 42
0.625
 43
3.75
 44
1.25
 73
     0
 74
     0
 77
     1
 78
     8
140
2.5
141
2.5
143
0.03937007874016
147
0.625
171
     3
172
     1
271
     2
272
     2
274
     3
278
    44
283
     0
284
     8
340
11
  0
ENDTAB
  0
TABLE
  2
BLOCK_RECORD
  5
1
330
0
100
AcDbSymbolTable
 70
     7
  0
BLOCK_RECORD
  5
1F
102
{ACAD_XDICTIONARY
360
1CE
102
}
330
1
100
AcDbSymbolTableRecord
100
AcDbBlockTableRecord
  2
*Model_Space
340
22
  0
BLOCK_RECORD
  5
D2
102
{ACAD_XDICTIONARY
360
2C6FF
102
}
330
1
100
AcDbSymbolTableRecord
100
AcDbBlockTableRecord
  2
*Paper_Space
340
D3
  0
BLOCK_RECORD
  5
D6
102
{ACAD_XDICTIONARY
360
2C701
102
}
330
1
100
AcDbSymbolTableRecord
100
AcDbBlockTableRecord
  2
*Paper_Space0
340
D7
  0
BLOCK_RECORD
  5
2C51A
330
1
100
AcDbSymbolTableRecord
100
AcDbBlockTableRecord
  2
SAEL500_150_2-Front
340
0
102
{BLKREFS
331
2C6F5
102
}
  0
BLOCK_RECORD
  5
2C586
330
1
100
AcDbSymbolTableRecord
100
AcDbBlockTableRecord
  2
SAEL500_150_2-Left
340
0
102
{BLKREFS
331
2C6F6
102
}
  0
BLOCK_RECORD
  5
2C5B1
330
1
100
AcDbSymbolTableRecord
100
AcDbBlockTableRecord
  2
SAEL500_150_2-Right
340
0
102
{BLKREFS
331
2C6F7
102
}
  0
BLOCK_RECORD
  5
2C5DA
330
1
100
AcDbSymbolTableRecord
100
AcDbBlockTableRecord
  2
SAEL500_150_2-Top
340
0
102
{BLKREFS
331
2C6F8
102
}
  0
BLOCK_RECORD
  5
2C61A
330
1
100
AcDbSymbolTableRecord
100
AcDbBlockTableRecord
  2
SAEL500_150_2-Bottom
340
0
102
{BLKREFS
331
2C6F9
102
}
  0
BLOCK_RECORD
  5
2C644
330
1
100
AcDbSymbolTableRecord
100
AcDbBlockTableRecord
  2
SAEL500_150_2-ISO
340
0
102
{BLKREFS
331
2C6FA
102
}
  0
ENDTAB
  0
ENDSEC
  0
SECTION
  2
BLOCKS
  0
BLOCK
  5
20
330
1F
100
AcDbEntity
  8
0
100
AcDbBlockBegin
  2
*Model_Space
 70
     0
 10
0.0
 20
0.0
 30
0.0
  3
*Model_Space
  1

  0
ENDBLK
  5
21
330
1F
100
AcDbEntity
  8
0
100
AcDbBlockEnd
  0
BLOCK
  5
D4
330
D2
100
AcDbEntity
 67
     1
  8
0
100
AcDbBlockBegin
  2
*Paper_Space
 70
     0
 10
0.0
 20
0.0
 30
0.0
  3
*Paper_Space
  1

  0
ENDBLK
  5
D5
330
D2
100
AcDbEntity
 67
     1
  8
0
100
AcDbBlockEnd
  0
BLOCK
  5
D8
330
D6
100
AcDbEntity
 67
     1
  8
0
100
AcDbBlockBegin
  2
*Paper_Space0
 70
     0
 10
0.0
 20
0.0
 30
0.0
  3
*Paper_Space0
  1

  0
ENDBLK
  5
D9
330
D6
100
AcDbEntity
 67
     1
  8
0
100
AcDbBlockEnd
  0
BLOCK
  5
2C51B
330
2C51A
100
AcDbEntity
  8
0
100
AcDbBlockBegin
  2
SAEL500_150_2-Front
 70
     0
 10
0.0
 20
0.0
 30
0.0
  3
SAEL500_150_2-Front
  1

  0
SPLINE
  5
2C51D
330
2C51A
100
AcDbEntity
  8
0
100
AcDbSpline
210
0.0
220
0.0
230
1.0
 70
     8
 71
     3
 72
    14
 73
    10
 74
     0
 42
0.000000001
 43
0.0000000001
 40
0.0
 40
0.0
 40
0.0
 40
0.0
 40
0.2870001856698038
 40
0.2870001856698038
 40
0.2870001856698038
 40
0.828291126202648
 40
0.828291126202648
 40
0.828291126202648
 40
0.9976758091493969
 40
0.9976758091493969
 40
0.9976758091493969
 40
0.9976758091493969
 10
79.13175911166537
 20
5.46251060667355
 30
0.0
 10
78.7722239242232
 20
5.399114891846261
 30
0.0
 10
78.46620915172107
 20
5.272679561559229
 30
0.0
 10
78.18206703770856
 20
5.089566824519335
 30
0.0
 10
77.64616650586791
 20
4.744210721614571
 30
0.0
 10
77.24264309979002
 20
4.210651672266397
 30
0.0
 10
77.07927432865017
 20
3.590857296061474
 30
0.0
 10
77.0281517891233
 20
3.39690674924038
 30
0.0
 10
77.00192552935998
 20
3.19430902362867
 30
0.0
 10
77.00006291307015
 20
2.988474800145033
 30
0.0
  0
LINE
  5
2C51E
330
2C51A
100
AcDbEntity
  8
0
100
AcDbLine
 10
79.00000000000002
 20
5.462510606673554
 30
0.0
 11
79.13175911166542
 21
5.462510606673554
 31
0.0
  0
LINE
  5
2C51F
330
2C51A
100
AcDbEntity
  8
0
100
AcDbLine
 10
77.0
 20
5.462510606673554
 30
0.0
 11
79.00000000000002
 21
5.462510606673554
 31
0.0
  0
SPLINE
  5
2C520
330
2C51A
100
AcDbEntity
  8
0
100
AcDbSpline
210
0.0
220
0.0
230
1.0
 70
     8
 71
     3
 72
    10
 73
     6
 74
     0
 42
0.000000001
 43
0.0000000001
 40
0.0
 40
0.0
 40
0.0
 40
0.0
 40
0.0028844360395606
 40
0.0028844360395606
 40
0.0032912788731838
 40
0.0032912788731838
 40
0.0032912788731838
 40
0.0032912788731838
 10
74.99959270886884
 20
2.980002333299639
 30
0.0
 10
74.99959854625092
 20
2.988349605396527
 30
0.0
 10
74.99960626485123
 20
2.996364142577433
 30
0.0
 10
74.99961590361056
 20
3.00476711705255
 30
0.0
 10
74.99961710739142
 20
3.005794210579173
 30
0.0
 10
74.99961831519602
 20
3.006808526861338
 30
0.0
  0
SPLINE
  5
2C521
330
2C51A
100
AcDbEntity
  8
0
100
AcDbSpline
210
0.0
220
0.0
230
1.0
 70
     8
 71
     3
 72
    10
 73
     6
 74
     0
 42
0.000000001
 43
0.0000000001
 40
0.0
 40
0.0
 40
0.0
 40
0.0
 40
0.0046978475858249
 40
0.0046978475858249
 40
0.0087436938189862
 40
0.0087436938189862
 40
0.0087436938189862
 40
0.0087436938189862
 10
74.99992652900937
 20
2.979999055981232
 30
0.0
 10
74.99978988754499
 20
2.992117112299413
 30
0.0
 10
74.99965158916125
 20
3.003991090445117
 30
0.0
 10
74.99942742532299
 20
3.023102819504543
 30
0.0
 10
74.99933621634323
 20
3.030811395860479
 30
0.0
 10
74.99926148420894
 20
3.037085840808715
 30
0.0
  0
SPLINE
  5
2C522
330
2C51A
100
AcDbEntity
  8
0
100
AcDbSpline
210
0.0
220
0.0
230
1.0
 70
     8
 71
     3
 72
    36
 73
    32
 74
     0
 42
0.000000001
 43
0.0000000001
 40
0.007123428826106
 40
0.007123428826106
 40
0.007123428826106
 40
0.007123428826106
 40
0.0372787544036889
 40
0.0372787544036889
 40
0.0477692134054158
 40
0.0477692134054158
 40
0.0570758374697117
 40
0.0570758374697117
 40
0.0618739970244871
 40
0.0618739970244871
 40
0.0638227256709645
 40
0.0638227256709645
 40
0.0647553424489799
 40
0.0647553424489799
 40
0.065690857998521
 40
0.065690857998521
 40
0.0666274952504994
 40
0.0666274952504994
 40
0.068517346590145
 40
0.068517346590145
 40
0.0722586696847517
 40
0.0722586696847517
 40
0.0782470870373349
 40
0.0782470870373349
 40
0.0962084368610302
 40
0.0962084368610302
 40
0.1500542299696441
 40
0.1500542299696441
 40
0.2511206768360323
 40
0.2511206768360323
 40
0.3078372169339896
 40
0.3078372169339896
 40
0.3078372169339896
 40
0.3078372169339896
 10
74.99994258139896
 20
2.984864694598003
 30
0.0
 10
74.99990121548183
 20
2.989799726175043
 30
0.0
 10
75.00000836537179
 20
2.979410370229978
 30
0.0
 10
74.99998084707003
 20
2.981753353260028
 30
0.0
 10
74.99987044905762
 20
2.991025862316553
 30
0.0
 10
74.99956086255645
 20
3.015005177122447
 30
0.0
 10
74.99937820183008
 20
3.028638130069929
 30
0.0
 10
74.99905252202683
 20
3.052285006850606
 30
0.0
 10
74.99893296734788
 20
3.060875252214061
 30
0.0
 10
74.99872566273819
 20
3.075779113525245
 30
0.0
 10
74.99866008668927
 20
3.080495187336254
 30
0.0
 10
74.99855127247634
 20
3.088358448369668
 30
0.0
 10
74.99851391530246
 20
3.091063587769198
 30
0.0
 10
74.9984356799887
 20
3.096749065892558
 30
0.0
 10
74.99839428725088
 20
3.099767157076041
 30
0.0
 10
74.99831039504596
 20
3.105913498908272
 30
0.0
 10
74.99826732998117
 20
3.109083488579072
 30
0.0
 10
74.99814047306148
 20
3.11847304667956
 30
0.0
 10
74.99805861798603
 20
3.12460193140407
 30
0.0
 10
74.99782965345589
 20
3.141952162363739
 30
0.0
 10
74.99769129844466
 20
3.152720073836186
 30
0.0
 10
74.99735482905219
 20
3.179664205787827
 30
0.0
 10
74.99716848317664
 20
3.195384692256081
 30
0.0
 10
74.99648080108963
 20
3.256925875263034
 30
0.0
 10
74.99609632796971
 20
3.300180534683617
 30
0.0
 10
74.99495997210795
 20
3.470124769655434
 30
0.0
 10
74.99493666228501
 20
3.596327347170539
 30
0.0
 10
74.99651676167116
 20
4.009715135536256
 30
0.0
 10
74.99907014695233
 20
4.319101632144981
 30
0.0
 10
74.99999359842229
 20
4.826424463129498
 30
0.0
 10
74.99999133405454
 20
5.015425486812072
 30
0.0
 10
75.00000003590315
 20
5.203884926287686
 30
0.0
  0
SPLINE
  5
2C523
330
2C51A
100
AcDbEntity
  8
0
100
AcDbSpline
210
0.0
220
0.0
230
1.0
 70
     8
 71
     3
 72
    12
 73
     8
 74
     0
 42
0.000000001
 43
0.0000000001
 40
0.0
 40
0.0
 40
0.0
 40
0.0
 40
0.0034395459021266
 40
0.0034395459021266
 40
0.0064014190394349
 40
0.0064014190394349
 40
0.0082415489428674
 40
0.0082415489428674
 40
0.0082415489428674
 40
0.0082415489428674
 10
74.99994892661185
 20
2.979999999137342
 30
0.0
 10
74.9999366977123
 20
2.989490316264966
 30
0.0
 10
74.99992476289839
 20
2.998108771582632
 30
0.0
 10
74.9999055495638
 20
3.010207999967886
 30
0.0
 10
74.99989768226821
 20
3.014371448821778
 30
0.0
 10
74.99989024515571
 20
3.01797050122932
 30
0.0
 10
74.99988862119369
 20
3.018647031202096
 30
0.0
 10
74.99988862119572
 20
3.018647030357364
 30
0.0
  0
SPLINE
  5
2C524
330
2C51A
100
AcDbEntity
  8
0
100
AcDbSpline
210
0.0
220
0.0
230
1.0
 70
     8
 71
     3
 72
    10
 73
     6
 74
     0
 42
0.000000001
 43
0.0000000001
 40
0.0156910366000465
 40
0.0156910366000465
 40
0.0156910366000465
 40
0.0156910366000465
 40
0.0169445936136225
 40
0.0169445936136225
 40
0.0175113995565473
 40
0.0175113995565473
 40
0.0175113995565473
 40
0.0175113995565473
 10
77.0
 20
2.996749842492503
 30
0.0
 10
77.00002403353579
 20
2.99290876778833
 30
0.0
 10
77.00005145648711
 20
2.989053092790177
 30
0.0
 10
77.00009524178245
 20
2.983471393776378
 30
0.0
 10
77.00010943729839
 20
2.981735225634508
 30
0.0
 10
77.00012413304988
 20
2.98000322760842
 30
0.0
  0
SPLINE
  5
2C525
330
2C51A
100
AcDbEntity
  8
0
100
AcDbSpline
210
0.0
220
0.0
230
1.0
 70
     8
 71
     3
 72
    14
 73
    10
 74
     0
 42
0.000000001
 43
0.0000000001
 40
0.0126427122979375
 40
0.0126427122979375
 40
0.0126427122979375
 40
0.0126427122979375
 40
0.0127966412921529
 40
0.0127966412921529
 40
0.0130268138359355
 40
0.0130268138359355
 40
0.0131131281561233
 40
0.0131131281561233
 40
0.0131778638725981
 40
0.0131778638725981
 40
0.0131778638725981
 40
0.0131778638725981
 10
77.00000000000007
 20
2.982323139400326
 30
0.0
 10
77.0000040111597
 20
2.982100895635507
 30
0.0
 10
77.00000801918609
 20
2.981879514088617
 30
0.0
 10
77.00001800717785
 20
2.981329510370334
 30
0.0
 10
77.0000239806197
 20
2.981002080381847
 30
0.0
 10
77.00003216736428
 20
2.98055532315495
 30
0.0
 10
77.00003439737703
 20
2.980433834005649
 30
0.0
 10
77.0000382944107
 20
2.980221879350708
 30
0.0
 10
77.00003996280584
 20
2.980131250893615
 30
0.0
 10
77.0000416292655
 20
2.980040839643746
 30
0.0
  0
SPLINE
  5
2C526
330
2C51A
100
AcDbEntity
  8
0
100
AcDbSpline
210
0.0
220
0.0
230
1.0
 70
     8
 71
     3
 72
     8
 73
     4
 74
     0
 42
0.000000001
 43
0.0000000001
 40
0.0055426499226471
 40
0.0055426499226471
 40
0.0055426499226471
 40
0.0055426499226471
 40
0.0057998794562748
 40
0.0057998794562748
 40
0.0057998794562748
 40
0.0057998794562748
 10
76.99999999960718
 20
2.980183893543238
 30
0.0
 10
77.00000162197169
 20
2.980120090707255
 30
0.0
 10
77.00000318269696
 20
2.980058860513262
 30
0.0
 10
77.00000468268315
 20
2.980000123055426
 30
0.0
  0
SPLINE
  5
2C527
330
2C51A
100
AcDbEntity
  8
0
100
AcDbSpline
210
0.0
220
0.0
230
1.0
 70
     8
 71
     3
 72
    11
 73
     7
 74
     0
 42
0.000000001
 43
0.0000000001
 40
-0.9986961890616623
 40
-0.9986961890616623
 40
-0.9986961890616623
 40
-0.9986961890616623
 40
-0.3390592625089725
 40
-0.3390592625089725
 40
-0.3390592625089725
 40
0.0
 40
0.0
 40
0.0
 40
0.0
 10
-77.00000469935796
 20
2.98477084946004
 30
0.0
 10
-77.00160258708279
 20
3.789199609773859
 30
0.0
 10
-77.41053366754101
 20
4.521139754961237
 30
0.0
 10
-78.0312617534187
 20
4.984710580813551
 30
0.0
 10
-78.35032152485415
 20
5.222990119158357
 30
0.0
 10
-78.72931332025235
 20
5.387263259035916
 30
0.0
 10
-79.13175911206898
 20
5.462510606767576
 30
0.0
  0
LINE
  5
2C528
330
2C51A
100
AcDbEntity
  8
0
100
AcDbLine
 10
-79.00000000000002
 20
5.462510606673554
 30
0.0
 11
-77.0
 21
5.462510606673554
 31
0.0
  0
SPLINE
  5
2C529
330
2C51A
100
AcDbEntity
  8
0
100
AcDbSpline
210
0.0
220
0.0
230
1.0
 70
     8
 71
     3
 72
    28
 73
    24
 74
     0
 42
0.000000001
 43
0.0000000001
 40
0.0083012047999639
 40
0.0083012047999639
 40
0.0083012047999639
 40
0.0083012047999639
 40
0.0383813883046038
 40
0.0383813883046038
 40
0.096371164156749
 40
0.096371164156749
 40
0.1739509332580079
 40
0.1739509332580079
 40
0.183311106981168
 40
0.183311106981168
 40
0.2114112297618585
 40
0.2114112297618585
 40
0.2416294307019402
 40
0.2416294307019402
 40
0.2567360852328947
 40
0.2567360852328947
 40
0.2642843369275202
 40
0.2642843369275202
 40
0.2681072435808434
 40
0.2681072435808434
 40
0.2700070651422976
 40
0.2700070651422976
 40
0.2713881076194306
 40
0.2713881076194306
 40
0.2713881076194306
 40
0.2713881076194306
 10
-75.0
 20
5.187160152393226
 30
0.0
 10
-74.999962241856
 20
5.087328067761789
 30
0.0
 10
-74.99997058342706
 20
4.987985776952491
 30
0.0
 10
-74.99974281210227
 20
4.699424768512985
 30
0.0
 10
-74.99935079310482
 20
4.512621776530975
 30
0.0
 10
-74.99739144403152
 20
4.100796752230414
 30
0.0
 10
-74.99540596394595
 20
3.877584724295185
 30
0.0
 10
-74.99470885272697
 20
3.651537328595297
 30
0.0
 10
-74.99465338458022
 20
3.627506210911075
 30
0.0
 10
-74.99451932885513
 20
3.532558410271205
 30
0.0
 10
-74.99461972757545
 20
3.464106170328735
 30
0.0
 10
-74.99531653466691
 20
3.326196518295787
 30
0.0
 10
-74.99593901801761
 20
3.257682467628212
 30
0.0
 10
-74.99734533123555
 20
3.149255060224024
 30
0.0
 10
-74.99792988829193
 20
3.110215366140536
 30
0.0
 10
-74.99863546247684
 20
3.065091987060401
 30
0.0
 10
-74.99885112243501
 20
3.051553764574335
 30
0.0
 10
-74.99926466302269
 20
3.025725287911382
 30
0.0
 10
-74.99941656147948
 20
3.016263820067779
 30
0.0
 10
-74.99964807169746
 20
3.001777325168228
 30
0.0
 10
-74.99972685345928
 20
2.996834945525333
 30
0.0
 10
-74.99985385800312
 20
2.98883040609839
 30
0.0
 10
-74.99990608370089
 20
2.985524360811322
 30
0.0
 10
-74.99994817428573
 20
2.982852146538517
 30
0.0
  0
SPLINE
  5
2C52A
330
2C51A
100
AcDbEntity
  8
0
100
AcDbSpline
210
0.0
220
0.0
230
1.0
 70
     8
 71
     3
 72
    10
 73
     6
 74
     0
 42
0.000000001
 43
0.0000000001
 40
0.0196037248768604
 40
0.0196037248768604
 40
0.0196037248768604
 40
0.0196037248768604
 40
0.0203454554889736
 40
0.0203454554889736
 40
0.021712523992995
 40
0.021712523992995
 40
0.021712523992995
 40
0.021712523992995
 10
-74.99966997315439
 20
2.997501469914162
 30
0.0
 10
-74.99966741291214
 20
2.995527685557162
 30
0.0
 10
-74.99966487940717
 20
2.993522830352755
 30
0.0
 10
-74.99965785152831
 20
2.987752308506524
 30
0.0
 10
-74.99965344373092
 20
2.983912880653813
 30
0.0
 10
-74.99964918939579
 20
2.98000106675033
 30
0.0
  0
SPLINE
  5
2C52B
330
2C51A
100
AcDbEntity
  8
0
100
AcDbSpline
210
0.0
220
0.0
230
1.0
 70
     8
 71
     3
 72
    10
 73
     6
 74
     0
 42
0.000000001
 43
0.0000000001
 40
0.0192370302931822
 40
0.0192370302931822
 40
0.0192370302931822
 40
0.0192370302931822
 40
0.0212247562916278
 40
0.0212247562916278
 40
0.0258615417005104
 40
0.0258615417005104
 40
0.0258615417005104
 40
0.0258615417005104
 10
-74.9994101901255
 20
3.016649560495681
 30
0.0
 10
-74.99944479463207
 20
3.014135670895428
 30
0.0
 10
-74.99948508257718
 20
3.011191171657507
 30
0.0
 10
-74.99963564925701
 20
3.000096952197091
 30
0.0
 10
-74.99976742685766
 20
2.990273362731413
 30
0.0
 10
-74.99990170993125
 20
2.979998791098323
 30
0.0
  0
SPLINE
  5
2C52C
330
2C51A
100
AcDbEntity
  8
0
100
AcDbSpline
210
0.0
220
0.0
230
1.0
 70
     8
 71
     3
 72
    10
 73
     6
 74
     0
 42
0.000000001
 43
0.0000000001
 40
0.0065557380144999
 40
0.0065557380144999
 40
0.0065557380144999
 40
0.0065557380144999
 40
0.0079500622961581
 40
0.0079500622961581
 40
0.015603727674948
 40
0.015603727674948
 40
0.015603727674948
 40
0.015603727674948
 10
-74.99984058820885
 20
2.990614505798609
 30
0.0
 10
-74.99984058824972
 20
2.990614503176576
 30
0.0
 10
-74.99984219785132
 20
2.990511226519121
 30
0.0
 10
-74.99986022872185
 20
2.989348936208648
 30
0.0
 10
-74.99990772121513
 20
2.986253833289824
 30
0.0
 10
-74.99994681860314
 20
2.983638067273883
 30
0.0
  0
SPLINE
  5
2C52D
330
2C51A
100
AcDbEntity
  8
0
100
AcDbSpline
210
0.0
220
0.0
230
1.0
 70
     8
 71
     3
 72
    14
 73
    10
 74
     0
 42
0.000000001
 43
0.0000000001
 40
0.0155825269642176
 40
0.0155825269642176
 40
0.0155825269642176
 40
0.0155825269642176
 40
0.0158308323063612
 40
0.0158308323063612
 40
0.0198117543632629
 40
0.0198117543632629
 40
0.0218063153123522
 40
0.0218063153123522
 40
0.0248850403855198
 40
0.0248850403855198
 40
0.0248850403855198
 40
0.0248850403855198
 10
-74.99988727208381
 20
3.014356312246969
 30
0.0
 10
-74.99988727208391
 20
3.014356312213647
 30
0.0
 10
-74.99988729117548
 20
3.014349767018524
 30
0.0
 10
-74.99988794015296
 20
3.014123603561605
 30
0.0
 10
-74.99989366437944
 20
3.01211129337679
 30
0.0
 10
-74.99990764110901
 20
3.005595534017411
 30
0.0
 10
-74.99991321665503
 20
3.002823680856607
 30
0.0
 10
-74.99992904452215
 20
2.99431723554079
 30
0.0
 10
-74.99994033556325
 20
2.987655693636067
 30
0.0
 10
-74.99995285954004
 20
2.980000146582756
 30
0.0
  0
SPLINE
  5
2C52E
330
2C51A
100
AcDbEntity
  8
0
100
AcDbSpline
210
0.0
220
0.0
230
1.0
 70
     8
 71
     3
 72
    38
 73
    34
 74
     0
 42
0.000000001
 43
0.0000000001
 40
0.0
 40
0.0
 40
0.0
 40
0.0
 40
0.0000171417308812
 40
0.0000171417308812
 40
0.0000857086640831
 40
0.0000857086640831
 40
0.0002228425928012
 40
0.0002228425928012
 40
0.0004971109544003
 40
0.0004971109544003
 40
0.0010456518099645
 40
0.0010456518099645
 40
0.0021427684592299
 40
0.0021427684592299
 40
0.0049955529128146
 40
0.0049955529128146
 40
0.0106523928487805
 40
0.0106523928487805
 40
0.0210563442103587
 40
0.0210563442103587
 40
0.0299813216815258
 40
0.0299813216815258
 40
0.032234557534724
 40
0.032234557534724
 40
0.0327893765928118
 40
0.0327893765928118
 40
0.0333410014000909
 40
0.0333410014000909
 40
0.0344400620235689
 40
0.0344400620235689
 40
0.0366346401939001
 40
0.0366346401939001
 40
0.0391806283250404
 40
0.0391806283250404
 40
0.0391806283250404
 40
0.0391806283250404
 10
-77.00378170498706
 20
2.662745292800037
 30
0.0
 10
-77.00378136884875
 20
2.662796588028312
 30
0.0
 10
-77.00378103252261
 20
2.662847886702397
 30
0.0
 10
-77.00377934995272
 20
2.663104397333555
 30
0.0
 10
-77.00377800089111
 20
2.663309661006019
 30
0.0
 10
-77.00377394467705
 20
2.663925617368902
 30
0.0
 10
-77.00377122849435
 20
2.664336475585387
 30
0.0
 10
-77.00376304373252
 20
2.665569710883154
 30
0.0
 10
-77.00375753892924
 20
2.666392750084189
 30
0.0
 10
-77.00374087889611
 20
2.668864504901408
 30
0.0
 10
-77.0037295779514
 20
2.670515869664956
 30
0.0
 10
-77.00369508663317
 20
2.675480479203091
 30
0.0
 10
-77.00367130691502
 20
2.678804336187253
 30
0.0
 10
-77.00358282287393
 20
2.690820259381347
 30
0.0
 10
-77.0035134889151
 20
2.699594716206363
 30
0.0
 10
-77.00329003891171
 20
2.726032558624424
 30
0.0
 10
-77.00311900240622
 20
2.744003511369368
 30
0.0
 10
-77.00257107615384
 20
2.795876436007614
 30
0.0
 10
-77.00212863334312
 20
2.831341935730004
 30
0.0
 10
-77.00124927464829
 20
2.895483856234302
 30
0.0
 10
-77.00081350781971
 20
2.925104782320342
 30
0.0
 10
-77.00031560355196
 20
2.958582454991421
 30
0.0
 10
-77.00021058941091
 20
2.965620359238608
 30
0.0
 10
-77.00011243503181
 20
2.972196815764878
 30
0.0
 10
-77.00009534694832
 20
2.973341620240217
 30
0.0
 10
-77.00006946566498
 20
2.975075556117253
 30
0.0
 10
-77.00006027392024
 20
2.975691379492936
 30
0.0
 10
-77.00003964421529
 20
2.977073592168087
 30
0.0
 10
-77.00003345044253
 20
2.97748868392734
 30
0.0
 10
-77.00001826896695
 20
2.97850624307292
 30
0.0
 10
-77.00001400204482
 20
2.978792517748178
 30
0.0
 10
-77.00000552217902
 20
2.979361731773124
 30
0.0
 10
-77.00000202240191
 20
2.979597106564896
 30
0.0
 10
-76.99999957714085
 20
2.979761734829893
 30
0.0
  0
SPLINE
  5
2C52F
330
2C51A
100
AcDbEntity
  8
0
100
AcDbSpline
210
0.0
220
0.0
230
1.0
 70
     8
 71
     3
 72
    10
 73
     6
 74
     0
 42
0.000000001
 43
0.0000000001
 40
0.0
 40
0.0
 40
0.0
 40
0.0
 40
0.0019466740961128
 40
0.0019466740961128
 40
0.0023991238061338
 40
0.0023991238061338
 40
0.0023991238061338
 40
0.0023991238061338
 10
-77.00005163213401
 20
2.979999682780884
 30
0.0
 10
-77.00003469693557
 20
2.98499307474393
 30
0.0
 10
-77.00001897380738
 20
2.990256117622699
 30
0.0
 10
-77.00000472049871
 20
2.996526755738165
 30
0.0
 10
-77.00000238084673
 20
2.997711834243101
 30
0.0
 10
-77.00000014506343
 20
2.998881276455103
 30
0.0
  0
SPLINE
  5
2C530
330
2C51A
100
AcDbEntity
  8
0
100
AcDbSpline
210
0.0
220
0.0
230
1.0
 70
     8
 71
     3
 72
     8
 73
     4
 74
     0
 42
0.000000001
 43
0.0000000001
 40
0.0
 40
0.0
 40
0.0
 40
0.0
 40
0.0008307984757367
 40
0.0008307984757367
 40
0.0008307984757367
 40
0.0008307984757367
 10
-77.00001111705724
 20
2.980000115784977
 30
0.0
 10
-77.00000761754849
 20
2.981073865742858
 30
0.0
 10
-77.00000367787682
 20
2.98233282779123
 30
0.0
 10
-76.99999977493757
 20
2.983597581217406
 30
0.0
  0
SPLINE
  5
2C531
330
2C51A
100
AcDbEntity
  8
0
100
AcDbSpline
210
0.0
220
0.0
230
1.0
 70
     8
 71
     3
 72
     8
 73
     4
 74
     0
 42
0.000000001
 43
0.0000000001
 40
0.0232594386517023
 40
0.0232594386517023
 40
0.0232594386517023
 40
0.0232594386517023
 40
0.0256604915322151
 40
0.0256604915322151
 40
0.0256604915322151
 40
0.0256604915322151
 10
-79.10911466411825
 20
5.458396675546498
 30
0.0
 10
-79.11663896679552
 20
5.459720396867568
 30
0.0
 10
-79.12422157759952
 20
5.461049066488059
 30
0.0
 10
-79.13178374571829
 20
5.462371515229173
 30
0.0
  0
ARC
  5
2C532
330
2C51A
100
AcDbEntity
  8
0
100
AcDbCircle
 10
-72.99999999999998
 20
2.0
 30
0.0
 40
4.000000000000013
100
AcDbArc
 50
206.9333479648073
 51
270.0
  0
SPLINE
  5
2C533
330
2C51A
100
AcDbEntity
  8
0
100
AcDbSpline
210
0.0
220
0.0
230
1.0
 70
     8
 71
     3
 72
     8
 73
     4
 74
     0
 42
0.000000001
 43
0.0000000001
 40
-1.0
 40
-1.0
 40
-1.0
 40
-1.0
 40
0.0
 40
0.0
 40
0.0
 40
0.0
 10
-76.56613618874256
 20
0.1881852513734636
 30
0.0
 10
-76.85281722354962
 20
0.7524502313481707
 30
0.0
 10
-77.0
 20
1.385491012172571
 30
0.0
 10
-77.0
 20
1.999999999999994
 30
0.0
  0
SPLINE
  5
2C534
330
2C51A
100
AcDbEntity
  8
0
100
AcDbSpline
210
0.0
220
0.0
230
1.0
 70
     8
 71
     3
 72
     8
 73
     4
 74
     0
 42
0.000000001
 43
0.0000000001
 40
0.0
 40
0.0
 40
0.0
 40
0.0
 40
1.0
 40
1.0
 40
1.0
 40
1.0
 10
-74.99999999999999
 20
1.999999999999997
 30
0.0
 10
-74.99999999999999
 20
1.692745506086285
 30
0.0
 10
-74.92640861177481
 20
1.376225115674085
 30
0.0
 10
-74.78306809437127
 20
1.094092625686732
 30
0.0
  0
ARC
  5
2C535
330
2C51A
100
AcDbEntity
  8
0
100
AcDbCircle
 10
-72.99999999999998
 20
2.0
 30
0.0
 40
2.00000000000001
100
AcDbArc
 50
206.9333479648071
 51
270.0
  0
SPLINE
  5
2C536
330
2C51A
100
AcDbEntity
  8
0
100
AcDbSpline
210
0.0
220
0.0
230
1.0
 70
     8
 71
     3
 72
     8
 73
     4
 74
     0
 42
0.000000001
 43
0.0000000001
 40
0.0
 40
0.0
 40
0.0
 40
0.0
 40
1.0
 40
1.0
 40
1.0
 40
1.0
 10
77.0
 20
1.999999999999994
 30
0.0
 10
77.0
 20
1.385491012172571
 30
0.0
 10
76.85281722354962
 20
0.7524502313481707
 30
0.0
 10
76.56613618874256
 20
0.1881852513734636
 30
0.0
  0
ARC
  5
2C537
330
2C51A
100
AcDbEntity
  8
0
100
AcDbCircle
 10
72.99999999999998
 20
2.0
 30
0.0
 40
4.000000000000013
100
AcDbArc
 50
270.0
 51
333.0666520351926
  0
LINE
  5
2C538
330
2C51A
100
AcDbEntity
  8
0
100
AcDbLine
 10
77.0
 20
2.0
 30
0.0
 11
75.54647908961739
 21
2.0
 31
0.0
  0
LINE
  5
2C539
330
2C51A
100
AcDbEntity
  8
0
100
AcDbLine
 10
75.54647908961739
 20
2.0
 30
0.0
 11
75.00000000000003
 21
2.0
 31
0.0
  0
SPLINE
  5
2C53A
330
2C51A
100
AcDbEntity
  8
0
100
AcDbSpline
210
0.0
220
0.0
230
1.0
 70
     8
 71
     3
 72
     8
 73
     4
 74
     0
 42
0.000000001
 43
0.0000000001
 40
-1.0
 40
-1.0
 40
-1.0
 40
-1.0
 40
0.0
 40
0.0
 40
0.0
 40
0.0
 10
74.78306809437127
 20
1.094092625686732
 30
0.0
 10
74.92640861177481
 20
1.376225115674085
 30
0.0
 10
74.99999999999999
 20
1.692745506086285
 30
0.0
 10
74.99999999999999
 20
1.999999999999997
 30
0.0
  0
LINE
  5
2C53B
330
2C51A
100
AcDbEntity
  8
0
100
AcDbLine
 10
75.00000000000003
 20
18.55999999999998
 30
0.0
 11
75.00000000000003
 21
175.0
 31
0.0
  0
LINE
  5
2C53C
330
2C51A
100
AcDbEntity
  8
0
100
AcDbLine
 10
77.0
 20
18.55999999999998
 30
0.0
 11
75.00000000000003
 21
18.55999999999998
 31
0.0
  0
LINE
  5
2C53D
330
2C51A
100
AcDbEntity
  8
0
100
AcDbLine
 10
77.0
 20
175.0
 30
0.0
 11
77.0
 21
18.55999999999998
 31
0.0
  0
LINE
  5
2C53E
330
2C51A
100
AcDbEntity
  8
0
100
AcDbLine
 10
75.00000000000003
 20
175.0
 30
0.0
 11
77.0
 21
175.0
 31
0.0
  0
LINE
  5
2C53F
330
2C51A
100
AcDbEntity
  8
0
100
AcDbLine
 10
75.00000000000003
 20
10.32000000000003
 30
0.0
 11
75.00000000000003
 21
18.55999999999998
 31
0.0
  0
LINE
  5
2C540
330
2C51A
100
AcDbEntity
  8
0
100
AcDbLine
 10
77.0
 20
10.32000000000003
 30
0.0
 11
75.00000000000003
 21
10.32000000000003
 31
0.0
  0
LINE
  5
2C541
330
2C51A
100
AcDbEntity
  8
0
100
AcDbLine
 10
77.0
 20
18.55999999999998
 30
0.0
 11
77.0
 21
10.32000000000003
 31
0.0
  0
LINE
  5
2C542
330
2C51A
100
AcDbEntity
  8
0
100
AcDbLine
 10
75.00000000000003
 20
5.727001077736275
 30
0.0
 11
75.00000000000003
 21
10.32000000000003
 31
0.0
  0
LINE
  5
2C543
330
2C51A
100
AcDbEntity
  8
0
100
AcDbLine
 10
77.0
 20
10.32000000000003
 30
0.0
 11
77.0
 21
5.727001077736275
 31
0.0
  0
LINE
  5
2C544
330
2C51A
100
AcDbEntity
  8
0
100
AcDbLine
 10
75.0
 20
5.727001077736288
 30
0.0
 11
75.0
 21
1.999999999999999
 31
0.0
  0
LINE
  5
2C545
330
2C51A
100
AcDbEntity
  8
0
100
AcDbLine
 10
77.0
 20
2.000000000000001
 30
0.0
 11
77.0
 21
5.727001077736288
 31
0.0
  0
LINE
  5
2C546
330
2C51A
100
AcDbEntity
  8
0
100
AcDbLine
 10
79.13175911166542
 20
5.462510606673538
 30
0.0
 11
106.6799503970238
 21
10.32000000000003
 31
0.0
  0
LINE
  5
2C547
330
2C51A
100
AcDbEntity
  8
0
100
AcDbLine
 10
106.6799503970238
 20
10.32000000000003
 30
0.0
 11
116.5
 21
18.55999999999998
 31
0.0
  0
LINE
  5
2C548
330
2C51A
100
AcDbEntity
  8
0
100
AcDbLine
 10
116.5
 20
18.55999999999998
 30
0.0
 11
116.5
 21
175.0
 31
0.0
  0
ARC
  5
2C549
330
2C51A
100
AcDbEntity
  8
0
100
AcDbCircle
 10
72.99999999999998
 20
2.0
 30
0.0
 40
2.00000000000001
100
AcDbArc
 50
270.0
 51
333.0666520351929
  0
LINE
  5
2C54A
330
2C51A
100
AcDbEntity
  8
0
100
AcDbLine
 10
79.00000000000002
 20
175.0
 30
0.0
 11
77.0
 21
175.0
 31
0.0
  0
LINE
  5
2C54B
330
2C51A
100
AcDbEntity
  8
0
100
AcDbLine
 10
116.5
 20
175.0
 30
0.0
 11
79.00000000000002
 21
175.0
 31
0.0
  0
CIRCLE
  5
2C54C
330
2C51A
100
AcDbEntity
  8
0
100
AcDbCircle
 10
97.0
 20
155.0
 30
0.0
 40
6.5
  0
CIRCLE
  5
2C54D
330
2C51A
100
AcDbEntity
  8
0
100
AcDbCircle
 10
108.0
 20
160.0
 30
0.0
 40
2.5
  0
CIRCLE
  5
2C54E
330
2C51A
100
AcDbEntity
  8
0
100
AcDbCircle
 10
-97.0
 20
25.0
 30
0.0
 40
6.5
  0
CIRCLE
  5
2C54F
330
2C51A
100
AcDbEntity
  8
0
100
AcDbCircle
 10
97.0
 20
25.0
 30
0.0
 40
6.5
  0
CIRCLE
  5
2C550
330
2C51A
100
AcDbEntity
  8
0
100
AcDbCircle
 10
-97.0
 20
95.0
 30
0.0
 40
6.5
  0
CIRCLE
  5
2C551
330
2C51A
100
AcDbEntity
  8
0
100
AcDbCircle
 10
97.0
 20
95.0
 30
0.0
 40
6.5
  0
CIRCLE
  5
2C552
330
2C51A
100
AcDbEntity
  8
0
100
AcDbCircle
 10
-97.0
 20
155.0
 30
0.0
 40
6.5
  0
CIRCLE
  5
2C553
330
2C51A
100
AcDbEntity
  8
0
100
AcDbCircle
 10
-86.00000000000001
 20
30.0
 30
0.0
 40
2.5
  0
CIRCLE
  5
2C554
330
2C51A
100
AcDbEntity
  8
0
100
AcDbCircle
 10
-86.00000000000001
 20
50.0
 30
0.0
 40
2.5
  0
CIRCLE
  5
2C555
330
2C51A
100
AcDbEntity
  8
0
100
AcDbCircle
 10
-86.00000000000001
 20
70.0
 30
0.0
 40
2.5
  0
CIRCLE
  5
2C556
330
2C51A
100
AcDbEntity
  8
0
100
AcDbCircle
 10
-86.00000000000001
 20
90.0
 30
0.0
 40
2.5
  0
CIRCLE
  5
2C557
330
2C51A
100
AcDbEntity
  8
0
100
AcDbCircle
 10
-86.00000000000001
 20
110.0
 30
0.0
 40
2.5
  0
CIRCLE
  5
2C558
330
2C51A
100
AcDbEntity
  8
0
100
AcDbCircle
 10
-86.00000000000001
 20
130.0
 30
0.0
 40
2.5
  0
CIRCLE
  5
2C559
330
2C51A
100
AcDbEntity
  8
0
100
AcDbCircle
 10
-86.00000000000001
 20
150.0
 30
0.0
 40
2.5
  0
CIRCLE
  5
2C55A
330
2C51A
100
AcDbEntity
  8
0
100
AcDbCircle
 10
86.00000000000001
 20
30.0
 30
0.0
 40
2.5
  0
CIRCLE
  5
2C55B
330
2C51A
100
AcDbEntity
  8
0
100
AcDbCircle
 10
86.00000000000001
 20
50.0
 30
0.0
 40
2.5
  0
CIRCLE
  5
2C55C
330
2C51A
100
AcDbEntity
  8
0
100
AcDbCircle
 10
86.00000000000001
 20
70.0
 30
0.0
 40
2.5
  0
CIRCLE
  5
2C55D
330
2C51A
100
AcDbEntity
  8
0
100
AcDbCircle
 10
86.00000000000001
 20
90.0
 30
0.0
 40
2.5
  0
CIRCLE
  5
2C55E
330
2C51A
100
AcDbEntity
  8
0
100
AcDbCircle
 10
86.00000000000001
 20
110.0
 30
0.0
 40
2.5
  0
CIRCLE
  5
2C55F
330
2C51A
100
AcDbEntity
  8
0
100
AcDbCircle
 10
86.00000000000001
 20
130.0
 30
0.0
 40
2.5
  0
CIRCLE
  5
2C560
330
2C51A
100
AcDbEntity
  8
0
100
AcDbCircle
 10
86.00000000000001
 20
150.0
 30
0.0
 40
2.5
  0
CIRCLE
  5
2C561
330
2C51A
100
AcDbEntity
  8
0
100
AcDbCircle
 10
-86.00000000000001
 20
170.0
 30
0.0
 40
2.5
  0
CIRCLE
  5
2C562
330
2C51A
100
AcDbEntity
  8
0
100
AcDbCircle
 10
86.00000000000001
 20
170.0
 30
0.0
 40
2.5
  0
CIRCLE
  5
2C563
330
2C51A
100
AcDbEntity
  8
0
100
AcDbCircle
 10
-108.0
 20
20.0
 30
0.0
 40
2.5
  0
CIRCLE
  5
2C564
330
2C51A
100
AcDbEntity
  8
0
100
AcDbCircle
 10
-108.0
 20
40.0
 30
0.0
 40
2.5
  0
CIRCLE
  5
2C565
330
2C51A
100
AcDbEntity
  8
0
100
AcDbCircle
 10
-108.0
 20
60.0
 30
0.0
 40
2.5
  0
CIRCLE
  5
2C566
330
2C51A
100
AcDbEntity
  8
0
100
AcDbCircle
 10
-108.0
 20
80.0
 30
0.0
 40
2.5
  0
CIRCLE
  5
2C567
330
2C51A
100
AcDbEntity
  8
0
100
AcDbCircle
 10
-108.0
 20
100.0
 30
0.0
 40
2.5
  0
CIRCLE
  5
2C568
330
2C51A
100
AcDbEntity
  8
0
100
AcDbCircle
 10
-108.0
 20
120.0
 30
0.0
 40
2.5
  0
CIRCLE
  5
2C569
330
2C51A
100
AcDbEntity
  8
0
100
AcDbCircle
 10
-108.0
 20
140.0
 30
0.0
 40
2.5
  0
CIRCLE
  5
2C56A
330
2C51A
100
AcDbEntity
  8
0
100
AcDbCircle
 10
108.0
 20
20.0
 30
0.0
 40
2.5
  0
CIRCLE
  5
2C56B
330
2C51A
100
AcDbEntity
  8
0
100
AcDbCircle
 10
108.0
 20
40.0
 30
0.0
 40
2.5
  0
CIRCLE
  5
2C56C
330
2C51A
100
AcDbEntity
  8
0
100
AcDbCircle
 10
108.0
 20
60.0
 30
0.0
 40
2.5
  0
CIRCLE
  5
2C56D
330
2C51A
100
AcDbEntity
  8
0
100
AcDbCircle
 10
108.0
 20
80.0
 30
0.0
 40
2.5
  0
CIRCLE
  5
2C56E
330
2C51A
100
AcDbEntity
  8
0
100
AcDbCircle
 10
108.0
 20
100.0
 30
0.0
 40
2.5
  0
CIRCLE
  5
2C56F
330
2C51A
100
AcDbEntity
  8
0
100
AcDbCircle
 10
108.0
 20
120.0
 30
0.0
 40
2.5
  0
CIRCLE
  5
2C570
330
2C51A
100
AcDbEntity
  8
0
100
AcDbCircle
 10
108.0
 20
140.0
 30
0.0
 40
2.5
  0
CIRCLE
  5
2C571
330
2C51A
100
AcDbEntity
  8
0
100
AcDbCircle
 10
-108.0
 20
160.0
 30
0.0
 40
2.5
  0
LINE
  5
2C572
330
2C51A
100
AcDbEntity
  8
0
100
AcDbLine
 10
-116.5
 20
175.0
 30
0.0
 11
-79.00000000000002
 21
175.0
 31
0.0
  0
LINE
  5
2C573
330
2C51A
100
AcDbEntity
  8
0
100
AcDbLine
 10
-116.5
 20
18.55999999999998
 30
0.0
 11
-116.5
 21
175.0
 31
0.0
  0
LINE
  5
2C574
330
2C51A
100
AcDbEntity
  8
0
100
AcDbLine
 10
-116.5
 20
18.55999999999998
 30
0.0
 11
-106.6799503970238
 21
10.32000000000003
 31
0.0
  0
LINE
  5
2C575
330
2C51A
100
AcDbEntity
  8
0
100
AcDbLine
 10
-106.6799503970238
 20
10.32000000000003
 30
0.0
 11
-79.13175911166542
 21
5.462510606673538
 31
0.0
  0
LINE
  5
2C576
330
2C51A
100
AcDbEntity
  8
0
100
AcDbLine
 10
-77.0
 20
2.0
 30
0.0
 11
-75.54647908961739
 21
2.0
 31
0.0
  0
LINE
  5
2C577
330
2C51A
100
AcDbEntity
  8
0
100
AcDbLine
 10
-75.54647908961739
 20
2.0
 30
0.0
 11
-75.00000000000003
 21
2.0
 31
0.0
  0
LINE
  5
2C578
330
2C51A
100
AcDbEntity
  8
0
100
AcDbLine
 10
-75.00000000000003
 20
175.0
 30
0.0
 11
-75.00000000000003
 21
18.55999999999998
 31
0.0
  0
LINE
  5
2C579
330
2C51A
100
AcDbEntity
  8
0
100
AcDbLine
 10
-77.0
 20
175.0
 30
0.0
 11
-75.00000000000003
 21
175.0
 31
0.0
  0
LINE
  5
2C57A
330
2C51A
100
AcDbEntity
  8
0
100
AcDbLine
 10
-77.0
 20
18.55999999999998
 30
0.0
 11
-77.0
 21
175.0
 31
0.0
  0
LINE
  5
2C57B
330
2C51A
100
AcDbEntity
  8
0
100
AcDbLine
 10
-77.0
 20
18.55999999999998
 30
0.0
 11
-75.00000000000003
 21
18.55999999999998
 31
0.0
  0
LINE
  5
2C57C
330
2C51A
100
AcDbEntity
  8
0
100
AcDbLine
 10
-75.00000000000003
 20
18.55999999999998
 30
0.0
 11
-75.00000000000003
 21
10.32000000000003
 31
0.0
  0
LINE
  5
2C57D
330
2C51A
100
AcDbEntity
  8
0
100
AcDbLine
 10
-77.0
 20
10.32000000000003
 30
0.0
 11
-77.0
 21
18.55999999999998
 31
0.0
  0
LINE
  5
2C57E
330
2C51A
100
AcDbEntity
  8
0
100
AcDbLine
 10
-77.0
 20
10.32000000000003
 30
0.0
 11
-75.00000000000003
 21
10.32000000000003
 31
0.0
  0
LINE
  5
2C57F
330
2C51A
100
AcDbEntity
  8
0
100
AcDbLine
 10
-75.00000000000003
 20
10.32000000000003
 30
0.0
 11
-75.00000000000003
 21
5.727001077736275
 31
0.0
  0
LINE
  5
2C580
330
2C51A
100
AcDbEntity
  8
0
100
AcDbLine
 10
-77.0
 20
5.727001077736275
 30
0.0
 11
-77.0
 21
10.32000000000003
 31
0.0
  0
LINE
  5
2C581
330
2C51A
100
AcDbEntity
  8
0
100
AcDbLine
 10
-75.0
 20
2.000000000000001
 30
0.0
 11
-75.0
 21
5.727001077736288
 31
0.0
  0
LINE
  5
2C582
330
2C51A
100
AcDbEntity
  8
0
100
AcDbLine
 10
-77.0
 20
5.727001077736288
 30
0.0
 11
-77.0
 21
1.999999999999999
 31
0.0
  0
LINE
  5
2C583
330
2C51A
100
AcDbEntity
  8
0
100
AcDbLine
 10
-79.00000000000002
 20
175.0
 30
0.0
 11
-77.0
 21
175.0
 31
0.0
  0
LINE
  5
2C584
330
2C51A
100
AcDbEntity
  8
0
100
AcDbLine
 10
-72.99999999999998
 20
0.0
 30
0.0
 11
72.99999999999998
 21
0.0
 31
0.0
  0
LINE
  5
2C585
330
2C51A
100
AcDbEntity
  8
0
100
AcDbLine
 10
73.0
 20
-2.0
 30
0.0
 11
-72.99999999999998
 21
-2.000000000000011
 31
0.0
  0
ENDBLK
  5
2C51C
330
2C51A
100
AcDbEntity
  8
0
100
AcDbBlockEnd
  0
BLOCK
  5
2C587
330
2C586
100
AcDbEntity
  8
0
100
AcDbBlockBegin
  2
SAEL500_150_2-Left
 70
     0
 10
0.0
 20
0.0
 30
0.0
  3
SAEL500_150_2-Left
  1

  0
SPLINE
  5
2C589
330
2C586
100
AcDbEntity
  8
0
100
AcDbSpline
210
0.0
220
0.0
230
1.0
 70
     8
 71
     3
 72
    11
 73
     7
 74
     0
 42
0.000000001
 43
0.0000000001
 40
0.0
 40
0.0
 40
0.0
 40
0.0
 40
0.2630945547128502
 40
0.2630945547128502
 40
0.2630945547128502
 40
0.3972400822852982
 40
0.3972400822852982
 40
0.3972400822852982
 40
0.3972400822852982
 10
0.0000000000000115
 20
5.462510606673578
 30
0.0
 10
0.0000028677165486
 20
5.380695141734562
 30
0.0
 10
0.1353978454009032
 20
5.317460382789639
 30
0.0
 10
0.341274158804972
 20
5.234919033905013
 30
0.0
 10
0.4462454939449256
 20
5.192833203566356
 30
0.0
 10
0.5677281833510893
 20
5.14503122422182
 30
0.0
 10
0.6963018294413783
 20
5.085216961567255
 30
0.0
  0
SPLINE
  5
2C58A
330
2C586
100
AcDbEntity
  8
0
100
AcDbSpline
210
0.0
220
0.0
230
1.0
 70
     8
 71
     3
 72
    11
 73
     7
 74
     0
 42
0.000000001
 43
0.0000000001
 40
0.6188797066406785
 40
0.6188797066406785
 40
0.6188797066406785
 40
0.6188797066406785
 40
0.6652191719109486
 40
0.6652191719109486
 40
0.6652191719109486
 40
0.7872173741049583
 40
0.7872173741049583
 40
0.7872173741049583
 40
0.7872173741049583
 10
1.349185177573377
 20
4.661961715746361
 30
0.0
 10
1.392810663141577
 20
4.62165001719709
 30
0.0
 10
1.43542497826527
 20
4.578663541215481
 30
0.0
 10
1.476639799427059
 20
4.532742751301329
 30
0.0
 10
1.585146318787174
 20
4.411846798355375
 30
0.0
 10
1.684106522850229
 20
4.270591791711611
 30
0.0
 10
1.766114387204936
 20
4.104173222417482
 30
0.0
  0
LINE
  5
2C58B
330
2C586
100
AcDbEntity
  8
0
100
AcDbLine
 10
1.845078367034267
 20
5.462510606673554
 30
0.0
 11
1.690952694388768
 21
5.462510606673554
 31
0.0
  0
LINE
  5
2C58C
330
2C586
100
AcDbEntity
  8
0
100
AcDbLine
 10
0.15173628101597
 20
5.462510606673554
 30
0.0
 11
0.0
 21
5.462510606673554
 31
0.0
  0
SPLINE
  5
2C58D
330
2C586
100
AcDbEntity
  8
0
100
AcDbSpline
210
0.0
220
0.0
230
1.0
 70
     8
 71
     3
 72
    14
 73
    10
 74
     0
 42
0.000000001
 43
0.0000000001
 40
0.0
 40
0.0
 40
0.0
 40
0.0
 40
0.3894396598190117
 40
0.3894396598190117
 40
0.3894396598190117
 40
0.7616502545681055
 40
0.7616502545681055
 40
0.7616502545681055
 40
0.7796363604656471
 40
0.7796363604656471
 40
0.7796363604656471
 40
0.7796363604656471
 10
0.0000000000000113
 20
5.46251060667353
 30
0.0
 10
0.0000033433566128
 20
5.337766390783153
 30
0.0
 10
0.3049729408032242
 20
5.265470247970121
 30
0.0
 10
0.6743917850678085
 20
5.095486169227227
 30
0.0
 10
1.02746729822727
 20
4.933022297221551
 30
0.0
 10
1.439329893798616
 20
4.686745185567192
 30
0.0
 10
1.712905503761148
 20
4.205386828664311
 30
0.0
 10
1.726125331356564
 20
4.182126441926103
 30
0.0
 10
1.738972926427837
 20
4.158450769303186
 30
0.0
 10
1.751430085780002
 20
4.134324632319727
 30
0.0
  0
SPLINE
  5
2C58E
330
2C586
100
AcDbEntity
  8
0
100
AcDbSpline
210
0.0
220
0.0
230
1.0
 70
     8
 71
     3
 72
    11
 73
     7
 74
     0
 42
0.000000001
 43
0.0000000001
 40
-1.0
 40
-1.0
 40
-1.0
 40
-1.0
 40
-0.3390592625089725
 40
-0.3390592625089725
 40
-0.3390592625089725
 40
0.0
 40
0.0
 40
0.0
 40
0.0
 10
2.000000000000074
 20
2.979999999999975
 30
0.0
 10
2.000833772505979
 20
3.78630511636151
 30
0.0
 10
2.000384176564381
 20
4.520223480130173
 30
0.0
 10
2.000035059029098
 20
4.984710580813551
 30
0.0
 10
1.999855963495523
 20
5.222990119158357
 30
0.0
 10
1.999932241176828
 20
5.387263259035916
 30
0.0
 10
1.999999998862178
 20
5.462510606767576
 30
0.0
  0
SPLINE
  5
2C58F
330
2C586
100
AcDbEntity
  8
0
100
AcDbSpline
210
0.0
220
0.0
230
1.0
 70
     8
 71
     3
 72
    14
 73
    10
 74
     0
 42
0.000000001
 43
0.0000000001
 40
0.0
 40
0.0
 40
0.0
 40
0.0
 40
0.0049219032016523
 40
0.0049219032016523
 40
0.0069182730937062
 40
0.0069182730937062
 40
0.0100207133801044
 40
0.0100207133801044
 40
0.0124520403802788
 40
0.0124520403802788
 40
0.0124520403802788
 40
0.0124520403802788
 10
1.999592629282691
 20
2.979998964484872
 30
0.0
 10
1.999557424170094
 20
2.995794059737122
 30
0.0
 10
1.999474683334629
 20
3.011260111890142
 30
0.0
 10
1.999316282387958
 20
3.029425173390257
 30
0.0
 10
1.999265630323754
 20
3.034306394138728
 30
0.0
 10
1.999136276225357
 20
3.045243551717185
 30
0.0
 10
1.999054276743671
 20
3.050683201145603
 30
0.0
 10
1.998951215723245
 20
3.056872462955088
 30
0.0
 10
1.998921323562214
 20
3.058388675389528
 30
0.0
 10
1.998921323590083
 20
3.058388673968019
 30
0.0
  0
SPLINE
  5
2C590
330
2C586
100
AcDbEntity
  8
0
100
AcDbSpline
210
0.0
220
0.0
230
1.0
 70
     8
 71
     3
 72
     8
 73
     4
 74
     0
 42
0.000000001
 43
0.0000000001
 40
0.0
 40
0.0
 40
0.0
 40
0.0
 40
0.0024647164547433
 40
0.0024647164547433
 40
0.0024647164547433
 40
0.0024647164547433
 10
1.999984291762229
 20
2.979999710486065
 30
0.0
 10
1.999971022098632
 20
2.980720389862256
 30
0.0
 10
1.999944869576926
 20
2.982053354294882
 30
0.0
 10
1.999915217663655
 20
2.983578117591646
 30
0.0
  0
SPLINE
  5
2C591
330
2C586
100
AcDbEntity
  8
0
100
AcDbSpline
210
0.0
220
0.0
230
1.0
 70
     8
 71
     3
 72
    10
 73
     6
 74
     0
 42
0.000000001
 43
0.0000000001
 40
0.0107640459767187
 40
0.0107640459767187
 40
0.0107640459767187
 40
0.0107640459767187
 40
0.0125679382037695
 40
0.0125679382037695
 40
0.0137556575636519
 40
0.0137556575636519
 40
0.0137556575636519
 40
0.0137556575636519
 10
1.999514033038801
 20
3.00192068910619
 30
0.0
 10
1.999495164779416
 20
3.002693647925708
 30
0.0
 10
1.999481028677094
 20
3.003258862803894
 30
0.0
 10
1.999468047962624
 20
3.003779595806492
 30
0.0
 10
1.999465381557648
 20
3.003885744717918
 30
0.0
 10
1.999465381510325
 20
3.003885746604449
 30
0.0
  0
SPLINE
  5
2C592
330
2C586
100
AcDbEntity
  8
0
100
AcDbSpline
210
0.0
220
0.0
230
1.0
 70
     8
 71
     3
 72
    34
 73
    30
 74
     0
 42
0.000000001
 43
0.0000000001
 40
0.0085780134520903
 40
0.0085780134520903
 40
0.0085780134520903
 40
0.0085780134520903
 40
0.0104272625591745
 40
0.0104272625591745
 40
0.0128592638573431
 40
0.0128592638573431
 40
0.0148362496825108
 40
0.0148362496825108
 40
0.0169851749968744
 40
0.0169851749968744
 40
0.0209646073807475
 40
0.0209646073807475
 40
0.029584130761672
 40
0.029584130761672
 40
0.0478975143723269
 40
0.0478975143723269
 40
0.0879500000228595
 40
0.0879500000228595
 40
0.1313691959475501
 40
0.1313691959475501
 40
0.1471376551109608
 40
0.1471376551109608
 40
0.1510005069415971
 40
0.1510005069415971
 40
0.1532905483924112
 40
0.1532905483924112
 40
0.1546200710133801
 40
0.1546200710133801
 40
0.1552388137839717
 40
0.1552388137839717
 40
0.1552388137839717
 40
0.1552388137839717
 10
1.999517233980873
 20
3.001650542814089
 30
0.0
 10
1.999449934245253
 20
3.004356271009368
 30
0.0
 10
1.999369882888057
 20
3.007451445862675
 30
0.0
 10
1.999146119729546
 20
3.015709130117675
 30
0.0
 10
1.998978576833007
 20
3.021605796962929
 30
0.0
 10
1.998589690651888
 20
3.034039251171077
 30
0.0
 10
1.998382444625174
 20
3.040283504623486
 30
0.0
 10
1.997909809456974
 20
3.053531677545279
 30
0.0
 10
1.997637738914755
 20
3.060659144645421
 30
0.0
 10
1.996807345194553
 20
3.080974053091348
 30
0.0
 10
1.996197105118685
 20
3.094300769189259
 30
0.0
 10
1.994065178081827
 20
3.136189857538875
 30
0.0
 10
1.992295928376556
 20
3.164710663273189
 30
0.0
 10
1.985846221423786
 20
3.252477078143696
 30
0.0
 10
1.980110792138484
 20
3.310726285989411
 30
0.0
 10
1.957228522751945
 20
3.493201886710732
 30
0.0
 10
1.934422901084875
 20
3.615580549771928
 30
0.0
 10
1.867228129657959
 20
3.865723108323963
 30
0.0
 10
1.819949582157041
 20
3.994806295165437
 30
0.0
 10
1.741322543756368
 20
4.155092065866933
 30
0.0
 10
1.718035948392799
 20
4.197850745077148
 30
0.0
 10
1.693534755208827
 20
4.239659109307771
 30
0.0
 10
1.688953480780508
 20
4.247312596824836
 30
0.0
 10
1.683274694368053
 20
4.256688957542396
 30
0.0
 10
1.681508846066274
 20
4.259575826494208
 30
0.0
 10
1.67970859476529
 20
4.262510095676969
 30
0.0
 10
1.679252633977456
 20
4.263250621759485
 30
0.0
 10
1.678933312406761
 20
4.263769119995098
 30
0.0
 10
1.678882176516443
 20
4.263852081520267
 30
0.0
 10
1.678882176248612
 20
4.263852081954865
 30
0.0
  0
LINE
  5
2C593
330
2C586
100
AcDbEntity
  8
0
100
AcDbLine
 10
2.000000000000078
 20
1.999999999999999
 30
0.0
 11
2.000000000000074
 21
-2.0
 31
0.0
  0
LINE
  5
2C594
330
2C586
100
AcDbEntity
  8
0
100
AcDbLine
 10
2.000000000000078
 20
2.0
 30
0.0
 11
2.000000000000078
 21
2.979999999999977
 31
0.0
  0
LINE
  5
2C595
330
2C586
100
AcDbEntity
  8
0
100
AcDbLine
 10
2.000000000000006
 20
-2.0
 30
0.0
 11
86.00000000000001
 21
-2.000000000000011
 31
0.0
  0
LINE
  5
2C596
330
2C586
100
AcDbEntity
  8
0
100
AcDbLine
 10
86.00000000000001
 20
-2.000000000000011
 30
0.0
 11
86.00000000000001
 21
0.1881852513734583
 31
0.0
  0
SPLINE
  5
2C597
330
2C586
100
AcDbEntity
  8
0
100
AcDbSpline
210
0.0
220
0.0
230
1.0
 70
     8
 71
     3
 72
     8
 73
     4
 74
     0
 42
0.000000001
 43
0.0000000001
 40
-1.0
 40
-1.0
 40
-1.0
 40
-1.0
 40
0.0
 40
0.0
 40
0.0
 40
0.0
 10
86.00000000000006
 20
0.1881852513734636
 30
0.0
 10
86.00000000000347
 20
0.7524502313481707
 30
0.0
 10
85.95105936082109
 20
1.385491012172571
 30
0.0
 10
85.85459584055399
 20
1.999999999999994
 30
0.0
  0
LINE
  5
2C598
330
2C586
100
AcDbEntity
  8
0
100
AcDbLine
 10
86.00000000000006
 20
0.1881852513734619
 30
0.0
 11
86.00000000000006
 21
1.094092625686731
 31
0.0
  0
SPLINE
  5
2C599
330
2C586
100
AcDbEntity
  8
0
100
AcDbSpline
210
0.0
220
0.0
230
1.0
 70
     8
 71
     3
 72
     8
 73
     4
 74
     0
 42
0.000000001
 43
0.0000000001
 40
0.0
 40
0.0
 40
0.0
 40
0.0
 40
1.0
 40
1.0
 40
1.0
 40
1.0
 10
85.85459584055399
 20
1.999999999999997
 30
0.0
 10
85.95105936082109
 20
1.692745506086285
 30
0.0
 10
86.00000000000347
 20
1.376225115674085
 30
0.0
 10
86.00000000000006
 20
1.094092625686732
 30
0.0
  0
LINE
  5
2C59A
330
2C586
100
AcDbEntity
  8
0
100
AcDbLine
 10
0.0
 20
5.462510606673538
 30
0.0
 11
0.0
 21
10.32000000000003
 31
0.0
  0
LINE
  5
2C59B
330
2C586
100
AcDbEntity
  8
0
100
AcDbLine
 10
0.0
 20
10.32000000000003
 30
0.0
 11
0.0
 21
18.55999999999998
 31
0.0
  0
LINE
  5
2C59C
330
2C586
100
AcDbEntity
  8
0
100
AcDbLine
 10
2.000000000000197
 20
18.55999999999998
 30
0.0
 11
2.000000000000143
 21
10.32000000000003
 31
0.0
  0
LINE
  5
2C59D
330
2C586
100
AcDbEntity
  8
0
100
AcDbLine
 10
2.000000000000143
 20
10.32000000000003
 30
0.0
 11
2.000000000000003
 21
5.462510606673538
 31
0.0
  0
LINE
  5
2C59E
330
2C586
100
AcDbEntity
  8
0
100
AcDbLine
 10
46.00000000000004
 20
18.55999999999998
 30
0.0
 11
46.00000000000001
 21
175.0
 31
0.0
  0
LINE
  5
2C59F
330
2C586
100
AcDbEntity
  8
0
100
AcDbLine
 10
55.82004960297631
 20
10.32000000000003
 30
0.0
 11
46.00000000000004
 21
18.55999999999998
 31
0.0
  0
LINE
  5
2C5A0
330
2C586
100
AcDbEntity
  8
0
100
AcDbLine
 10
81.8682408883347
 20
5.727001077736275
 30
0.0
 11
55.82004960297631
 21
10.32000000000003
 31
0.0
  0
ARC
  5
2C5A1
330
2C586
100
AcDbEntity
  8
0
100
AcDbCircle
 10
81.00000000000006
 20
0.8029623126752483
 30
0.0
 40
5.0
100
AcDbArc
 50
13.85157539316502
 51
80.00000000000001
  0
LINE
  5
2C5A2
330
2C586
100
AcDbEntity
  8
0
100
AcDbLine
 10
2.000000000000143
 20
10.32000000000003
 30
0.0
 11
0.0
 21
10.32000000000003
 31
0.0
  0
LINE
  5
2C5A3
330
2C586
100
AcDbEntity
  8
0
100
AcDbLine
 10
0.0
 20
18.55999999999998
 30
0.0
 11
2.000000000000197
 21
18.55999999999998
 31
0.0
  0
LINE
  5
2C5A4
330
2C586
100
AcDbEntity
  8
0
100
AcDbLine
 10
0.0
 20
18.55999999999998
 30
0.0
 11
0.0
 21
175.0
 31
0.0
  0
LINE
  5
2C5A5
330
2C586
100
AcDbEntity
  8
0
100
AcDbLine
 10
2.000000000000197
 20
18.55999999999998
 30
0.0
 11
2.00000000000001
 21
175.0
 31
0.0
  0
LINE
  5
2C5A6
330
2C586
100
AcDbEntity
  8
0
100
AcDbLine
 10
4.000000000000003
 20
175.0
 30
0.0
 11
46.00000000000001
 21
175.0
 31
0.0
  0
LINE
  5
2C5A7
330
2C586
100
AcDbEntity
  8
0
100
AcDbLine
 10
0.0
 20
175.0
 30
0.0
 11
2.00000000000001
 21
175.0
 31
0.0
  0
LINE
  5
2C5A8
330
2C586
100
AcDbEntity
  8
0
100
AcDbLine
 10
2.000000000000001
 20
175.0
 30
0.0
 11
4.000000000000003
 21
175.0
 31
0.0
  0
CIRCLE
  5
2C5A9
330
2C586
100
AcDbEntity
  8
0
100
AcDbCircle
 10
38.50000000000001
 20
30.0
 30
0.0
 40
2.5
  0
CIRCLE
  5
2C5AA
330
2C586
100
AcDbEntity
  8
0
100
AcDbCircle
 10
38.50000000000001
 20
50.0
 30
0.0
 40
2.5
  0
CIRCLE
  5
2C5AB
330
2C586
100
AcDbEntity
  8
0
100
AcDbCircle
 10
38.50000000000001
 20
70.0
 30
0.0
 40
2.5
  0
CIRCLE
  5
2C5AC
330
2C586
100
AcDbEntity
  8
0
100
AcDbCircle
 10
38.50000000000001
 20
90.0
 30
0.0
 40
2.5
  0
CIRCLE
  5
2C5AD
330
2C586
100
AcDbEntity
  8
0
100
AcDbCircle
 10
38.50000000000001
 20
110.0
 30
0.0
 40
2.5
  0
CIRCLE
  5
2C5AE
330
2C586
100
AcDbEntity
  8
0
100
AcDbCircle
 10
38.50000000000001
 20
130.0
 30
0.0
 40
2.5
  0
CIRCLE
  5
2C5AF
330
2C586
100
AcDbEntity
  8
0
100
AcDbCircle
 10
38.50000000000001
 20
150.0
 30
0.0
 40
2.5
  0
CIRCLE
  5
2C5B0
330
2C586
100
AcDbEntity
  8
0
100
AcDbCircle
 10
38.50000000000001
 20
170.0
 30
0.0
 40
2.5
  0
ENDBLK
  5
2C588
330
2C586
100
AcDbEntity
  8
0
100
AcDbBlockEnd
  0
BLOCK
  5
2C5B2
330
2C5B1
100
AcDbEntity
  8
0
100
AcDbBlockBegin
  2
SAEL500_150_2-Right
 70
     0
 10
0.0
 20
0.0
 30
0.0
  3
SAEL500_150_2-Right
  1

  0
SPLINE
  5
2C5B4
330
2C5B1
100
AcDbEntity
  8
0
100
AcDbSpline
210
0.0
220
0.0
230
1.0
 70
     8
 71
     3
 72
    17
 73
    13
 74
     0
 42
0.000000001
 43
0.0000000001
 40
0.0
 40
0.0
 40
0.0
 40
0.0
 40
0.2630945547128502
 40
0.2630945547128502
 40
0.2630945547128502
 40
0.6652191719109486
 40
0.6652191719109486
 40
0.6652191719109486
 40
0.9355086585206766
 40
0.9355086585206766
 40
0.9355086585206766
 40
1.0
 40
1.0
 40
1.0
 40
1.0
 10
-0.0000000000000115
 20
5.462510606673578
 30
0.0
 10
-0.0000028677165486
 20
5.380695141734562
 30
0.0
 10
-0.1353978454009032
 20
5.317460382789639
 30
0.0
 10
-0.341274158804972
 20
5.234919033905013
 30
0.0
 10
-0.6559440454855392
 20
5.108759416654584
 30
0.0
 10
-1.118985819479093
 20
4.931234187444627
 30
0.0
 10
-1.476639799427059
 20
4.532742751301329
 30
0.0
 10
-1.717038189601812
 20
4.264895320213853
 30
0.0
 10
-1.910578205242454
 20
3.897114864326141
 30
0.0
 10
-1.97671971994426
 20
3.377152601179166
 30
0.0
 10
-1.992501151416483
 20
3.253089085836478
 30
0.0
 10
-1.99906568820055
 20
3.119642864838346
 30
0.0
 10
-1.99999999999993
 20
2.979999999999956
 30
0.0
  0
SPLINE
  5
2C5B5
330
2C5B1
100
AcDbEntity
  8
0
100
AcDbSpline
210
0.0
220
0.0
230
1.0
 70
     8
 71
     3
 72
    14
 73
    10
 74
     0
 42
0.000000001
 43
0.0000000001
 40
0.0
 40
0.0
 40
0.0
 40
0.0
 40
0.2870001856698038
 40
0.2870001856698038
 40
0.2870001856698038
 40
0.828291126202648
 40
0.828291126202648
 40
0.828291126202648
 40
1.0
 40
1.0
 40
1.0
 40
1.0
 10
-2.000000000000006
 20
5.46251060667355
 30
0.0
 10
-2.000346318721061
 20
5.399114891846261
 30
0.0
 10
-2.000215842365197
 20
5.272679561559229
 30
0.0
 10
-2.000098106197901
 20
5.089566824519335
 30
0.0
 10
-1.999876052262355
 20
4.744210721614571
 30
0.0
 10
-2.000046339026031
 20
4.210651672266397
 30
0.0
 10
-2.000163544094279
 20
3.590857296061474
 30
0.0
 10
-2.00020072400764
 20
3.394245480945344
 30
0.0
 10
-2.000026720759587
 20
3.188747556605464
 30
0.0
 10
-2.000000000000072
 20
2.979999999999929
 30
0.0
  0
SPLINE
  5
2C5B6
330
2C5B1
100
AcDbEntity
  8
0
100
AcDbSpline
210
0.0
220
0.0
230
1.0
 70
     8
 71
     3
 72
     8
 73
     4
 74
     0
 42
0.000000001
 43
0.0000000001
 40
0.3972932997755075
 40
0.3972932997755075
 40
0.3972932997755075
 40
0.3972932997755075
 40
0.6189293334597813
 40
0.6189293334597813
 40
0.6189293334597813
 40
0.6189293334597813
 10
-0.696818121248157
 20
5.085088846459635
 30
0.0
 10
-0.9084849812855111
 20
4.986202132064441
 30
0.0
 10
-1.139521640089434
 20
4.856465965630159
 30
0.0
 10
-1.348319373675248
 20
4.663942767768847
 30
0.0
  0
SPLINE
  5
2C5B7
330
2C5B1
100
AcDbEntity
  8
0
100
AcDbSpline
210
0.0
220
0.0
230
1.0
 70
     8
 71
     3
 72
     8
 73
     4
 74
     0
 42
0.000000001
 43
0.0000000001
 40
0.8191480548151794
 40
0.8191480548151794
 40
0.8191480548151794
 40
0.8191480548151794
 40
0.9812142248952909
 40
0.9812142248952909
 40
0.9812142248952909
 40
0.9812142248952909
 10
-1.827681793739192
 20
3.968429864537041
 30
0.0
 10
-1.923680180864787
 20
3.731675026704058
 30
0.0
 10
-1.984731782001555
 20
3.452071867296324
 30
0.0
 10
-1.997519385882669
 20
3.103884289129825
 30
0.0
  0
SPLINE
  5
2C5B8
330
2C5B1
100
AcDbEntity
  8
0
100
AcDbSpline
210
0.0
220
0.0
230
1.0
 70
     8
 71
     3
 72
     8
 73
     4
 74
     0
 42
0.000000001
 43
0.0000000001
 40
0.0236657911453179
 40
0.0236657911453179
 40
0.0236657911453179
 40
0.0236657911453179
 40
0.0259773650727726
 40
0.0259773650727726
 40
0.0259773650727726
 40
0.0259773650727726
 10
-1.999514426697308
 20
3.001731211214957
 30
0.0
 10
-1.999549743564994
 20
2.994729291747378
 30
0.0
 10
-1.99957609518662
 20
2.987417137673349
 30
0.0
 10
-1.999592629282691
 20
2.979998964484873
 30
0.0
  0
SPLINE
  5
2C5B9
330
2C5B1
100
AcDbEntity
  8
0
100
AcDbSpline
210
0.0
220
0.0
230
1.0
 70
     8
 71
     3
 72
    12
 73
     8
 74
     0
 42
0.000000001
 43
0.0000000001
 40
0.0085430932549536
 40
0.0085430932549536
 40
0.0085430932549536
 40
0.0085430932549536
 40
0.0108850245962376
 40
0.0108850245962376
 40
0.0178250004927116
 40
0.0178250004927116
 40
0.0205934103587312
 40
0.0205934103587312
 40
0.0205934103587312
 40
0.0205934103587312
 10
-1.999465381510401
 20
3.003885746601436
 30
0.0
 10
-1.999465381509983
 20
3.003885746618105
 30
0.0
 10
-1.999475770876882
 20
3.003473707331439
 30
0.0
 10
-1.999552945120704
 20
3.000340852570159
 30
0.0
 10
-1.999715716293725
 20
2.993417815125536
 30
0.0
 10
-1.99987856557251
 20
2.985525612798169
 30
0.0
 10
-1.999916774133579
 20
2.983574091217615
 30
0.0
 10
-1.999944488250372
 20
2.98212124709581
 30
0.0
  0
SPLINE
  5
2C5BA
330
2C5B1
100
AcDbEntity
  8
0
100
AcDbSpline
210
0.0
220
0.0
230
1.0
 70
     8
 71
     3
 72
     8
 73
     4
 74
     0
 42
0.000000001
 43
0.0000000001
 40
0.0315135455932173
 40
0.0315135455932173
 40
0.0315135455932173
 40
0.0315135455932173
 40
0.0522786779151247
 40
0.0522786779151247
 40
0.0522786779151247
 40
0.0522786779151247
 10
-1.99991944969262
 20
2.98475932440149
 30
0.0
 10
-1.999919449695107
 20
2.984759324203926
 30
0.0
 10
-1.999932383618342
 20
2.984140319718963
 30
0.0
 10
-1.99996061975317
 20
2.979999746164416
 30
0.0
  0
SPLINE
  5
2C5BB
330
2C5B1
100
AcDbEntity
  8
0
100
AcDbSpline
210
0.0
220
0.0
230
1.0
 70
     8
 71
     3
 72
    28
 73
    24
 74
     0
 42
0.000000001
 43
0.0000000001
 40
0.1835823548134955
 40
0.1835823548134955
 40
0.1835823548134955
 40
0.1835823548134955
 40
0.217628174553929
 40
0.217628174553929
 40
0.2546916075590911
 40
0.2546916075590911
 40
0.2790630747608886
 40
0.2790630747608886
 40
0.2840385874959084
 40
0.2840385874959084
 40
0.2876483155114891
 40
0.2876483155114891
 40
0.2894164258903755
 40
0.2894164258903755
 40
0.2911162096970548
 40
0.2911162096970548
 40
0.2932011326943523
 40
0.2932011326943523
 40
0.2951178128614033
 40
0.2951178128614033
 40
0.298401603508091
 40
0.298401603508091
 40
0.3016647909129625
 40
0.3016647909129625
 40
0.3016647909129625
 40
0.3016647909129625
 10
-1.804408006026934
 20
4.02037396358086
 30
0.0
 10
-1.845539636686792
 20
3.923976370574799
 30
0.0
 10
-1.879370449712398
 20
3.822965699119512
 30
0.0
 10
-1.935236639322462
 20
3.60948938565327
 30
0.0
 10
-1.956353271753523
 20
3.496222882930949
 30
0.0
 10
-1.981169742393001
 20
3.304546289552328
 30
0.0
 10
-1.988467769997311
 20
3.226529531688987
 30
0.0
 10
-1.994366981292847
 20
3.129710905282452
 30
0.0
 10
-1.995267851629251
 20
3.11316633701163
 30
0.0
 10
-1.996642713920424
 20
3.08458785753544
 30
0.0
 10
-1.997169074218401
 20
3.072485986589942
 30
0.0
 10
-1.997862263903932
 20
3.054755647952181
 30
0.0
 10
-1.998076615700732
 20
3.048945112993407
 30
0.0
 10
-1.998460301404013
 20
3.037942765571801
 30
0.0
 10
-1.998632898637155
 20
3.032676636476349
 30
0.0
 10
-1.998962897152295
 20
3.022081459729085
 30
0.0
 10
-1.999110447595143
 20
3.016949069134179
 30
0.0
 10
-1.999333423587303
 20
3.008842567318287
 30
0.0
 10
-1.999417967038318
 20
3.005583147660465
 30
0.0
 10
-1.999613860896154
 20
2.997780873017767
 30
0.0
 10
-1.999706269284871
 20
2.993768395212328
 30
0.0
 10
-1.999849487743577
 20
2.987305702962808
 30
0.0
 10
-1.999899963298086
 20
2.984884472155672
 30
0.0
 10
-1.999937280652154
 20
2.983043577427023
 30
0.0
  0
LINE
  5
2C5BC
330
2C5B1
100
AcDbEntity
  8
0
100
AcDbLine
 10
-1.999999999999921
 20
2.979999999999959
 30
0.0
 11
-1.999999999999921
 21
1.999999999999996
 31
0.0
  0
LINE
  5
2C5BD
330
2C5B1
100
AcDbEntity
  8
0
100
AcDbLine
 10
-1.999999999999926
 20
-2.000000000000003
 30
0.0
 11
-1.999999999999921
 21
1.999999999999996
 31
0.0
  0
SPLINE
  5
2C5BE
330
2C5B1
100
AcDbEntity
  8
0
100
AcDbSpline
210
0.0
220
0.0
230
1.0
 70
     8
 71
     3
 72
     8
 73
     4
 74
     0
 42
0.000000001
 43
0.0000000001
 40
0.0
 40
0.0
 40
0.0
 40
0.0
 40
1.0
 40
1.0
 40
1.0
 40
1.0
 10
-85.85459584055399
 20
1.999999999999994
 30
0.0
 10
-85.95105936082109
 20
1.385491012172571
 30
0.0
 10
-86.00000000000347
 20
0.7524502313481707
 30
0.0
 10
-86.00000000000006
 20
0.1881852513734636
 30
0.0
  0
LINE
  5
2C5BF
330
2C5B1
100
AcDbEntity
  8
0
100
AcDbLine
 10
-86.00000000000001
 20
-2.000000000000011
 30
0.0
 11
-86.00000000000001
 21
0.1881852513734583
 31
0.0
  0
LINE
  5
2C5C0
330
2C5B1
100
AcDbEntity
  8
0
100
AcDbLine
 10
-2.000000000000006
 20
-2.0
 30
0.0
 11
-86.00000000000001
 21
-2.0
 31
0.0
  0
LINE
  5
2C5C1
330
2C5B1
100
AcDbEntity
  8
0
100
AcDbLine
 10
0.0
 20
18.55999999999998
 30
0.0
 11
0.0
 21
175.0
 31
0.0
  0
LINE
  5
2C5C2
330
2C5B1
100
AcDbEntity
  8
0
100
AcDbLine
 10
0.0
 20
18.55999999999998
 30
0.0
 11
0.0
 21
10.32000000000003
 31
0.0
  0
LINE
  5
2C5C3
330
2C5B1
100
AcDbEntity
  8
0
100
AcDbLine
 10
0.0
 20
10.32000000000003
 30
0.0
 11
0.0
 21
5.462510606673538
 31
0.0
  0
CIRCLE
  5
2C5C4
330
2C5B1
100
AcDbEntity
  8
0
100
AcDbCircle
 10
-38.50000000000003
 20
160.0
 30
0.0
 40
2.5
  0
SPLINE
  5
2C5C5
330
2C5B1
100
AcDbEntity
  8
0
100
AcDbSpline
210
0.0
220
0.0
230
1.0
 70
     8
 71
     3
 72
     8
 73
     4
 74
     0
 42
0.000000001
 43
0.0000000001
 40
-1.0
 40
-1.0
 40
-1.0
 40
-1.0
 40
0.0
 40
0.0
 40
0.0
 40
0.0
 10
-86.00000000000006
 20
1.094092625686732
 30
0.0
 10
-86.00000000000347
 20
1.376225115674085
 30
0.0
 10
-85.95105936082109
 20
1.692745506086285
 30
0.0
 10
-85.85459584055399
 20
1.999999999999997
 30
0.0
  0
LINE
  5
2C5C6
330
2C5B1
100
AcDbEntity
  8
0
100
AcDbLine
 10
-86.00000000000006
 20
0.1881852513734619
 30
0.0
 11
-86.00000000000006
 21
1.094092625686731
 31
0.0
  0
LINE
  5
2C5C7
330
2C5B1
100
AcDbEntity
  8
0
100
AcDbLine
 10
-46.00000000000001
 20
175.0
 30
0.0
 11
-46.00000000000004
 21
18.55999999999998
 31
0.0
  0
LINE
  5
2C5C8
330
2C5B1
100
AcDbEntity
  8
0
100
AcDbLine
 10
-46.00000000000004
 20
18.55999999999998
 30
0.0
 11
-55.82004960297631
 21
10.32000000000003
 31
0.0
  0
LINE
  5
2C5C9
330
2C5B1
100
AcDbEntity
  8
0
100
AcDbLine
 10
-55.82004960297631
 20
10.32000000000003
 30
0.0
 11
-81.8682408883347
 21
5.727001077736275
 31
0.0
  0
ARC
  5
2C5CA
330
2C5B1
100
AcDbEntity
  8
0
100
AcDbCircle
 10
-81.00000000000006
 20
0.8029623126752483
 30
0.0
 40
5.0
100
AcDbArc
 50
100.0
 51
166.1484246068349
  0
LINE
  5
2C5CB
330
2C5B1
100
AcDbEntity
  8
0
100
AcDbLine
 10
-2.000000000000143
 20
10.32000000000003
 30
0.0
 11
0.0
 21
10.32000000000003
 31
0.0
  0
LINE
  5
2C5CC
330
2C5B1
100
AcDbEntity
  8
0
100
AcDbLine
 10
-2.000000000000003
 20
5.462510606673538
 30
0.0
 11
-2.000000000000143
 21
10.32000000000003
 31
0.0
  0
LINE
  5
2C5CD
330
2C5B1
100
AcDbEntity
  8
0
100
AcDbLine
 10
-2.000000000000197
 20
18.55999999999998
 30
0.0
 11
0.0
 21
18.55999999999998
 31
0.0
  0
LINE
  5
2C5CE
330
2C5B1
100
AcDbEntity
  8
0
100
AcDbLine
 10
-2.000000000000143
 20
10.32000000000003
 30
0.0
 11
-2.000000000000197
 21
18.55999999999998
 31
0.0
  0
LINE
  5
2C5CF
330
2C5B1
100
AcDbEntity
  8
0
100
AcDbLine
 10
0.0
 20
175.0
 30
0.0
 11
-2.00000000000001
 21
175.0
 31
0.0
  0
LINE
  5
2C5D0
330
2C5B1
100
AcDbEntity
  8
0
100
AcDbLine
 10
-2.000000000000197
 20
18.55999999999998
 30
0.0
 11
-2.00000000000001
 21
175.0
 31
0.0
  0
LINE
  5
2C5D1
330
2C5B1
100
AcDbEntity
  8
0
100
AcDbLine
 10
-2.000000000000001
 20
175.0
 30
0.0
 11
-4.000000000000003
 21
175.0
 31
0.0
  0
LINE
  5
2C5D2
330
2C5B1
100
AcDbEntity
  8
0
100
AcDbLine
 10
-4.000000000000003
 20
175.0
 30
0.0
 11
-46.00000000000001
 21
175.0
 31
0.0
  0
CIRCLE
  5
2C5D3
330
2C5B1
100
AcDbEntity
  8
0
100
AcDbCircle
 10
-38.50000000000003
 20
20.0
 30
0.0
 40
2.5
  0
CIRCLE
  5
2C5D4
330
2C5B1
100
AcDbEntity
  8
0
100
AcDbCircle
 10
-38.50000000000003
 20
40.0
 30
0.0
 40
2.5
  0
CIRCLE
  5
2C5D5
330
2C5B1
100
AcDbEntity
  8
0
100
AcDbCircle
 10
-38.50000000000003
 20
60.0
 30
0.0
 40
2.5
  0
CIRCLE
  5
2C5D6
330
2C5B1
100
AcDbEntity
  8
0
100
AcDbCircle
 10
-38.50000000000003
 20
80.0
 30
0.0
 40
2.5
  0
CIRCLE
  5
2C5D7
330
2C5B1
100
AcDbEntity
  8
0
100
AcDbCircle
 10
-38.50000000000003
 20
100.0
 30
0.0
 40
2.5
  0
CIRCLE
  5
2C5D8
330
2C5B1
100
AcDbEntity
  8
0
100
AcDbCircle
 10
-38.50000000000003
 20
120.0
 30
0.0
 40
2.5
  0
CIRCLE
  5
2C5D9
330
2C5B1
100
AcDbEntity
  8
0
100
AcDbCircle
 10
-38.50000000000003
 20
140.0
 30
0.0
 40
2.5
  0
ENDBLK
  5
2C5B3
330
2C5B1
100
AcDbEntity
  8
0
100
AcDbBlockEnd
  0
BLOCK
  5
2C5DB
330
2C5DA
100
AcDbEntity
  8
0
100
AcDbBlockBegin
  2
SAEL500_150_2-Top
 70
     0
 10
0.0
 20
0.0
 30
0.0
  3
SAEL500_150_2-Top
  1

  0
SPLINE
  5
2C5DD
330
2C5DA
100
AcDbEntity
  8
0
100
AcDbSpline
210
0.0
220
0.0
230
1.0
 70
     8
 71
     3
 72
    14
 73
    10
 74
     0
 42
0.000000001
 43
0.0000000001
 40
0.5188985697046594
 40
0.5188985697046594
 40
0.5188985697046594
 40
0.5188985697046594
 40
0.6652191719109486
 40
0.6652191719109486
 40
0.6652191719109486
 40
0.9355086585206766
 40
0.9355086585206766
 40
0.9355086585206766
 40
1.0
 40
1.0
 40
1.0
 40
1.0
 10
76.28994262301936
 20
-1.056587465078323
 30
0.0
 10
76.06011017592679
 20
-1.20240815284003
 30
0.0
 10
75.8505024218864
 20
-1.346500674664941
 30
0.0
 10
75.66915930662815
 20
-1.476639799427059
 30
0.0
 10
75.33417478097499
 20
-1.717038189601812
 30
0.0
 10
75.10858645395798
 20
-1.910578205242454
 30
0.0
 10
75.02755061002637
 20
-1.97671971994426
 30
0.0
 10
75.00821537672294
 20
-1.992501151416483
 30
0.0
 10
75.0000061370645
 20
-1.99906568820055
 30
0.0
 10
74.99999999999994
 20
-1.99999999999993
 30
0.0
  0
LINE
  5
2C5DE
330
2C5DA
100
AcDbEntity
  8
0
100
AcDbLine
 10
74.99999999999996
 20
-1.999999999999923
 30
0.0
 11
74.99999999999996
 21
-2.072029101505394
 31
0.0
  0
LINE
  5
2C5DF
330
2C5DA
100
AcDbEntity
  8
0
100
AcDbLine
 10
79.13175911166537
 20
-2.000000000000006
 30
0.0
 11
79.13050953112307
 21
-2.00000120193403
 31
0.0
  0
SPLINE
  5
2C5E0
330
2C5DA
100
AcDbEntity
  8
0
100
AcDbSpline
210
0.0
220
0.0
230
1.0
 70
     8
 71
     3
 72
    12
 73
     8
 74
     0
 42
0.000000001
 43
0.0000000001
 40
0.0
 40
0.0
 40
0.0
 40
0.0
 40
0.008109246722372
 40
0.008109246722372
 40
0.010580568400842
 40
0.010580568400842
 40
0.0106501728595529
 40
0.0106501728595529
 40
0.0106501728595529
 40
0.0106501728595529
 10
74.99994632337527
 20
-3.99999895533326
 30
0.0
 10
74.99998260335328
 20
-3.987607869053642
 30
0.0
 10
75.00002888654639
 20
-3.975891037779337
 30
0.0
 10
75.00006245390292
 20
-3.96840838322757
 30
0.0
 10
75.00006754895233
 20
-3.96730546564675
 30
0.0
 10
75.00006781890016
 20
-3.967245381664819
 30
0.0
 10
75.00006782260834
 20
-3.967244554683533
 30
0.0
 10
75.00006782260661
 20
-3.967244555071396
 30
0.0
  0
SPLINE
  5
2C5E1
330
2C5DA
100
AcDbEntity
  8
0
100
AcDbSpline
210
0.0
220
0.0
230
1.0
 70
     8
 71
     3
 72
    28
 73
    24
 74
     0
 42
0.000000001
 43
0.0000000001
 40
0.0042906869028031
 40
0.0042906869028031
 40
0.0042906869028031
 40
0.0042906869028031
 40
0.0051875106429947
 40
0.0051875106429947
 40
0.0061261810393424
 40
0.0061261810393424
 40
0.0079766691349034
 40
0.0079766691349034
 40
0.0112142360696573
 40
0.0112142360696573
 40
0.0209238768793273
 40
0.0209238768793273
 40
0.0500589477078427
 40
0.0500589477078427
 40
0.1374914481221527
 40
0.1374914481221527
 40
0.1778972080429218
 40
0.1778972080429218
 40
0.1981464126779605
 40
0.1981464126779605
 40
0.2084530444819173
 40
0.2084530444819173
 40
0.2192720490803239
 40
0.2192720490803239
 40
0.2192720490803239
 40
0.2192720490803239
 10
74.99995503002597
 20
-3.99707484709658
 30
0.0
 10
74.99994485170302
 20
-3.996408617119426
 30
0.0
 10
74.99993011466308
 20
-3.995442924671175
 30
0.0
 10
74.99988166932467
 20
-3.9922554856683
 30
0.0
 10
74.99984656479359
 20
-3.989938706195088
 30
0.0
 10
74.99973524248777
 20
-3.982541387896228
 30
0.0
 10
74.99965256167721
 20
-3.976985609400201
 30
0.0
 10
74.99943060129881
 20
-3.961857986290189
 30
0.0
 10
74.9992899877501
 20
-3.952046887971563
 30
0.0
 10
74.99874231052547
 20
-3.912850881759371
 30
0.0
 10
74.99836141876264
 20
-3.883337148094543
 30
0.0
 10
74.99697569855832
 20
-3.765746646178347
 30
0.0
 10
74.99625343907857
 20
-3.678439601445032
 30
0.0
 10
74.9944419372832
 20
-3.332214182005672
 30
0.0
 10
74.99528328950619
 20
-3.071187055931936
 30
0.0
 10
74.99701754335045
 20
-2.675431828738084
 30
0.0
 10
74.99760270155126
 20
-2.549820387064711
 30
0.0
 10
74.99858178023747
 20
-2.363247403269814
 30
0.0
 10
74.99901927590641
 20
-2.298341541562918
 30
0.0
 10
74.99950526899318
 20
-2.206375165596056
 30
0.0
 10
74.99961184735224
 20
-2.176804489558796
 30
0.0
 10
74.99967131682772
 20
-2.121115983373158
 30
0.0
 10
74.99962264921686
 20
-2.093375357096967
 30
0.0
 10
74.99959797787063
 20
-2.072029101505394
 30
0.0
  0
SPLINE
  5
2C5E2
330
2C5DA
100
AcDbEntity
  8
0
100
AcDbSpline
210
0.0
220
0.0
230
1.0
 70
     8
 71
     3
 72
    10
 73
     6
 74
     0
 42
0.000000001
 43
0.0000000001
 40
0.0
 40
0.0
 40
0.0
 40
0.0
 40
0.0142578775593652
 40
0.0142578775593652
 40
0.0186060998818709
 40
0.0186060998818709
 40
0.0186060998818709
 40
0.0186060998818709
 10
79.13050983550474
 20
-2.00000119823695
 30
0.0
 10
79.08339548125693
 20
-2.000046197985518
 30
0.0
 10
79.03611102322489
 20
-2.000140794716435
 30
0.0
 10
78.97489132273117
 20
-2.000502706379571
 30
0.0
 10
78.96060447390405
 20
-2.000601719222193
 30
0.0
 10
78.94630515696049
 20
-2.000720913971498
 30
0.0
  0
SPLINE
  5
2C5E3
330
2C5DA
100
AcDbEntity
  8
0
100
AcDbSpline
210
0.0
220
0.0
230
1.0
 70
     8
 71
     3
 72
     8
 73
     4
 74
     0
 42
0.000000001
 43
0.0000000001
 40
0.0371070429661971
 40
0.0371070429661971
 40
0.0371070429661971
 40
0.0371070429661971
 40
0.0386949748052431
 40
0.0386949748052431
 40
0.0386949748052431
 40
0.0386949748052431
 10
78.97294671046181
 20
-2.000182978488991
 30
0.0
 10
78.97817092695246
 20
-2.000133848648241
 30
0.0
 10
78.98339928574265
 20
-2.000091228252237
 30
0.0
 10
78.98863138565295
 20
-2.000055018194046
 30
0.0
  0
SPLINE
  5
2C5E4
330
2C5DA
100
AcDbEntity
  8
0
100
AcDbSpline
210
0.0
220
0.0
230
1.0
 70
     8
 71
     3
 72
     8
 73
     4
 74
     0
 42
0.000000001
 43
0.0000000001
 40
0.017116350188417
 40
0.017116350188417
 40
0.017116350188417
 40
0.017116350188417
 40
0.0175573141787654
 40
0.0175573141787654
 40
0.0175573141787654
 40
0.0175573141787654
 10
77.00000281104448
 20
-3.996646767233022
 30
0.0
 10
77.00001167119502
 20
-3.997774957320666
 30
0.0
 10
77.00002078703232
 20
-3.998894106879322
 30
0.0
 10
77.00003012162357
 20
-4.000000899730411
 30
0.0
  0
LINE
  5
2C5E5
330
2C5DA
100
AcDbEntity
  8
0
100
AcDbLine
 10
-75.00000000000001
 20
-2.000000000000076
 30
0.0
 11
-75.00000000000001
 21
-2.071164918268488
 31
0.0
  0
SPLINE
  5
2C5E6
330
2C5DA
100
AcDbEntity
  8
0
100
AcDbSpline
210
0.0
220
0.0
230
1.0
 70
     8
 71
     3
 72
    11
 73
     7
 74
     0
 42
0.000000001
 43
0.0000000001
 40
0.5165110364572724
 40
0.5165110364572724
 40
0.5165110364572724
 40
0.5165110364572724
 40
0.7616502545681055
 40
0.7616502545681055
 40
0.7616502545681055
 40
1.0
 40
1.0
 40
1.0
 40
1.0
 10
-76.30103524111575
 20
-1.048721509984433
 30
0.0
 10
-75.91453133238323
 20
-1.292566595506343
 30
0.0
 10
-75.58653163749602
 20
-1.532727636536231
 30
0.0
 10
-75.35494570855047
 20
-1.712905503761148
 30
0.0
 10
-75.12977387503005
 20
-1.888093093557994
 30
0.0
 10
-75.00000062358525
 20
-1.997912049311535
 30
0.0
 10
-74.99999999999388
 20
-1.999999999999929
 30
0.0
  0
SPLINE
  5
2C5E7
330
2C5DA
100
AcDbEntity
  8
0
100
AcDbSpline
210
0.0
220
0.0
230
1.0
 70
     8
 71
     3
 72
    10
 73
     6
 74
     0
 42
0.000000001
 43
0.0000000001
 40
0.0
 40
0.0
 40
0.0
 40
0.0
 40
0.0072944892693274
 40
0.0072944892693274
 40
0.0085765880610847
 40
0.0085765880610847
 40
0.0085765880610847
 40
0.0085765880610847
 10
-76.18000841714828
 20
-1.163161268850596
 30
0.0
 10
-76.17269480881931
 20
-1.170431529480191
 30
0.0
 10
-76.16785858012585
 20
-1.175173652650757
 30
0.0
 10
-76.16643387255746
 20
-1.176559070642878
 30
0.0
 10
-76.16632639094284
 20
-1.176663007162196
 30
0.0
 10
-76.16632639094055
 20
-1.176663007164406
 30
0.0
  0
SPLINE
  5
2C5E8
330
2C5DA
100
AcDbEntity
  8
0
100
AcDbSpline
210
0.0
220
0.0
230
1.0
 70
     8
 71
     3
 72
    14
 73
    10
 74
     0
 42
0.000000001
 43
0.0000000001
 40
0.0094375097230587
 40
0.0094375097230587
 40
0.0094375097230587
 40
0.0094375097230587
 40
0.011132603024897
 40
0.011132603024897
 40
0.013430290910985
 40
0.013430290910985
 40
0.0168843634295253
 40
0.0168843634295253
 40
0.0210563278735583
 40
0.0210563278735583
 40
0.0210563278735583
 40
0.0210563278735583
 10
-75.00014631260903
 20
-3.945150272961488
 30
0.0
 10
-75.00014631259135
 20
-3.945150275798002
 30
0.0
 10
-75.00014139922813
 20
-3.945923554851722
 30
0.0
 10
-75.00012193601072
 20
-3.949007846743885
 30
0.0
 10
-75.00010465089373
 20
-3.951773993227483
 30
0.0
 10
-75.00005685462953
 20
-3.960051765658579
 30
0.0
 10
-75.00002414933068
 20
-3.966283487696485
 30
0.0
 10
-74.99995869322273
 20
-3.981300587111327
 30
0.0
 10
-74.99992664642435
 20
-3.990462170457354
 30
0.0
 10
-74.99990096457811
 20
-3.999981642567423
 30
0.0
  0
SPLINE
  5
2C5E9
330
2C5DA
100
AcDbEntity
  8
0
100
AcDbSpline
210
0.0
220
0.0
230
1.0
 70
     8
 71
     3
 72
    32
 73
    28
 74
     0
 42
0.000000001
 43
0.0000000001
 40
0.0
 40
0.0
 40
0.0
 40
0.0
 40
0.0048624001418469
 40
0.0048624001418469
 40
0.0122186643071182
 40
0.0122186643071182
 40
0.0268750545015645
 40
0.0268750545015645
 40
0.0440054479309763
 40
0.0440054479309763
 40
0.095393552793433
 40
0.095393552793433
 40
0.1377339599913865
 40
0.1377339599913865
 40
0.1790587425152738
 40
0.1790587425152738
 40
0.1997096072231916
 40
0.1997096072231916
 40
0.2098793803433864
 40
0.2098793803433864
 40
0.212547222749384
 40
0.212547222749384
 40
0.2142584605333476
 40
0.2142584605333476
 40
0.2152443474156161
 40
0.2152443474156161
 40
0.2161261916480104
 40
0.2161261916480104
 40
0.2161261916480104
 40
0.2161261916480104
 10
-74.9996602213765
 20
-2.071164918268488
 30
0.0
 10
-74.99967488844048
 20
-2.079837299683769
 30
0.0
 10
-74.9996927808852
 20
-2.090676038909596
 30
0.0
 10
-74.99972396360394
 20
-2.119182102884222
 30
0.0
 10
-74.99972800060612
 20
-2.137980358793671
 30
0.0
 10
-74.99960508044435
 20
-2.197111519803306
 30
0.0
 10
-74.9993022417315
 20
-2.241973328255415
 30
0.0
 10
-74.99857392847895
 20
-2.3410201393063
 30
0.0
 10
-74.99823048619275
 20
-2.394377471541437
 30
0.0
 10
-74.99693990089584
 20
-2.60466049929968
 30
0.0
 10
-74.99598687939192
 20
-2.764499015752929
 30
0.0
 10
-74.99482304386174
 20
-3.051042121591341
 30
0.0
 10
-74.99450807508019
 20
-3.178885976970684
 30
0.0
 10
-74.99468466681202
 20
-3.427962236206255
 30
0.0
 10
-74.99515982125257
 20
-3.549332581910324
 30
0.0
 10
-74.99667917138227
 20
-3.734124988043862
 30
0.0
 10
-74.99732102344811
 20
-3.79636097133956
 30
0.0
 10
-74.9984609242575
 20
-3.889624446474312
 30
0.0
 10
-74.99886916374251
 20
-3.920660052719886
 30
0.0
 10
-74.99939739755788
 20
-3.958580652088853
 30
0.0
 10
-74.99950841700448
 20
-3.966430168260599
 30
0.0
 10
-74.99968008065038
 20
-3.978417617583021
 30
0.0
 10
-74.99974513613539
 20
-3.982919303649627
 30
0.0
 10
-74.99982784848289
 20
-3.988612204665626
 30
0.0
 10
-74.99985408630056
 20
-3.990410874413439
 30
0.0
 10
-74.99989189117265
 20
-3.992998327679796
 30
0.0
 10
-74.99990540407257
 20
-3.993921285364057
 30
0.0
 10
-74.99991611379146
 20
-3.994652155280318
 30
0.0
  0
LINE
  5
2C5EA
330
2C5DA
100
AcDbEntity
  8
0
100
AcDbLine
 10
-75.00000000000001
 20
-2.000000000000076
 30
0.0
 11
-73.00000000000001
 21
-2.000000000000074
 31
0.0
  0
LINE
  5
2C5EB
330
2C5DA
100
AcDbEntity
  8
0
100
AcDbLine
 10
-73.0
 20
-2.000000000000006
 30
0.0
 11
73.0
 21
-2.000000000000006
 31
0.0
  0
LINE
  5
2C5EC
330
2C5DA
100
AcDbEntity
  8
0
100
AcDbLine
 10
72.99999999999994
 20
-1.999999999999926
 30
0.0
 11
74.99999999999994
 21
-1.999999999999923
 31
0.0
  0
SPLINE
  5
2C5ED
330
2C5DA
100
AcDbEntity
  8
0
100
AcDbSpline
210
0.0
220
0.0
230
1.0
 70
     8
 71
     3
 72
     8
 73
     4
 74
     0
 42
0.000000001
 43
0.0000000001
 40
-1.0
 40
-1.0
 40
-1.0
 40
-1.0
 40
0.0
 40
0.0
 40
0.0
 40
0.0
 10
-76.56613618874256
 20
-86.00000000000006
 30
0.0
 10
-76.85281722354962
 20
-86.00000000000347
 30
0.0
 10
-77.0
 20
-85.95105936082109
 30
0.0
 10
-77.0
 20
-85.85459584055399
 30
0.0
  0
LINE
  5
2C5EE
330
2C5DA
100
AcDbEntity
  8
0
100
AcDbLine
 10
-76.56613618874256
 20
-86.00000000000006
 30
0.0
 11
-74.78306809437127
 21
-86.00000000000006
 31
0.0
  0
SPLINE
  5
2C5EF
330
2C5DA
100
AcDbEntity
  8
0
100
AcDbSpline
210
0.0
220
0.0
230
1.0
 70
     8
 71
     3
 72
     8
 73
     4
 74
     0
 42
0.000000001
 43
0.0000000001
 40
0.0
 40
0.0
 40
0.0
 40
0.0
 40
1.0
 40
1.0
 40
1.0
 40
1.0
 10
-74.99999999999999
 20
-85.85459584055399
 30
0.0
 10
-74.99999999999999
 20
-85.95105936082109
 30
0.0
 10
-74.92640861177481
 20
-86.00000000000347
 30
0.0
 10
-74.78306809437127
 20
-86.00000000000006
 30
0.0
  0
LINE
  5
2C5F0
330
2C5DA
100
AcDbEntity
  8
0
100
AcDbLine
 10
-74.78306809437128
 20
-86.00000000000001
 30
0.0
 11
-72.99999999999998
 21
-86.00000000000001
 31
0.0
  0
SPLINE
  5
2C5F1
330
2C5DA
100
AcDbEntity
  8
0
100
AcDbSpline
210
0.0
220
0.0
230
1.0
 70
     8
 71
     3
 72
     8
 73
     4
 74
     0
 42
0.000000001
 43
0.0000000001
 40
0.0
 40
0.0
 40
0.0
 40
0.0
 40
1.0
 40
1.0
 40
1.0
 40
1.0
 10
77.0
 20
-85.85459584055399
 30
0.0
 10
77.0
 20
-85.95105936082109
 30
0.0
 10
76.85281722354962
 20
-86.00000000000347
 30
0.0
 10
76.56613618874256
 20
-86.00000000000006
 30
0.0
  0
LINE
  5
2C5F2
330
2C5DA
100
AcDbEntity
  8
0
100
AcDbLine
 10
79.00000000000002
 20
0.0
 30
0.0
 11
116.5
 21
0.0
 31
0.0
  0
ARC
  5
2C5F3
330
2C5DA
100
AcDbEntity
  8
0
100
AcDbCircle
 10
79.0
 20
-4.000000000000002
 30
0.0
 40
4.000000000000003
100
AcDbArc
 50
89.99999999999987
 51
180.0
  0
LINE
  5
2C5F4
330
2C5DA
100
AcDbEntity
  8
0
100
AcDbLine
 10
77.0
 20
-85.85459584055405
 30
0.0
 11
75.54647908961739
 21
-85.85459584055405
 31
0.0
  0
LINE
  5
2C5F5
330
2C5DA
100
AcDbEntity
  8
0
100
AcDbLine
 10
75.54647908961739
 20
-85.85459584055405
 30
0.0
 11
75.00000000000003
 21
-85.85459584055405
 31
0.0
  0
SPLINE
  5
2C5F6
330
2C5DA
100
AcDbEntity
  8
0
100
AcDbSpline
210
0.0
220
0.0
230
1.0
 70
     8
 71
     3
 72
     8
 73
     4
 74
     0
 42
0.000000001
 43
0.0000000001
 40
-1.0
 40
-1.0
 40
-1.0
 40
-1.0
 40
0.0
 40
0.0
 40
0.0
 40
0.0
 10
74.78306809437127
 20
-86.00000000000006
 30
0.0
 10
74.92640861177481
 20
-86.00000000000347
 30
0.0
 10
74.99999999999999
 20
-85.95105936082109
 30
0.0
 10
74.99999999999999
 20
-85.85459584055399
 30
0.0
  0
LINE
  5
2C5F7
330
2C5DA
100
AcDbEntity
  8
0
100
AcDbLine
 10
76.56613618874256
 20
-86.00000000000006
 30
0.0
 11
74.78306809437127
 21
-86.00000000000006
 31
0.0
  0
LINE
  5
2C5F8
330
2C5DA
100
AcDbEntity
  8
0
100
AcDbLine
 10
75.00000000000003
 20
-46.00000000000001
 30
0.0
 11
77.0
 21
-46.00000000000001
 31
0.0
  0
LINE
  5
2C5F9
330
2C5DA
100
AcDbEntity
  8
0
100
AcDbLine
 10
75.00000000000003
 20
-55.82004960297631
 30
0.0
 11
75.00000000000003
 21
-46.00000000000004
 31
0.0
  0
LINE
  5
2C5FA
330
2C5DA
100
AcDbEntity
  8
0
100
AcDbLine
 10
77.0
 20
-55.82004960297631
 30
0.0
 11
75.00000000000003
 21
-55.82004960297631
 31
0.0
  0
LINE
  5
2C5FB
330
2C5DA
100
AcDbEntity
  8
0
100
AcDbLine
 10
77.0
 20
-46.00000000000004
 30
0.0
 11
77.0
 21
-55.82004960297631
 31
0.0
  0
LINE
  5
2C5FC
330
2C5DA
100
AcDbEntity
  8
0
100
AcDbLine
 10
75.00000000000003
 20
-81.8682408883347
 30
0.0
 11
75.00000000000003
 21
-55.82004960297631
 31
0.0
  0
LINE
  5
2C5FD
330
2C5DA
100
AcDbEntity
  8
0
100
AcDbLine
 10
77.0
 20
-55.82004960297631
 30
0.0
 11
77.0
 21
-81.8682408883347
 31
0.0
  0
LINE
  5
2C5FE
330
2C5DA
100
AcDbEntity
  8
0
100
AcDbLine
 10
75.0
 20
-81.8682408883347
 30
0.0
 11
75.0
 21
-85.85459584055405
 31
0.0
  0
LINE
  5
2C5FF
330
2C5DA
100
AcDbEntity
  8
0
100
AcDbLine
 10
77.0
 20
-85.85459584055405
 30
0.0
 11
77.0
 21
-81.8682408883347
 31
0.0
  0
LINE
  5
2C600
330
2C5DA
100
AcDbEntity
  8
0
100
AcDbLine
 10
75.00000000000003
 20
-46.00000000000001
 30
0.0
 11
75.0
 21
-4.000000000000003
 31
0.0
  0
LINE
  5
2C601
330
2C5DA
100
AcDbEntity
  8
0
100
AcDbLine
 10
116.5
 20
0.0
 30
0.0
 11
116.5
 21
-2.00000000000001
 31
0.0
  0
LINE
  5
2C602
330
2C5DA
100
AcDbEntity
  8
0
100
AcDbLine
 10
74.78306809437128
 20
-86.00000000000001
 30
0.0
 11
72.99999999999998
 21
-86.00000000000001
 31
0.0
  0
ARC
  5
2C603
330
2C5DA
100
AcDbEntity
  8
0
100
AcDbCircle
 10
79.0
 20
-4.000000000000002
 30
0.0
 40
2.000000000000001
100
AcDbArc
 50
89.99999999999975
 51
180.0
  0
LINE
  5
2C604
330
2C5DA
100
AcDbEntity
  8
0
100
AcDbLine
 10
77.0
 20
-4.000000000000003
 30
0.0
 11
77.0
 21
-46.00000000000001
 31
0.0
  0
LINE
  5
2C605
330
2C5DA
100
AcDbEntity
  8
0
100
AcDbLine
 10
116.5
 20
-2.00000000000001
 30
0.0
 11
79.00000000000002
 21
-2.000000000000001
 31
0.0
  0
LINE
  5
2C606
330
2C5DA
100
AcDbEntity
  8
0
100
AcDbLine
 10
-79.00000000000002
 20
0.0
 30
0.0
 11
-116.5
 21
0.0
 31
0.0
  0
LINE
  5
2C607
330
2C5DA
100
AcDbEntity
  8
0
100
AcDbLine
 10
-116.5
 20
-2.00000000000001
 30
0.0
 11
-79.00000000000002
 21
-2.000000000000001
 31
0.0
  0
LINE
  5
2C608
330
2C5DA
100
AcDbEntity
  8
0
100
AcDbLine
 10
-75.00000000000003
 20
-46.00000000000001
 30
0.0
 11
-75.0
 21
-4.000000000000003
 31
0.0
  0
LINE
  5
2C609
330
2C5DA
100
AcDbEntity
  8
0
100
AcDbLine
 10
-77.0
 20
-4.000000000000003
 30
0.0
 11
-77.0
 21
-46.00000000000001
 31
0.0
  0
LINE
  5
2C60A
330
2C5DA
100
AcDbEntity
  8
0
100
AcDbLine
 10
-116.5
 20
0.0
 30
0.0
 11
-116.5
 21
-2.00000000000001
 31
0.0
  0
ARC
  5
2C60B
330
2C5DA
100
AcDbEntity
  8
0
100
AcDbCircle
 10
-79.0
 20
-4.000000000000002
 30
0.0
 40
2.000000000000001
100
AcDbArc
 50
0.0
 51
90.00000000000024
  0
ARC
  5
2C60C
330
2C5DA
100
AcDbEntity
  8
0
100
AcDbCircle
 10
-79.0
 20
-4.000000000000002
 30
0.0
 40
4.000000000000003
100
AcDbArc
 50
0.0
 51
90.00000000000007
  0
LINE
  5
2C60D
330
2C5DA
100
AcDbEntity
  8
0
100
AcDbLine
 10
-72.99999999999998
 20
-86.00000000000001
 30
0.0
 11
72.99999999999998
 21
-86.00000000000001
 31
0.0
  0
CIRCLE
  5
2C60E
330
2C5DA
100
AcDbEntity
  8
0
100
AcDbCircle
 10
0.0
 20
-67.99999999999998
 30
0.0
 40
2.5
  0
CIRCLE
  5
2C60F
330
2C5DA
100
AcDbEntity
  8
0
100
AcDbCircle
 10
0.0
 20
-47.99999999999998
 30
0.0
 40
2.5
  0
LINE
  5
2C610
330
2C5DA
100
AcDbEntity
  8
0
100
AcDbLine
 10
-77.0
 20
-85.85459584055405
 30
0.0
 11
-75.54647908961739
 21
-85.85459584055405
 31
0.0
  0
LINE
  5
2C611
330
2C5DA
100
AcDbEntity
  8
0
100
AcDbLine
 10
-75.54647908961739
 20
-85.85459584055405
 30
0.0
 11
-75.00000000000003
 21
-85.85459584055405
 31
0.0
  0
LINE
  5
2C612
330
2C5DA
100
AcDbEntity
  8
0
100
AcDbLine
 10
-77.0
 20
-46.00000000000001
 30
0.0
 11
-75.00000000000003
 21
-46.00000000000001
 31
0.0
  0
LINE
  5
2C613
330
2C5DA
100
AcDbEntity
  8
0
100
AcDbLine
 10
-75.00000000000003
 20
-46.00000000000004
 30
0.0
 11
-75.00000000000003
 21
-55.82004960297631
 31
0.0
  0
LINE
  5
2C614
330
2C5DA
100
AcDbEntity
  8
0
100
AcDbLine
 10
-77.0
 20
-55.82004960297631
 30
0.0
 11
-77.0
 21
-46.00000000000004
 31
0.0
  0
LINE
  5
2C615
330
2C5DA
100
AcDbEntity
  8
0
100
AcDbLine
 10
-77.0
 20
-55.82004960297631
 30
0.0
 11
-75.00000000000003
 21
-55.82004960297631
 31
0.0
  0
LINE
  5
2C616
330
2C5DA
100
AcDbEntity
  8
0
100
AcDbLine
 10
-75.00000000000003
 20
-55.82004960297631
 30
0.0
 11
-75.00000000000003
 21
-81.8682408883347
 31
0.0
  0
LINE
  5
2C617
330
2C5DA
100
AcDbEntity
  8
0
100
AcDbLine
 10
-77.0
 20
-81.8682408883347
 30
0.0
 11
-77.0
 21
-55.82004960297631
 31
0.0
  0
LINE
  5
2C618
330
2C5DA
100
AcDbEntity
  8
0
100
AcDbLine
 10
-75.0
 20
-85.85459584055405
 30
0.0
 11
-75.0
 21
-81.8682408883347
 31
0.0
  0
LINE
  5
2C619
330
2C5DA
100
AcDbEntity
  8
0
100
AcDbLine
 10
-77.0
 20
-81.8682408883347
 30
0.0
 11
-77.0
 21
-85.85459584055405
 31
0.0
  0
ENDBLK
  5
2C5DC
330
2C5DA
100
AcDbEntity
  8
0
100
AcDbBlockEnd
  0
BLOCK
  5
2C61B
330
2C61A
100
AcDbEntity
  8
0
100
AcDbBlockBegin
  2
SAEL500_150_2-Bottom
 70
     0
 10
0.0
 20
0.0
 30
0.0
  3
SAEL500_150_2-Bottom
  1

  0
LINE
  5
2C61D
330
2C61A
100
AcDbEntity
  8
0
100
AcDbLine
 10
79.13175911166542
 20
0.0
 30
0.0
 11
79.0
 21
0.0
 31
0.0
  0
SPLINE
  5
2C61E
330
2C61A
100
AcDbEntity
  8
0
100
AcDbSpline
210
0.0
220
0.0
230
1.0
 70
     8
 71
     3
 72
    17
 73
    13
 74
     0
 42
0.000000001
 43
0.0000000001
 40
0.0
 40
0.0
 40
0.0
 40
0.0
 40
0.2630945547128502
 40
0.2630945547128502
 40
0.2630945547128502
 40
0.6652191719109486
 40
0.6652191719109486
 40
0.6652191719109486
 40
0.9355086585206766
 40
0.9355086585206766
 40
0.9355086585206766
 40
1.0
 40
1.0
 40
1.0
 40
1.0
 10
79.13175911166542
 20
0.0000000000000115
 30
0.0
 10
78.65968744604881
 20
0.0000028677165486
 30
0.0
 10
78.13405572011863
 20
0.1353978454009032
 30
0.0
 10
77.63783379552048
 20
0.341274158804972
 30
0.0
 10
76.87938764792869
 20
0.6559440454855392
 30
0.0
 10
76.16753431127666
 20
1.118985819479093
 30
0.0
 10
75.66915930662815
 20
1.476639799427059
 30
0.0
 10
75.33417478097499
 20
1.717038189601812
 30
0.0
 10
75.10858645395798
 20
1.910578205242454
 30
0.0
 10
75.02755061002637
 20
1.97671971994426
 30
0.0
 10
75.00821537672294
 20
1.992501151416483
 30
0.0
 10
75.0000061370645
 20
1.99906568820055
 30
0.0
 10
74.99999999999994
 20
1.99999999999993
 30
0.0
  0
ARC
  5
2C61F
330
2C61A
100
AcDbEntity
  8
0
100
AcDbCircle
 10
79.0
 20
4.000000000000002
 30
0.0
 40
4.000000000000002
100
AcDbArc
 50
227.3580443702534
 51
270.0
  0
SPLINE
  5
2C620
330
2C61A
100
AcDbEntity
  8
0
100
AcDbSpline
210
0.0
220
0.0
230
1.0
 70
     8
 71
     3
 72
    14
 73
    10
 74
     0
 42
0.000000001
 43
0.0000000001
 40
0.0
 40
0.0
 40
0.0
 40
0.0
 40
0.2870001856698038
 40
0.2870001856698038
 40
0.2870001856698038
 40
0.828291126202648
 40
0.828291126202648
 40
0.828291126202648
 40
1.0
 40
1.0
 40
1.0
 40
1.0
 10
79.13175911166537
 20
2.000000000000006
 30
0.0
 10
78.7722239242232
 20
2.000346318721061
 30
0.0
 10
78.46620915172107
 20
2.000215842365197
 30
0.0
 10
78.18206703770856
 20
2.000098106197901
 30
0.0
 10
77.64616650586791
 20
1.999876052262355
 30
0.0
 10
77.24264309979002
 20
2.000046339026031
 30
0.0
 10
77.07927432865017
 20
2.000163544094279
 30
0.0
 10
77.02745031755833
 20
2.00020072400764
 30
0.0
 10
77.00121049601557
 20
2.000026720759587
 30
0.0
 10
76.99999999999995
 20
2.000000000000072
 30
0.0
  0
ARC
  5
2C621
330
2C61A
100
AcDbEntity
  8
0
100
AcDbCircle
 10
79.0
 20
4.000000000000002
 30
0.0
 40
2.000000000000001
100
AcDbArc
 50
180.0541372143694
 51
268.5006047386365
  0
ARC
  5
2C622
330
2C61A
100
AcDbEntity
  8
0
100
AcDbCircle
 10
79.0
 20
4.000000000000002
 30
0.0
 40
2.000000000000001
100
AcDbArc
 50
269.5183340401468
 51
269.6743077379181
  0
SPLINE
  5
2C623
330
2C61A
100
AcDbEntity
  8
0
100
AcDbSpline
210
0.0
220
0.0
230
1.0
 70
     8
 71
     3
 72
    14
 73
    10
 74
     0
 42
0.000000001
 43
0.0000000001
 40
0.0118649783378996
 40
0.0118649783378996
 40
0.0118649783378996
 40
0.0118649783378996
 40
0.0118716600593897
 40
0.0118716600593897
 40
0.0130350275492211
 40
0.0130350275492211
 40
0.0155595047552946
 40
0.0155595047552946
 40
0.0169778308727073
 40
0.0169778308727073
 40
0.0169778308727073
 40
0.0169778308727073
 10
78.87281974298668
 20
2.001908314498051
 30
0.0
 10
78.87281974693158
 20
2.001908314404269
 30
0.0
 10
78.87282363421653
 20
2.001908221992575
 30
0.0
 10
78.87412916546626
 20
2.001877218060125
 30
0.0
 10
78.88060237552611
 20
2.001729193837759
 30
0.0
 10
78.89283487927317
 20
2.001466161137475
 30
0.0
 10
78.90117337792093
 20
2.001303563851968
 30
0.0
 10
78.91422703655663
 20
2.001075642022731
 30
0.0
 10
78.91893778353213
 20
2.000998888988063
 30
0.0
 10
78.92365492797307
 20
2.000928691293757
 30
0.0
  0
SPLINE
  5
2C624
330
2C61A
100
AcDbEntity
  8
0
100
AcDbSpline
210
0.0
220
0.0
230
1.0
 70
     8
 71
     3
 72
     8
 73
     4
 74
     0
 42
0.000000001
 43
0.0000000001
 40
0.0
 40
0.0
 40
0.0
 40
0.0
 40
0.0004577657631557
 40
0.0004577657631557
 40
0.0004577657631557
 40
0.0004577657631557
 10
77.00001567016385
 20
3.999999878025556
 30
0.0
 10
77.000010569045
 20
3.999567572130539
 30
0.0
 10
77.00000531490235
 20
3.999115250785663
 30
0.0
 10
76.99999999999994
 20
3.998649690013138
 30
0.0
  0
SPLINE
  5
2C625
330
2C61A
100
AcDbEntity
  8
0
100
AcDbSpline
210
0.0
220
0.0
230
1.0
 70
     8
 71
     3
 72
     8
 73
     4
 74
     0
 42
0.000000001
 43
0.0000000001
 40
0.0
 40
0.0
 40
0.0
 40
0.0
 40
0.0004828733893952
 40
0.0004828733893952
 40
0.0004828733893952
 40
0.0004828733893952
 10
77.00001979668454
 20
3.999999484541792
 30
0.0
 10
77.00001348640899
 20
3.999551841855901
 30
0.0
 10
77.00000687973181
 20
3.999077910581083
 30
0.0
 10
76.99999999999994
 20
3.998577730438874
 30
0.0
  0
SPLINE
  5
2C626
330
2C61A
100
AcDbEntity
  8
0
100
AcDbSpline
210
0.0
220
0.0
230
1.0
 70
     8
 71
     3
 72
     8
 73
     4
 74
     0
 42
0.000000001
 43
0.0000000001
 40
0.0
 40
0.0
 40
0.0
 40
0.0
 40
0.0004862067179453
 40
0.0004862067179453
 40
0.0004862067179453
 40
0.0004862067179453
 10
77.00003012162354
 20
4.00000089973041
 30
0.0
 10
77.000019829307
 20
3.998780550379147
 30
0.0
 10
77.0000097614361
 20
3.997544074373782
 30
0.0
 10
76.99999999999994
 20
3.996296821573467
 30
0.0
  0
LINE
  5
2C627
330
2C61A
100
AcDbEntity
  8
0
100
AcDbLine
 10
-79.0
 20
0.0
 30
0.0
 11
-79.13175911166542
 21
0.0
 31
0.0
  0
ARC
  5
2C628
330
2C61A
100
AcDbEntity
  8
0
100
AcDbCircle
 10
-79.0
 20
4.000000000000002
 30
0.0
 40
4.000000000000003
100
AcDbArc
 50
269.9999999999999
 51
312.4822782988542
  0
SPLINE
  5
2C629
330
2C61A
100
AcDbEntity
  8
0
100
AcDbSpline
210
0.0
220
0.0
230
1.0
 70
     8
 71
     3
 72
    14
 73
    10
 74
     0
 42
0.000000001
 43
0.0000000001
 40
0.0
 40
0.0
 40
0.0
 40
0.0
 40
0.3894396598190117
 40
0.3894396598190117
 40
0.3894396598190117
 40
0.7616502545681055
 40
0.7616502545681055
 40
0.7616502545681055
 40
1.0
 40
1.0
 40
1.0
 40
1.0
 10
-79.13175911166542
 20
0.0000000000000113
 30
0.0
 10
-78.41149638409163
 20
0.0000033433566128
 30
0.0
 10
-77.63815665534448
 20
0.3049729408032242
 30
0.0
 10
-76.94396477325878
 20
0.6743917850678085
 30
0.0
 10
-76.28048439372787
 20
1.02746729822727
 30
0.0
 10
-75.70657747523648
 20
1.439329893798616
 30
0.0
 10
-75.35494570855047
 20
1.712905503761148
 30
0.0
 10
-75.12977387503005
 20
1.888093093557994
 30
0.0
 10
-75.00000062358525
 20
1.997912049311535
 30
0.0
 10
-74.99999999999388
 20
1.999999999999929
 30
0.0
  0
SPLINE
  5
2C62A
330
2C61A
100
AcDbEntity
  8
0
100
AcDbSpline
210
0.0
220
0.0
230
1.0
 70
     8
 71
     3
 72
    11
 73
     7
 74
     0
 42
0.000000001
 43
0.0000000001
 40
-1.0
 40
-1.0
 40
-1.0
 40
-1.0
 40
-0.3390592625089725
 40
-0.3390592625089725
 40
-0.3390592625089725
 40
0.0
 40
0.0
 40
0.0
 40
0.0
 10
-76.99999999999999
 20
2.000000000000074
 30
0.0
 10
-76.99998686216614
 20
2.000833772505979
 30
0.0
 10
-77.40930676220033
 20
2.000384176564381
 30
0.0
 10
-78.0312617534187
 20
2.000035059029098
 30
0.0
 10
-78.35032152485415
 20
1.999855963495523
 30
0.0
 10
-78.72931332025235
 20
1.999932241176828
 30
0.0
 10
-79.13175911206898
 20
1.999999998862178
 30
0.0
  0
ARC
  5
2C62B
330
2C61A
100
AcDbEntity
  8
0
100
AcDbCircle
 10
-79.0
 20
4.000000000000002
 30
0.0
 40
2.000000000000001
100
AcDbArc
 50
270.7302922555864
 51
0.0
  0
LINE
  5
2C62C
330
2C61A
100
AcDbEntity
  8
0
100
AcDbLine
 10
73.0
 20
2.000000000000006
 30
0.0
 11
-73.0
 21
2.000000000000006
 31
0.0
  0
LINE
  5
2C62D
330
2C61A
100
AcDbEntity
  8
0
100
AcDbLine
 10
-77.00000000000001
 20
2.000000000000078
 30
0.0
 11
-73.00000000000001
 21
2.000000000000074
 31
0.0
  0
LINE
  5
2C62E
330
2C61A
100
AcDbEntity
  8
0
100
AcDbLine
 10
72.99999999999994
 20
1.999999999999926
 30
0.0
 11
76.99999999999994
 21
1.999999999999921
 31
0.0
  0
LINE
  5
2C62F
330
2C61A
100
AcDbEntity
  8
0
100
AcDbLine
 10
-72.99999999999998
 20
86.00000000000001
 30
0.0
 11
-76.56613618874257
 21
86.00000000000001
 31
0.0
  0
SPLINE
  5
2C630
330
2C61A
100
AcDbEntity
  8
0
100
AcDbSpline
210
0.0
220
0.0
230
1.0
 70
     8
 71
     3
 72
     8
 73
     4
 74
     0
 42
0.000000001
 43
0.0000000001
 40
-1.0
 40
-1.0
 40
-1.0
 40
-1.0
 40
0.0
 40
0.0
 40
0.0
 40
0.0
 10
-76.56613618874256
 20
86.00000000000006
 30
0.0
 10
-76.85281722354962
 20
86.00000000000347
 30
0.0
 10
-77.0
 20
85.95105936082109
 30
0.0
 10
-77.0
 20
85.85459584055399
 30
0.0
  0
LINE
  5
2C631
330
2C61A
100
AcDbEntity
  8
0
100
AcDbLine
 10
-77.00000000000001
 20
2.000000000000078
 30
0.0
 11
-77.0
 21
85.85459584055405
 31
0.0
  0
LINE
  5
2C632
330
2C61A
100
AcDbEntity
  8
0
100
AcDbLine
 10
76.99999999999994
 20
1.999999999999921
 30
0.0
 11
77.0
 21
85.85459584055405
 31
0.0
  0
SPLINE
  5
2C633
330
2C61A
100
AcDbEntity
  8
0
100
AcDbSpline
210
0.0
220
0.0
230
1.0
 70
     8
 71
     3
 72
     8
 73
     4
 74
     0
 42
0.000000001
 43
0.0000000001
 40
0.0
 40
0.0
 40
0.0
 40
0.0
 40
1.0
 40
1.0
 40
1.0
 40
1.0
 10
77.0
 20
85.85459584055399
 30
0.0
 10
77.0
 20
85.95105936082109
 30
0.0
 10
76.85281722354962
 20
86.00000000000347
 30
0.0
 10
76.56613618874256
 20
86.00000000000006
 30
0.0
  0
LINE
  5
2C634
330
2C61A
100
AcDbEntity
  8
0
100
AcDbLine
 10
72.99999999999998
 20
86.00000000000001
 30
0.0
 11
76.56613618874257
 21
86.00000000000001
 31
0.0
  0
LINE
  5
2C635
330
2C61A
100
AcDbEntity
  8
0
100
AcDbLine
 10
116.5
 20
0.0
 30
0.0
 11
106.6799503970238
 21
0.0
 31
0.0
  0
LINE
  5
2C636
330
2C61A
100
AcDbEntity
  8
0
100
AcDbLine
 10
106.6799503970238
 20
0.0
 30
0.0
 11
79.13175911166542
 21
0.0
 31
0.0
  0
LINE
  5
2C637
330
2C61A
100
AcDbEntity
  8
0
100
AcDbLine
 10
106.6799503970238
 20
2.000000000000143
 30
0.0
 11
106.6799503970238
 21
0.0
 31
0.0
  0
LINE
  5
2C638
330
2C61A
100
AcDbEntity
  8
0
100
AcDbLine
 10
79.13175911166542
 20
2.000000000000003
 30
0.0
 11
106.6799503970238
 21
2.000000000000143
 31
0.0
  0
LINE
  5
2C639
330
2C61A
100
AcDbEntity
  8
0
100
AcDbLine
 10
116.5
 20
2.000000000000197
 30
0.0
 11
116.5
 21
0.0
 31
0.0
  0
LINE
  5
2C63A
330
2C61A
100
AcDbEntity
  8
0
100
AcDbLine
 10
106.6799503970238
 20
2.000000000000143
 30
0.0
 11
116.5
 21
2.000000000000197
 31
0.0
  0
LINE
  5
2C63B
330
2C61A
100
AcDbEntity
  8
0
100
AcDbLine
 10
-79.13175911166542
 20
0.0
 30
0.0
 11
-106.6799503970238
 21
0.0
 31
0.0
  0
LINE
  5
2C63C
330
2C61A
100
AcDbEntity
  8
0
100
AcDbLine
 10
-106.6799503970238
 20
0.0
 30
0.0
 11
-116.5
 21
0.0
 31
0.0
  0
LINE
  5
2C63D
330
2C61A
100
AcDbEntity
  8
0
100
AcDbLine
 10
-116.5
 20
2.000000000000197
 30
0.0
 11
-106.6799503970238
 21
2.000000000000143
 31
0.0
  0
LINE
  5
2C63E
330
2C61A
100
AcDbEntity
  8
0
100
AcDbLine
 10
-106.6799503970238
 20
2.000000000000143
 30
0.0
 11
-79.13175911166542
 21
2.000000000000003
 31
0.0
  0
LINE
  5
2C63F
330
2C61A
100
AcDbEntity
  8
0
100
AcDbLine
 10
-106.6799503970238
 20
2.000000000000143
 30
0.0
 11
-106.6799503970238
 21
0.0
 31
0.0
  0
LINE
  5
2C640
330
2C61A
100
AcDbEntity
  8
0
100
AcDbLine
 10
-116.5
 20
0.0
 30
0.0
 11
-116.5
 21
2.000000000000197
 31
0.0
  0
CIRCLE
  5
2C641
330
2C61A
100
AcDbEntity
  8
0
100
AcDbCircle
 10
0.0
 20
47.99999999999998
 30
0.0
 40
2.5
  0
CIRCLE
  5
2C642
330
2C61A
100
AcDbEntity
  8
0
100
AcDbCircle
 10
0.0
 20
67.99999999999998
 30
0.0
 40
2.5
  0
LINE
  5
2C643
330
2C61A
100
AcDbEntity
  8
0
100
AcDbLine
 10
73.0
 20
86.00000000000001
 30
0.0
 11
-72.99999999999998
 21
86.00000000000001
 31
0.0
  0
ENDBLK
  5
2C61C
330
2C61A
100
AcDbEntity
  8
0
100
AcDbBlockEnd
  0
BLOCK
  5
2C645
330
2C644
100
AcDbEntity
  8
0
100
AcDbBlockBegin
  2
SAEL500_150_2-ISO
 70
     0
 10
0.0
 20
0.0
 30
0.0
  3
SAEL500_150_2-ISO
  1

  0
SPLINE
  5
2C647
330
2C644
100
AcDbEntity
  8
0
100
AcDbSpline
210
0.0
220
0.0
230
1.0
 70
     8
 71
     3
 72
    14
 73
    10
 74
     0
 42
0.000000001
 43
0.0000000001
 40
0.0
 40
0.0
 40
0.0
 40
0.0
 40
0.2870001856698038
 40
0.2870001856698038
 40
0.2870001856698038
 40
0.828291126202648
 40
0.828291126202648
 40
0.828291126202648
 40
1.0
 40
1.0
 40
1.0
 40
1.0
 10
84.73342415478004
 20
-81.85677852896814
 30
0.0
 10
84.47894950134838
 20
-81.76190267176101
 30
0.0
 10
84.26265664128488
 20
-81.74015341216893
 30
0.0
 10
84.06182107768826
 20
-81.77361573800292
 30
0.0
 10
83.68303919342586
 20
-81.83672668610498
 30
0.0
 10
83.39758464569534
 20
-82.1077076042075
 30
0.0
 10
83.28198260328973
 20
-82.54712042049279
 30
0.0
 10
83.2453112034495
 20
-82.68651141000795
 30
0.0
 10
83.22687988657614
 20
-82.84351636380376
 30
0.0
 10
83.22604283106516
 20
-83.01345293841579
 30
0.0
  0
LINE
  5
2C648
330
2C644
100
AcDbEntity
  8
0
100
AcDbLine
 10
83.22604283106526
 20
-83.01345293841571
 30
0.0
 11
81.8118292686921
 21
-83.82994951934348
 31
0.0
  0
LINE
  5
2C649
330
2C644
100
AcDbEntity
  8
0
100
AcDbLine
 10
84.64025639343834
 20
-81.80298809687769
 30
0.0
 11
84.73342415478006
 21
-81.85677852896814
 31
0.0
  0
ELLIPSE
  5
2C64A
330
2C644
100
AcDbEntity
  8
0
100
AcDbEllipse
 10
83.22604283106526
 20
-82.61948467780541
 30
0.0
 11
2.000000000000001
 21
-0.0000000000001196
 31
0.0
210
0.0
220
0.0
230
1.0
 40
0.5773502691896257
 41
0.7853981633976819
 42
2.35619449019259
  0
LINE
  5
2C64B
330
2C644
100
AcDbEntity
  8
0
100
AcDbLine
 10
81.81182926869215
 20
-83.82994951934348
 30
0.0
 11
81.81182926869215
 21
-81.80298809687769
 31
0.0
  0
ELLIPSE
  5
2C64C
330
2C644
100
AcDbEntity
  8
0
100
AcDbEllipse
 10
-28.49682859640928
 20
-18.11625478451506
 30
0.0
 11
4.000000000000003
 21
0.0000000000000003
 31
0.0
210
0.0
220
0.0
230
1.0
 40
0.5773502691896257
 41
5.497787143782137
 42
6.283185307179586
  0
LINE
  5
2C64D
330
2C644
100
AcDbEntity
  8
0
100
AcDbLine
 10
-25.66840147166308
 20
-19.74924794637052
 30
0.0
 11
-25.66840147166308
 21
-19.93757800925066
 31
0.0
  0
LINE
  5
2C64E
330
2C644
100
AcDbEntity
  8
0
100
AcDbLine
 10
-25.66840147166308
 20
-19.93757800925066
 30
0.0
 11
-25.66840147166308
 21
-21.77620936883631
 31
0.0
  0
LINE
  5
2C64F
330
2C644
100
AcDbEntity
  8
0
100
AcDbLine
 10
-24.34305144499412
 20
-21.01101817416848
 30
0.0
 11
-25.66840147166374
 21
-21.77620936883667
 31
0.0
  0
LINE
  5
2C650
330
2C644
100
AcDbEntity
  8
0
100
AcDbLine
 10
-24.25418790929005
 20
-20.95971278790861
 30
0.0
 11
-24.34305144499412
 21
-21.01101817416848
 31
0.0
  0
SPLINE
  5
2C651
330
2C644
100
AcDbEntity
  8
0
100
AcDbSpline
210
0.0
220
0.0
230
1.0
 70
     8
 71
     3
 72
    11
 73
     7
 74
     0
 42
0.000000001
 43
0.0000000001
 40
0.5566200790800936
 40
0.5566200790800936
 40
0.5566200790800936
 40
0.5566200790800936
 40
0.7616502545681055
 40
0.7616502545681055
 40
0.7616502545681055
 40
1.0
 40
1.0
 40
1.0
 40
1.0
 10
-24.45504478550909
 20
-18.66838214971826
 30
0.0
 10
-24.38099289712845
 20
-18.99646451670336
 30
0.0
 10
-24.33256929619602
 20
-19.3399823130346
 30
0.0
 10
-24.30216596162727
 20
-19.69707681597597
 30
0.0
 10
-24.26682176393786
 20
-20.11220294884212
 30
0.0
 10
-24.25271194614075
 20
-20.5212426944919
 30
0.0
 10
-24.2541879092856
 20
-20.95971278788219
 30
0.0
  0
SPLINE
  5
2C652
330
2C644
100
AcDbEntity
  8
0
100
AcDbSpline
210
0.0
220
0.0
230
1.0
 70
     8
 71
     3
 72
    16
 73
    12
 74
     0
 42
0.000000001
 43
0.0000000001
 40
0.0002612202544769
 40
0.0002612202544769
 40
0.0002612202544769
 40
0.0002612202544769
 40
0.0136518165701901
 40
0.0136518165701901
 40
0.0248504486162117
 40
0.0248504486162117
 40
0.0422523278606924
 40
0.0422523278606924
 40
0.0590851502215075
 40
0.0590851502215075
 40
0.0689004095992665
 40
0.0689004095992665
 40
0.0689004095992665
 40
0.0689004095992665
 10
-24.49682510860426
 20
-18.11625477722123
 30
0.0
 10
-24.49673174365409
 20
-18.16090058719118
 30
0.0
 10
-24.49647230302158
 20
-18.20580470149145
 30
0.0
 10
-24.49508530794883
 20
-18.28622788203339
 30
0.0
 10
-24.49409186812685
 20
-18.32238393543717
 30
0.0
 10
-24.49032425044842
 20
-18.41011825841287
 30
0.0
 10
-24.48676946647095
 20
-18.45988905510075
 30
0.0
 10
-24.47784723230587
 20
-18.54492565407561
 30
0.0
 10
-24.47256075464215
 20
-18.58157732597954
 30
0.0
 10
-24.46297947312345
 20
-18.63504083235385
 30
0.0
 10
-24.45916789712037
 20
-18.65389185759831
 30
0.0
 10
-24.45495715607619
 20
-18.6727030367045
 30
0.0
  0
LINE
  5
2C653
330
2C644
100
AcDbEntity
  8
0
100
AcDbLine
 10
-24.25418790929005
 20
-20.95971278790861
 30
0.0
 11
-24.25418790929005
 21
-21.75987943721776
 31
0.0
  0
ELLIPSE
  5
2C654
330
2C644
100
AcDbEntity
  8
0
100
AcDbEllipse
 10
-22.83997434691695
 20
-22.57637601814548
 30
0.0
 11
1.000000000000105
 21
-1.732050807568816
 31
0.0
210
0.0
220
0.0
230
1.0
 40
0.5773502691896264
 41
3.926990816987
 42
5.497787143781899
  0
LINE
  5
2C655
330
2C644
100
AcDbEntity
  8
0
100
AcDbLine
 10
-22.8399743469169
 20
-24.20936918000092
 30
0.0
 11
50.69913089648402
 21
-66.66719138824264
 31
0.0
  0
LINE
  5
2C656
330
2C644
100
AcDbEntity
  8
0
100
AcDbLine
 10
83.22604283106526
 20
-83.01345293841571
 30
0.0
 11
83.22604283106526
 21
-83.81361958772485
 31
0.0
  0
ELLIPSE
  5
2C657
330
2C644
100
AcDbEntity
  8
0
100
AcDbEllipse
 10
80.39761570631908
 20
-82.18062642586941
 30
0.0
 11
2.000000000000005
 21
-3.464101615137753
 31
0.0
210
0.0
220
0.0
230
1.0
 40
0.5773502691896266
 41
0.0
 42
0.7853981633974412
  0
ELLIPSE
  5
2C658
330
2C644
100
AcDbEntity
  8
0
100
AcDbEllipse
 10
-82.23694396658689
 20
-56.86923241710996
 30
0.0
 11
2.000000000000007
 21
-3.464101615137764
 31
0.0
210
0.0
220
0.0
230
1.0
 40
0.577350269189626
 41
4.397066417558441
 42
5.49778714378213
  0
SPLINE
  5
2C659
330
2C644
100
AcDbEntity
  8
0
100
AcDbSpline
210
0.0
220
0.0
230
1.0
 70
     8
 71
     3
 72
     8
 73
     4
 74
     0
 42
0.000000001
 43
0.0000000001
 40
-1.0
 40
-1.0
 40
-1.0
 40
-1.0
 40
0.0
 40
0.0
 40
0.0
 40
0.0
 10
-84.75858304828154
 20
-56.8927039620225
 30
0.0
 10
-84.96129715203359
 20
-56.3149464927689
 30
0.0
 10
-85.03076483349406
 20
-55.71800381048596
 30
0.0
 10
-84.96255482417607
 20
-55.17687825573434
 30
0.0
  0
LINE
  5
2C65A
330
2C644
100
AcDbEntity
  8
0
100
AcDbLine
 10
-82.23694396658689
 20
-58.50222557896542
 30
0.0
 11
-22.8399743469169
 21
-24.20936918000092
 31
0.0
  0
LINE
  5
2C65B
330
2C644
100
AcDbEntity
  8
0
100
AcDbLine
 10
-84.75858304828154
 20
-56.8927039620225
 30
0.0
 11
-83.49776350743423
 21
-56.88096818956623
 31
0.0
  0
SPLINE
  5
2C65C
330
2C644
100
AcDbEntity
  8
0
100
AcDbSpline
210
0.0
220
0.0
230
1.0
 70
     8
 71
     3
 72
     8
 73
     4
 74
     0
 42
0.000000001
 43
0.0000000001
 40
0.0
 40
0.0
 40
0.0
 40
0.0
 40
1.0
 40
1.0
 40
1.0
 40
1.0
 10
-83.54834126180296
 20
-55.99337483666207
 30
0.0
 10
-83.61655127112099
 20
-56.28362814765846
 30
0.0
 10
-83.59912055931147
 20
-56.59208945494014
 30
0.0
 10
-83.49776350743423
 20
-56.88096818956623
 30
0.0
  0
LINE
  5
2C65D
330
2C644
100
AcDbEntity
  8
0
100
AcDbLine
 10
-83.54834126180305
 20
-55.99337483666207
 30
0.0
 11
-24.25418790929005
 21
-21.75987943721776
 31
0.0
  0
ELLIPSE
  5
2C65E
330
2C644
100
AcDbEntity
  8
0
100
AcDbEllipse
 10
-82.23694396658689
 20
-56.86923241710996
 30
0.0
 11
1.000000000000005
 21
-1.732050807568886
 31
0.0
210
0.0
220
0.0
230
0.9999999999999998
 40
0.5773502691896259
 41
4.397066417558442
 42
5.497787143782137
  0
LINE
  5
2C65F
330
2C644
100
AcDbEntity
  8
0
100
AcDbLine
 10
-82.23694396658689
 20
-60.13521874082087
 30
0.0
 11
-82.23694396658689
 21
-58.50222557896542
 31
0.0
  0
LINE
  5
2C660
330
2C644
100
AcDbEntity
  8
0
100
AcDbLine
 10
83.22604283106526
 20
-83.81361958772485
 30
0.0
 11
23.9318894785522
 21
-118.0471149871692
 31
0.0
  0
SPLINE
  5
2C661
330
2C644
100
AcDbEntity
  8
0
100
AcDbSpline
210
0.0
220
0.0
230
1.0
 70
     8
 71
     3
 72
     8
 73
     4
 74
     0
 42
0.000000001
 43
0.0000000001
 40
0.0
 40
0.0
 40
0.0
 40
0.0
 40
1.0
 40
1.0
 40
1.0
 40
1.0
 10
23.93188947855224
 20
-118.0471149871692
 30
0.0
 10
23.86367946923425
 20
-118.5882405419208
 30
0.0
 10
23.72499927209088
 20
-119.0650089904606
 30
0.0
 10
23.52228516834363
 20
-119.4086923749774
 30
0.0
  0
ELLIPSE
  5
2C662
330
2C644
100
AcDbEntity
  8
0
100
AcDbEllipse
 10
21.00064608664904
 20
-116.4734828248339
 30
0.0
 11
2.000000000000007
 21
-3.464101615137765
 31
0.0
210
0.0
220
0.0
230
1.0
 40
0.5773502691896255
 41
5.497787143782137
 42
6.59850787000583
  0
ELLIPSE
  5
2C663
330
2C644
100
AcDbEntity
  8
0
100
AcDbEllipse
 10
98.7823920171693
 20
33.76188806586764
 30
0.0
 11
-3.250000000000001
 21
5.62916512459885
 31
0.0
210
0.0
220
0.0
230
0.9999999999999998
 40
0.5773502691896261
 41
0.2193254863005913
 42
2.9222671672892
  0
ELLIPSE
  5
2C664
330
2C644
100
AcDbEntity
  8
0
100
AcDbEllipse
 10
106.5605666102213
 20
33.35363977540376
 30
0.0
 11
1.250000000000129
 21
-2.165063509461021
 31
0.0
210
0.0
220
0.0
230
1.0
 40
0.5773502691896259
 41
3.742856870268575
 42
5.681921090500121
  0
LINE
  5
2C665
330
2C644
100
AcDbEntity
  8
0
100
AcDbLine
 10
86.05446995581145
 20
57.44028891277168
 30
0.0
 11
112.5709742503069
 21
42.13097802037681
 31
0.0
  0
LINE
  5
2C666
330
2C644
100
AcDbEntity
  8
0
100
AcDbLine
 10
112.5709742503068
 20
-85.60174709995676
 30
0.0
 11
112.5709742503069
 21
42.1309780203768
 31
0.0
  0
ELLIPSE
  5
2C667
330
2C644
100
AcDbEntity
  8
0
100
AcDbEllipse
 10
83.22604283106526
 20
55.80729575091623
 30
0.0
 11
4.000000000000003
 21
-0.0000000000002394
 31
0.0
210
0.0
220
0.0
230
1.0
 40
0.5773502691896257
 41
0.7853981633976846
 42
2.356194490192578
  0
LINE
  5
2C668
330
2C644
100
AcDbEntity
  8
0
100
AcDbLine
 10
22.51767591617915
 20
-117.2306184062415
 30
0.0
 11
21.00064608664905
 21
-118.1064759866894
 31
0.0
  0
ELLIPSE
  5
2C669
330
2C644
100
AcDbEntity
  8
0
100
AcDbEllipse
 10
56.00243175538313
 20
31.10827417785249
 30
0.0
 11
1.249999999999871
 21
2.16506350946117
 31
0.0
210
0.0
220
0.0
230
1.0
 40
0.577350269189626
 41
3.742856870268584
 42
5.681921090500121
  0
ELLIPSE
  5
2C66A
330
2C644
100
AcDbEntity
  8
0
100
AcDbEllipse
 10
57.41664531775623
 20
30.29177759692478
 30
0.0
 11
-1.25
 21
-2.165063509461096
 31
0.0
210
0.0
220
0.0
230
0.9999999999999998
 40
0.577350269189626
 41
0.0
 42
6.283185307179586
  0
LINE
  5
2C66B
330
2C644
100
AcDbEntity
  8
0
100
AcDbLine
 10
23.9318894785522
 20
-118.0471149871692
 30
0.0
 11
22.90409498622423
 21
-117.4537175603521
 31
0.0
  0
LINE
  5
2C66C
330
2C644
100
AcDbEntity
  8
0
100
AcDbLine
 10
22.90409498622423
 20
-117.4537175603521
 30
0.0
 11
22.51767591617913
 21
-117.2306184062415
 31
0.0
  0
SPLINE
  5
2C66D
330
2C644
100
AcDbEntity
  8
0
100
AcDbSpline
210
0.0
220
0.0
230
1.0
 70
     8
 71
     3
 72
     8
 73
     4
 74
     0
 42
0.000000001
 43
0.0000000001
 40
-1.0
 40
-1.0
 40
-1.0
 40
-1.0
 40
0.0
 40
0.0
 40
0.0
 40
0.0
 10
22.26146562749633
 20
-117.9410875999057
 30
0.0
 10
22.36282267936875
 20
-117.769245907648
 30
0.0
 10
22.44946590686115
 20
-117.5208717172379
 30
0.0
 10
22.51767591617914
 20
-117.2306184062415
 30
0.0
  0
LINE
  5
2C66E
330
2C644
100
AcDbEntity
  8
0
100
AcDbLine
 10
23.52228516834363
 20
-119.4086923749774
 30
0.0
 11
22.26146562749633
 21
-117.9410875999057
 31
0.0
  0
LINE
  5
2C66F
330
2C644
100
AcDbEntity
  8
0
100
AcDbLine
 10
50.69913089648405
 20
-87.43886440704406
 30
0.0
 11
50.69913089648405
 21
40.29386071328942
 31
0.0
  0
LINE
  5
2C670
330
2C644
100
AcDbEntity
  8
0
100
AcDbLine
 10
52.11334445885713
 20
-88.25536098797176
 30
0.0
 11
50.69913089648405
 21
-87.43886440704406
 31
0.0
  0
LINE
  5
2C671
330
2C644
100
AcDbEntity
  8
0
100
AcDbLine
 10
52.11334445885714
 20
39.47736413236171
 30
0.0
 11
52.11334445885713
 21
-88.25536098797176
 31
0.0
  0
LINE
  5
2C672
330
2C644
100
AcDbEntity
  8
0
100
AcDbLine
 10
50.69913089648405
 20
40.29386071328942
 30
0.0
 11
52.11334445885714
 21
39.47736413236171
 31
0.0
  0
LINE
  5
2C673
330
2C644
100
AcDbEntity
  8
0
100
AcDbLine
 10
43.75530723063125
 20
-98.17581469657387
 30
0.0
 11
50.69913089648405
 21
-87.43886440704406
 31
0.0
  0
LINE
  5
2C674
330
2C644
100
AcDbEntity
  8
0
100
AcDbLine
 10
45.16952079300432
 20
-98.99231127750159
 30
0.0
 11
43.75530723063125
 21
-98.17581469657387
 31
0.0
  0
LINE
  5
2C675
330
2C644
100
AcDbEntity
  8
0
100
AcDbLine
 10
52.11334445885713
 20
-88.25536098797176
 30
0.0
 11
45.16952079300432
 21
-98.99231127750159
 31
0.0
  0
LINE
  5
2C676
330
2C644
100
AcDbEntity
  8
0
100
AcDbLine
 10
25.33645453511001
 20
-112.5601121747302
 30
0.0
 11
43.75530723063125
 21
-98.17581469657387
 31
0.0
  0
LINE
  5
2C677
330
2C644
100
AcDbEntity
  8
0
100
AcDbLine
 10
26.75066809748309
 20
-113.3766087556579
 30
0.0
 11
25.33645453511001
 21
-112.5601121747302
 31
0.0
  0
LINE
  5
2C678
330
2C644
100
AcDbEntity
  8
0
100
AcDbLine
 10
45.16952079300432
 20
-98.99231127750159
 30
0.0
 11
26.75066809748309
 21
-113.3766087556579
 31
0.0
  0
ELLIPSE
  5
2C679
330
2C644
100
AcDbEntity
  8
0
100
AcDbEllipse
 10
25.95039355495485
 20
-116.2261151323846
 30
0.0
 11
2.500000000000259
 21
4.330127018922043
 31
0.0
210
0.0
220
0.0
230
1.0
 40
0.5773502691896259
 41
0.9599310885970107
 42
2.114438892993497
  0
ELLIPSE
  5
2C67A
330
2C644
100
AcDbEntity
  8
0
100
AcDbEllipse
 10
27.36460711732796
 20
-117.0426117133124
 30
0.0
 11
-2.499999999999743
 21
-4.330127018922341
 31
0.0
210
0.0
220
0.0
230
1.0
 40
0.577350269189626
 41
4.101523742186527
 42
5.256031546583047
  0
LINE
  5
2C67B
330
2C644
100
AcDbEntity
  8
0
100
AcDbLine
 10
84.73342415478006
 20
-81.85677852896814
 30
0.0
 11
104.212937022081
 21
-89.13715704504346
 31
0.0
  0
LINE
  5
2C67C
330
2C644
100
AcDbEntity
  8
0
100
AcDbLine
 10
111.1567606879337
 20
-86.41824368088448
 30
0.0
 11
112.5709742503068
 21
-85.60174709995676
 31
0.0
  0
LINE
  5
2C67D
330
2C644
100
AcDbEntity
  8
0
100
AcDbLine
 10
104.212937022081
 20
-89.13715704504346
 30
0.0
 11
111.1567606879337
 21
-86.41824368088448
 31
0.0
  0
LINE
  5
2C67E
330
2C644
100
AcDbEntity
  8
0
100
AcDbLine
 10
50.69913089648405
 20
40.29386071328942
 30
0.0
 11
80.39761570631904
 21
57.44028891277168
 31
0.0
  0
LINE
  5
2C67F
330
2C644
100
AcDbEntity
  8
0
100
AcDbLine
 10
112.5709742503069
 20
42.13097802037681
 30
0.0
 11
111.1567606879338
 21
41.31448143944909
 31
0.0
  0
LINE
  5
2C680
330
2C644
100
AcDbEntity
  8
0
100
AcDbLine
 10
111.1567606879337
 20
-86.41824368088448
 30
0.0
 11
111.1567606879338
 21
41.31448143944908
 31
0.0
  0
ELLIPSE
  5
2C681
330
2C644
100
AcDbEntity
  8
0
100
AcDbEllipse
 10
21.00064608664904
 20
-116.4734828248339
 30
0.0
 11
1.000000000000005
 21
-1.732050807568886
 31
0.0
210
0.0
220
0.0
230
0.9999999999999998
 40
0.5773502691896257
 41
5.497787143782137
 42
6.598507870005833
  0
LINE
  5
2C682
330
2C644
100
AcDbEntity
  8
0
100
AcDbLine
 10
21.00064608664905
 20
-118.1064759866894
 30
0.0
 11
21.00064608664905
 21
-119.7394691485448
 31
0.0
  0
LINE
  5
2C683
330
2C644
100
AcDbEntity
  8
0
100
AcDbLine
 10
84.64025639343834
 20
-81.80298809687769
 30
0.0
 11
84.64025639343834
 21
56.62379233184395
 31
0.0
  0
ELLIPSE
  5
2C684
330
2C644
100
AcDbEntity
  8
0
100
AcDbEllipse
 10
83.22604283106526
 20
55.80729575091623
 30
0.0
 11
-2.000000000000001
 21
-0.0000000000001189
 31
0.0
210
0.0
220
0.0
230
1.0
 40
0.5773502691896257
 41
3.926990816986984
 42
5.497787143781888
  0
LINE
  5
2C685
330
2C644
100
AcDbEntity
  8
0
100
AcDbLine
 10
81.81182926869215
 20
-81.80298809687769
 30
0.0
 11
81.81182926869215
 21
56.62379233184395
 31
0.0
  0
LINE
  5
2C686
330
2C644
100
AcDbEntity
  8
0
100
AcDbLine
 10
81.81182926869215
 20
56.62379233184396
 30
0.0
 11
52.11334445885714
 21
39.47736413236171
 31
0.0
  0
LINE
  5
2C687
330
2C644
100
AcDbEntity
  8
0
100
AcDbLine
 10
81.81182926869215
 20
56.62379233184396
 30
0.0
 11
80.39761570631904
 21
57.44028891277168
 31
0.0
  0
LINE
  5
2C688
330
2C644
100
AcDbEntity
  8
0
100
AcDbLine
 10
84.64025639343834
 20
56.62379233184395
 30
0.0
 11
86.05446995581145
 21
57.44028891277168
 31
0.0
  0
LINE
  5
2C689
330
2C644
100
AcDbEntity
  8
0
100
AcDbLine
 10
111.1567606879338
 20
41.31448143944909
 30
0.0
 11
84.64025639343834
 21
56.62379233184395
 31
0.0
  0
ELLIPSE
  5
2C68A
330
2C644
100
AcDbEntity
  8
0
100
AcDbEllipse
 10
97.3681784547962
 20
32.9453914849399
 30
0.0
 11
-3.250000000000003
 21
5.629165124598854
 31
0.0
210
0.0
220
0.0
230
1.0
 40
0.5773502691896258
 41
0.0
 42
6.283185307179586
  0
ELLIPSE
  5
2C68B
330
2C644
100
AcDbEntity
  8
0
100
AcDbEllipse
 10
105.1463530478482
 20
32.53714319447604
 30
0.0
 11
-1.25
 21
2.165063509461095
 31
0.0
210
0.0
220
0.0
230
1.0
 40
0.577350269189626
 41
0.0
 42
6.283185307179586
  0
LINE
  5
2C68C
330
2C644
100
AcDbEntity
  8
0
100
AcDbLine
 10
23.00064608664905
 20
-119.9375844399717
 30
0.0
 11
82.39761570631912
 21
-85.64472804100718
 31
0.0
  0
ELLIPSE
  5
2C68D
330
2C644
100
AcDbEntity
  8
0
100
AcDbEllipse
 10
98.7823920171693
 20
-72.38266745473673
 30
0.0
 11
-3.250000000000001
 21
5.629165124598852
 31
0.0
210
0.0
220
0.0
230
1.0
 40
0.5773502691896259
 41
0.2193254863005919
 42
2.922267167289195
  0
ELLIPSE
  5
2C68E
330
2C644
100
AcDbEntity
  8
0
100
AcDbEllipse
 10
97.36817845479619
 20
-73.19916403566447
 30
0.0
 11
-3.250000000000003
 21
5.629165124598854
 31
0.0
210
0.0
220
0.0
230
1.0
 40
0.5773502691896258
 41
0.0
 42
6.283185307179586
  0
ELLIPSE
  5
2C68F
330
2C644
100
AcDbEntity
  8
0
100
AcDbEllipse
 10
98.7823920171693
 20
-15.22790678979593
 30
0.0
 11
-3.250000000000001
 21
5.62916512459885
 31
0.0
210
0.0
220
0.0
230
0.9999999999999998
 40
0.5773502691896261
 41
0.2193254863005917
 42
2.9222671672892
  0
ELLIPSE
  5
2C690
330
2C644
100
AcDbEntity
  8
0
100
AcDbEllipse
 10
97.3681784547962
 20
-16.04440337072365
 30
0.0
 11
-3.250000000000003
 21
5.629165124598854
 31
0.0
210
0.0
220
0.0
230
1.0
 40
0.5773502691896258
 41
0.0
 42
6.283185307179586
  0
ELLIPSE
  5
2C691
330
2C644
100
AcDbEntity
  8
0
100
AcDbEllipse
 10
91.00421742411727
 20
-63.80945335499562
 30
0.0
 11
1.250000000000129
 21
-2.165063509461021
 31
0.0
210
0.0
220
0.0
230
1.0
 40
0.5773502691896259
 41
3.742856870268571
 42
5.681921090500109
  0
ELLIPSE
  5
2C692
330
2C644
100
AcDbEntity
  8
0
100
AcDbEllipse
 10
91.00421742411727
 20
-47.4795217364411
 30
0.0
 11
1.250000000000129
 21
-2.165063509461021
 31
0.0
210
0.0
220
0.0
230
1.0
 40
0.5773502691896259
 41
3.742856870268571
 42
5.681921090500109
  0
ELLIPSE
  5
2C693
330
2C644
100
AcDbEntity
  8
0
100
AcDbEllipse
 10
91.00421742411727
 20
-31.1495901178866
 30
0.0
 11
1.250000000000129
 21
-2.165063509461021
 31
0.0
210
0.0
220
0.0
230
1.0
 40
0.5773502691896259
 41
3.742856870268575
 42
5.681921090500121
  0
ELLIPSE
  5
2C694
330
2C644
100
AcDbEntity
  8
0
100
AcDbEllipse
 10
91.00421742411727
 20
-14.81965849933207
 30
0.0
 11
1.250000000000129
 21
-2.165063509461021
 31
0.0
210
0.0
220
0.0
230
1.0
 40
0.5773502691896259
 41
3.742856870268575
 42
5.68192109050011
  0
ELLIPSE
  5
2C695
330
2C644
100
AcDbEntity
  8
0
100
AcDbEllipse
 10
91.00421742411727
 20
1.510273119222445
 30
0.0
 11
1.250000000000129
 21
-2.165063509461021
 31
0.0
210
0.0
220
0.0
230
1.0
 40
0.5773502691896259
 41
3.742856870268575
 42
5.68192109050011
  0
ELLIPSE
  5
2C696
330
2C644
100
AcDbEntity
  8
0
100
AcDbEllipse
 10
91.00421742411727
 20
17.84020473777697
 30
0.0
 11
1.250000000000129
 21
-2.165063509461021
 31
0.0
210
0.0
220
0.0
230
1.0
 40
0.5773502691896259
 41
3.742856870268575
 42
5.68192109050011
  0
ELLIPSE
  5
2C697
330
2C644
100
AcDbEntity
  8
0
100
AcDbEllipse
 10
91.00421742411727
 20
34.17013635633148
 30
0.0
 11
1.250000000000129
 21
-2.165063509461021
 31
0.0
210
0.0
220
0.0
230
1.0
 40
0.5773502691896259
 41
3.742856870268575
 42
5.681921090500121
  0
ELLIPSE
  5
2C698
330
2C644
100
AcDbEntity
  8
0
100
AcDbEllipse
 10
89.59000386174418
 20
-64.62594993592334
 30
0.0
 11
-1.25
 21
2.165063509461095
 31
0.0
210
0.0
220
0.0
230
1.0
 40
0.577350269189626
 41
0.0
 42
6.283185307179586
  0
ELLIPSE
  5
2C699
330
2C644
100
AcDbEntity
  8
0
100
AcDbEllipse
 10
89.59000386174418
 20
-48.29601831736884
 30
0.0
 11
-1.25
 21
2.165063509461095
 31
0.0
210
0.0
220
0.0
230
1.0
 40
0.577350269189626
 41
0.0
 42
6.283185307179586
  0
ELLIPSE
  5
2C69A
330
2C644
100
AcDbEntity
  8
0
100
AcDbEllipse
 10
89.59000386174418
 20
-31.96608669881431
 30
0.0
 11
-1.25
 21
2.165063509461095
 31
0.0
210
0.0
220
0.0
230
1.0
 40
0.577350269189626
 41
0.0
 42
6.283185307179586
  0
ELLIPSE
  5
2C69B
330
2C644
100
AcDbEntity
  8
0
100
AcDbEllipse
 10
89.59000386174418
 20
-15.63615508025979
 30
0.0
 11
-1.25
 21
2.165063509461095
 31
0.0
210
0.0
220
0.0
230
1.0
 40
0.577350269189626
 41
0.0
 42
6.283185307179586
  0
ELLIPSE
  5
2C69C
330
2C644
100
AcDbEntity
  8
0
100
AcDbEllipse
 10
89.59000386174418
 20
0.6937765382947259
 30
0.0
 11
-1.25
 21
2.165063509461095
 31
0.0
210
0.0
220
0.0
230
1.0
 40
0.577350269189626
 41
0.0
 42
6.283185307179586
  0
ELLIPSE
  5
2C69D
330
2C644
100
AcDbEntity
  8
0
100
AcDbEllipse
 10
89.59000386174418
 20
17.02370815684925
 30
0.0
 11
-1.25
 21
2.165063509461095
 31
0.0
210
0.0
220
0.0
230
1.0
 40
0.577350269189626
 41
0.0
 42
6.283185307179586
  0
ELLIPSE
  5
2C69E
330
2C644
100
AcDbEntity
  8
0
100
AcDbEllipse
 10
89.59000386174418
 20
33.35363977540376
 30
0.0
 11
-1.25
 21
2.165063509461095
 31
0.0
210
0.0
220
0.0
230
1.0
 40
0.577350269189626
 41
0.0
 42
6.283185307179586
  0
ELLIPSE
  5
2C69F
330
2C644
100
AcDbEntity
  8
0
100
AcDbEllipse
 10
91.00421742411727
 20
50.500067974886
 30
0.0
 11
1.250000000000129
 21
-2.165063509461021
 31
0.0
210
0.0
220
0.0
230
1.0
 40
0.577350269189626
 41
3.7428568702686
 42
5.681921090500121
  0
ELLIPSE
  5
2C6A0
330
2C644
100
AcDbEntity
  8
0
100
AcDbEllipse
 10
-30.61814893996892
 20
120.7187739346704
 30
0.0
 11
1.250000000000129
 21
-2.165063509461021
 31
0.0
210
0.0
220
0.0
230
1.0
 40
0.577350269189626
 41
3.742856870268589
 42
5.681921090500123
  0
ELLIPSE
  5
2C6A1
330
2C644
100
AcDbEntity
  8
0
100
AcDbEllipse
 10
-32.03236250234202
 20
119.9022773537427
 30
0.0
 11
1.25
 21
-2.165063509461095
 31
0.0
210
0.0
220
0.0
230
1.0
 40
0.577350269189626
 41
0.0
 42
6.283185307179586
  0
ELLIPSE
  5
2C6A2
330
2C644
100
AcDbEntity
  8
0
100
AcDbEllipse
 10
89.59000386174418
 20
49.68357139395828
 30
0.0
 11
-1.25
 21
2.165063509461095
 31
0.0
210
0.0
220
0.0
230
1.0
 40
0.577350269189626
 41
0.0
 42
6.283185307179586
  0
ELLIPSE
  5
2C6A3
330
2C644
100
AcDbEntity
  8
0
100
AcDbEllipse
 10
106.5605666102213
 20
-80.95588155447787
 30
0.0
 11
1.250000000000129
 21
-2.165063509461021
 31
0.0
210
0.0
220
0.0
230
1.0
 40
0.5773502691896259
 41
3.742856870268571
 42
5.681921090500109
  0
ELLIPSE
  5
2C6A4
330
2C644
100
AcDbEntity
  8
0
100
AcDbEllipse
 10
106.5605666102213
 20
-64.62594993592334
 30
0.0
 11
1.250000000000129
 21
-2.165063509461021
 31
0.0
210
0.0
220
0.0
230
1.0
 40
0.5773502691896259
 41
3.742856870268571
 42
5.681921090500109
  0
ELLIPSE
  5
2C6A5
330
2C644
100
AcDbEntity
  8
0
100
AcDbEllipse
 10
106.5605666102213
 20
-48.29601831736884
 30
0.0
 11
1.250000000000129
 21
-2.165063509461021
 31
0.0
210
0.0
220
0.0
230
1.0
 40
0.5773502691896259
 41
3.742856870268571
 42
5.681921090500109
  0
ELLIPSE
  5
2C6A6
330
2C644
100
AcDbEntity
  8
0
100
AcDbEllipse
 10
106.5605666102213
 20
-31.96608669881431
 30
0.0
 11
1.250000000000129
 21
-2.165063509461021
 31
0.0
210
0.0
220
0.0
230
1.0
 40
0.5773502691896259
 41
3.742856870268575
 42
5.681921090500121
  0
ELLIPSE
  5
2C6A7
330
2C644
100
AcDbEntity
  8
0
100
AcDbEllipse
 10
106.5605666102213
 20
-15.6361550802598
 30
0.0
 11
1.250000000000129
 21
-2.165063509461021
 31
0.0
210
0.0
220
0.0
230
1.0
 40
0.5773502691896259
 41
3.742856870268575
 42
5.68192109050011
  0
ELLIPSE
  5
2C6A8
330
2C644
100
AcDbEntity
  8
0
100
AcDbEllipse
 10
106.5605666102213
 20
0.6937765382947259
 30
0.0
 11
1.250000000000129
 21
-2.165063509461021
 31
0.0
210
0.0
220
0.0
230
1.0
 40
0.5773502691896259
 41
3.742856870268575
 42
5.68192109050011
  0
ELLIPSE
  5
2C6A9
330
2C644
100
AcDbEntity
  8
0
100
AcDbEllipse
 10
106.5605666102213
 20
17.02370815684923
 30
0.0
 11
1.250000000000129
 21
-2.165063509461021
 31
0.0
210
0.0
220
0.0
230
1.0
 40
0.5773502691896259
 41
3.742856870268575
 42
5.68192109050011
  0
ELLIPSE
  5
2C6AA
330
2C644
100
AcDbEntity
  8
0
100
AcDbEllipse
 10
105.1463530478482
 20
-81.77237813540559
 30
0.0
 11
-1.25
 21
2.165063509461095
 31
0.0
210
0.0
220
0.0
230
1.0
 40
0.577350269189626
 41
0.0
 42
6.283185307179586
  0
ELLIPSE
  5
2C6AB
330
2C644
100
AcDbEntity
  8
0
100
AcDbEllipse
 10
105.1463530478482
 20
-65.44244651685106
 30
0.0
 11
-1.25
 21
2.165063509461095
 31
0.0
210
0.0
220
0.0
230
1.0
 40
0.577350269189626
 41
0.0
 42
6.283185307179586
  0
ELLIPSE
  5
2C6AC
330
2C644
100
AcDbEntity
  8
0
100
AcDbEllipse
 10
105.1463530478482
 20
-49.11251489829655
 30
0.0
 11
-1.25
 21
2.165063509461095
 31
0.0
210
0.0
220
0.0
230
1.0
 40
0.577350269189626
 41
0.0
 42
6.283185307179586
  0
ELLIPSE
  5
2C6AD
330
2C644
100
AcDbEntity
  8
0
100
AcDbEllipse
 10
105.1463530478482
 20
-32.78258327974203
 30
0.0
 11
-1.25
 21
2.165063509461095
 31
0.0
210
0.0
220
0.0
230
1.0
 40
0.577350269189626
 41
0.0
 42
6.283185307179586
  0
ELLIPSE
  5
2C6AE
330
2C644
100
AcDbEntity
  8
0
100
AcDbEllipse
 10
105.1463530478482
 20
-16.45265166118752
 30
0.0
 11
-1.25
 21
2.165063509461095
 31
0.0
210
0.0
220
0.0
230
1.0
 40
0.577350269189626
 41
0.0
 42
6.283185307179586
  0
ELLIPSE
  5
2C6AF
330
2C644
100
AcDbEntity
  8
0
100
AcDbEllipse
 10
105.1463530478482
 20
-0.1227200426329933
 30
0.0
 11
-1.25
 21
2.165063509461095
 31
0.0
210
0.0
220
0.0
230
1.0
 40
0.577350269189626
 41
0.0
 42
6.283185307179586
  0
ELLIPSE
  5
2C6B0
330
2C644
100
AcDbEntity
  8
0
100
AcDbEllipse
 10
105.1463530478482
 20
16.20721157592151
 30
0.0
 11
-1.25
 21
2.165063509461095
 31
0.0
210
0.0
220
0.0
230
1.0
 40
0.577350269189626
 41
0.0
 42
6.283185307179586
  0
ELLIPSE
  5
2C6B1
330
2C644
100
AcDbEntity
  8
0
100
AcDbEllipse
 10
-46.17449812607296
 20
121.5352705155982
 30
0.0
 11
1.250000000000129
 21
-2.165063509461021
 31
0.0
210
0.0
220
0.0
230
1.0
 40
0.5773502691896259
 41
3.74285687026858
 42
5.681921090500114
  0
ELLIPSE
  5
2C6B2
330
2C644
100
AcDbEntity
  8
0
100
AcDbEllipse
 10
-47.58871168844605
 20
120.7187739346704
 30
0.0
 11
1.25
 21
-2.165063509461095
 31
0.0
210
0.0
220
0.0
230
1.0
 40
0.577350269189626
 41
0.0
 42
6.283185307179586
  0
ELLIPSE
  5
2C6B3
330
2C644
100
AcDbEntity
  8
0
100
AcDbEllipse
 10
-38.39632353302093
 20
112.962056415857
 30
0.0
 11
-3.250000000000001
 21
5.629165124598852
 31
0.0
210
0.0
220
0.0
230
1.0
 40
0.5773502691896259
 41
0.2193254863005918
 42
1.570796326794897
  0
ELLIPSE
  5
2C6B4
330
2C644
100
AcDbEntity
  8
0
100
AcDbEllipse
 10
-39.81053709539402
 20
112.1455598349293
 30
0.0
 11
-3.25
 21
5.629165124598848
 31
0.0
210
0.0
220
0.0
230
0.9999999999999998
 40
0.577350269189626
 41
4.712388980384693
 42
7.853981633974484
  0
LINE
  5
2C6B5
330
2C644
100
AcDbEntity
  8
0
100
AcDbLine
 10
-25.6684014716631
 20
121.943518806062
 30
0.0
 11
-52.18490576615863
 21
137.2528296984569
 31
0.0
  0
LINE
  5
2C6B6
330
2C644
100
AcDbEntity
  8
0
100
AcDbLine
 10
-53.59911932853173
 20
136.4363331175291
 30
0.0
 11
-27.08261503403619
 21
121.1270222251343
 31
0.0
  0
LINE
  5
2C6B7
330
2C644
100
AcDbEntity
  8
0
100
AcDbLine
 10
-53.59911932853187
 20
104.1847181708839
 30
0.0
 11
-53.59911932853173
 21
136.4363331175291
 31
0.0
  0
LINE
  5
2C6B8
330
2C644
100
AcDbEntity
  8
0
100
AcDbLine
 10
-55.36688628149811
 20
101.5311042828689
 30
0.0
 11
-25.66840147166308
 21
118.6775324823511
 31
0.0
  0
LINE
  5
2C6B9
330
2C644
100
AcDbEntity
  8
0
100
AcDbLine
 10
-27.08261503403619
 20
119.4940290632788
 30
0.0
 11
-56.7810998438712
 21
102.3476008637966
 31
0.0
  0
LINE
  5
2C6BA
330
2C644
100
AcDbEntity
  8
0
100
AcDbLine
 10
-52.18490576615863
 20
137.2528296984569
 30
0.0
 11
-53.59911932853173
 21
136.4363331175291
 31
0.0
  0
LINE
  5
2C6BB
330
2C644
100
AcDbEntity
  8
0
100
AcDbLine
 10
-27.08261503403619
 20
119.4940290632788
 30
0.0
 11
-27.08261503403619
 21
121.1270222251343
 31
0.0
  0
ELLIPSE
  5
2C6BC
330
2C644
100
AcDbEntity
  8
0
100
AcDbEllipse
 10
-28.49682859640928
 20
120.3105256442066
 30
0.0
 11
2.000000000000001
 21
0.0000000000000001
 31
0.0
210
0.0
220
0.0
230
1.0
 40
0.5773502691896257
 41
5.497787143782144
 42
7.068583470577045
  0
LINE
  5
2C6BD
330
2C644
100
AcDbEntity
  8
0
100
AcDbLine
 10
-27.08261503403619
 20
119.4940290632788
 30
0.0
 11
-25.66840147166308
 21
118.6775324823511
 31
0.0
  0
LINE
  5
2C6BE
330
2C644
100
AcDbEntity
  8
0
100
AcDbLine
 10
-25.66840147166308
 20
118.6775324823511
 30
0.0
 11
-25.66840147166308
 21
-19.74924794637051
 31
0.0
  0
ELLIPSE
  5
2C6BF
330
2C644
100
AcDbEntity
  8
0
100
AcDbEllipse
 10
-28.49682859640928
 20
120.3105256442066
 30
0.0
 11
4.000000000000003
 21
0.0000000000000001
 31
0.0
210
0.0
220
0.0
230
1.0
 40
0.5773502691896257
 41
5.497787143782137
 42
7.068583470577036
  0
LINE
  5
2C6C0
330
2C644
100
AcDbEntity
  8
0
100
AcDbLine
 10
-27.08261503403619
 20
121.1270222251343
 30
0.0
 11
-25.6684014716631
 21
121.943518806062
 31
0.0
  0
LINE
  5
2C6C1
330
2C644
100
AcDbEntity
  8
0
100
AcDbLine
 10
-24.49682859640927
 20
-18.11625478451505
 30
0.0
 11
-24.49682859640927
 21
120.3105256442066
 31
0.0
  0
LINE
  5
2C6C2
330
2C644
100
AcDbEntity
  8
0
100
AcDbLine
 10
-50.63989570331496
 20
4.127881641152839
 30
0.0
 11
-49.9851701129261
 21
3.115506261884766
 31
0.0
  0
LINE
  5
2C6C3
330
2C644
100
AcDbEntity
  8
0
100
AcDbLine
 10
-84.96255482417609
 20
-55.17687825573435
 30
0.0
 11
-83.93476033184814
 21
-55.77027568255153
 31
0.0
  0
LINE
  5
2C6C4
330
2C644
100
AcDbEntity
  8
0
100
AcDbLine
 10
-83.93476033184814
 20
-55.77027568255153
 30
0.0
 11
-83.54834126180305
 21
-55.99337483666207
 31
0.0
  0
LINE
  5
2C6C5
330
2C644
100
AcDbEntity
  8
0
100
AcDbLine
 10
-55.36688628149811
 20
101.5311042828689
 30
0.0
 11
-55.36688628149814
 21
-26.20162083746457
 31
0.0
  0
LINE
  5
2C6C6
330
2C644
100
AcDbEntity
  8
0
100
AcDbLine
 10
-56.7810998438712
 20
102.3476008637966
 30
0.0
 11
-55.36688628149811
 21
101.5311042828689
 31
0.0
  0
LINE
  5
2C6C7
330
2C644
100
AcDbEntity
  8
0
100
AcDbLine
 10
-56.78109984387121
 20
-25.38512425653687
 30
0.0
 11
-56.7810998438712
 21
102.3476008637966
 31
0.0
  0
LINE
  5
2C6C8
330
2C644
100
AcDbEntity
  8
0
100
AcDbLine
 10
-56.78109984387121
 20
-25.38512425653687
 30
0.0
 11
-55.36688628149814
 21
-26.20162083746458
 31
0.0
  0
LINE
  5
2C6C9
330
2C644
100
AcDbEntity
  8
0
100
AcDbLine
 10
-55.36688628149814
 20
-26.20162083746458
 30
0.0
 11
-62.31070994735091
 21
-36.9385711269944
 31
0.0
  0
LINE
  5
2C6CA
330
2C644
100
AcDbEntity
  8
0
100
AcDbLine
 10
-63.72492350972398
 20
-36.12207454606669
 30
0.0
 11
-56.78109984387121
 21
-25.38512425653687
 31
0.0
  0
LINE
  5
2C6CB
330
2C644
100
AcDbEntity
  8
0
100
AcDbLine
 10
-63.72492350972398
 20
-36.12207454606669
 30
0.0
 11
-62.31070994735091
 21
-36.9385711269944
 31
0.0
  0
LINE
  5
2C6CC
330
2C644
100
AcDbEntity
  8
0
100
AcDbLine
 10
-62.31070994735091
 20
-36.9385711269944
 30
0.0
 11
-80.72956264287213
 21
-51.32286860515073
 31
0.0
  0
LINE
  5
2C6CD
330
2C644
100
AcDbEntity
  8
0
100
AcDbLine
 10
-82.14377620524523
 20
-50.50637202422302
 30
0.0
 11
-63.72492350972398
 21
-36.12207454606669
 31
0.0
  0
LINE
  5
2C6CE
330
2C644
100
AcDbEntity
  8
0
100
AcDbLine
 10
-82.14377620524523
 20
-50.50637202422302
 30
0.0
 11
-80.72956264287213
 21
-51.32286860515073
 31
0.0
  0
ELLIPSE
  5
2C6CF
330
2C644
100
AcDbEntity
  8
0
100
AcDbEllipse
 10
-80.11562362302726
 20
-54.98887156280521
 30
0.0
 11
-2.49999999999974
 21
-4.330127018922342
 31
0.0
210
0.0
220
0.0
230
0.9999999999999998
 40
0.5773502691896259
 41
4.101523742186525
 42
5.256031546583047
  0
ELLIPSE
  5
2C6D0
330
2C644
100
AcDbEntity
  8
0
100
AcDbEllipse
 10
-81.5298371854004
 20
-54.17237498187748
 30
0.0
 11
2.500000000000259
 21
4.330127018922043
 31
0.0
210
0.0
220
0.0
230
1.0
 40
0.5773502691896259
 41
0.9599310885970107
 42
2.114438892993501
  0
LINE
  5
2C6D1
330
2C644
100
AcDbEntity
  8
0
100
AcDbLine
 10
-82.23694396658689
 20
-58.50222557896542
 30
0.0
 11
21.00064608664905
 21
-118.1064759866894
 31
0.0
  0
ELLIPSE
  5
2C6D2
330
2C644
100
AcDbEntity
  8
0
100
AcDbEllipse
 10
-17.89022687861104
 20
-80.95588155447785
 30
0.0
 11
-2.5
 21
0.0000000000001492
 31
0.0
210
0.0
220
0.0
230
1.0
 40
0.5773502691896258
 41
0.0
 42
6.283185307179586
  0
ELLIPSE
  5
2C6D3
330
2C644
100
AcDbEntity
  8
0
100
AcDbEllipse
 10
-3.748091254880092
 20
-72.79091574520059
 30
0.0
 11
-2.5
 21
0.0000000000001492
 31
0.0
210
0.0
220
0.0
230
1.0
 40
0.5773502691896258
 41
0.0
 42
6.283185307179586
  0
ELLIPSE
  5
2C6D4
330
2C644
100
AcDbEntity
  8
0
100
AcDbEllipse
 10
-3.748091254880092
 20
-74.42390890705604
 30
0.0
 11
-2.5
 21
-0.0000000000001499
 31
0.0
210
0.0
220
0.0
230
1.0
 40
0.5773502691896258
 41
3.74285687026858
 42
5.681921090500121
  0
ELLIPSE
  5
2C6D5
330
2C644
100
AcDbEntity
  8
0
100
AcDbEllipse
 10
-17.89022687861104
 20
-82.58887471633331
 30
0.0
 11
-2.5
 21
-0.0000000000001499
 31
0.0
210
0.0
220
0.0
230
1.0
 40
0.5773502691896258
 41
3.742856870268575
 42
5.681921090500119
  0
LINE
  5
2C6D6
330
2C644
100
AcDbEntity
  8
0
100
AcDbLine
 10
21.00064608664905
 20
-119.7394691485448
 30
0.0
 11
-82.23694396658686
 21
-60.13521874082087
 31
0.0
  0
ELLIPSE
  5
2C6D7
330
2C644
100
AcDbEntity
  8
0
100
AcDbEllipse
 10
56.00243175538313
 20
-83.20124715202911
 30
0.0
 11
1.249999999999871
 21
2.16506350946117
 31
0.0
210
0.0
220
0.0
230
1.0
 40
0.577350269189626
 41
3.742856870268584
 42
5.681921090500114
  0
ELLIPSE
  5
2C6D8
330
2C644
100
AcDbEntity
  8
0
100
AcDbEllipse
 10
57.41664531775623
 20
-84.01774373295685
 30
0.0
 11
-1.25
 21
-2.165063509461096
 31
0.0
210
0.0
220
0.0
230
0.9999999999999998
 40
0.577350269189626
 41
0.0
 42
6.283185307179586
  0
ELLIPSE
  5
2C6D9
330
2C644
100
AcDbEntity
  8
0
100
AcDbEllipse
 10
56.00243175538313
 20
-66.87131553347462
 30
0.0
 11
1.249999999999871
 21
2.16506350946117
 31
0.0
210
0.0
220
0.0
230
1.0
 40
0.577350269189626
 41
3.742856870268584
 42
5.681921090500118
  0
ELLIPSE
  5
2C6DA
330
2C644
100
AcDbEntity
  8
0
100
AcDbEllipse
 10
57.41664531775623
 20
-67.68781211440233
 30
0.0
 11
-1.25
 21
-2.165063509461096
 31
0.0
210
0.0
220
0.0
230
0.9999999999999998
 40
0.577350269189626
 41
0.0
 42
6.283185307179586
  0
ELLIPSE
  5
2C6DB
330
2C644
100
AcDbEntity
  8
0
100
AcDbEllipse
 10
56.00243175538313
 20
-50.54138391492009
 30
0.0
 11
1.249999999999871
 21
2.16506350946117
 31
0.0
210
0.0
220
0.0
230
1.0
 40
0.577350269189626
 41
3.742856870268584
 42
5.681921090500118
  0
ELLIPSE
  5
2C6DC
330
2C644
100
AcDbEntity
  8
0
100
AcDbEllipse
 10
57.41664531775623
 20
-51.35788049584782
 30
0.0
 11
-1.25
 21
-2.165063509461096
 31
0.0
210
0.0
220
0.0
230
0.9999999999999998
 40
0.577350269189626
 41
0.0
 42
6.283185307179586
  0
ELLIPSE
  5
2C6DD
330
2C644
100
AcDbEntity
  8
0
100
AcDbEllipse
 10
56.00243175538313
 20
-34.21145229636557
 30
0.0
 11
1.249999999999871
 21
2.16506350946117
 31
0.0
210
0.0
220
0.0
230
1.0
 40
0.577350269189626
 41
3.742856870268584
 42
5.681921090500121
  0
ELLIPSE
  5
2C6DE
330
2C644
100
AcDbEntity
  8
0
100
AcDbEllipse
 10
57.41664531775623
 20
-35.0279488772933
 30
0.0
 11
-1.25
 21
-2.165063509461096
 31
0.0
210
0.0
220
0.0
230
0.9999999999999998
 40
0.577350269189626
 41
0.0
 42
6.283185307179586
  0
ELLIPSE
  5
2C6DF
330
2C644
100
AcDbEntity
  8
0
100
AcDbEllipse
 10
56.00243175538313
 20
-17.88152067781105
 30
0.0
 11
1.249999999999871
 21
2.16506350946117
 31
0.0
210
0.0
220
0.0
230
1.0
 40
0.577350269189626
 41
3.742856870268584
 42
5.681921090500122
  0
ELLIPSE
  5
2C6E0
330
2C644
100
AcDbEntity
  8
0
100
AcDbEllipse
 10
57.41664531775623
 20
-18.69801725873878
 30
0.0
 11
-1.25
 21
-2.165063509461096
 31
0.0
210
0.0
220
0.0
230
0.9999999999999998
 40
0.577350269189626
 41
0.0
 42
6.283185307179586
  0
ELLIPSE
  5
2C6E1
330
2C644
100
AcDbEntity
  8
0
100
AcDbEllipse
 10
56.00243175538313
 20
-1.551589059256528
 30
0.0
 11
1.249999999999871
 21
2.16506350946117
 31
0.0
210
0.0
220
0.0
230
1.0
 40
0.577350269189626
 41
3.742856870268584
 42
5.68192109050012
  0
ELLIPSE
  5
2C6E2
330
2C644
100
AcDbEntity
  8
0
100
AcDbEllipse
 10
57.41664531775623
 20
-2.368085640184256
 30
0.0
 11
-1.25
 21
-2.165063509461096
 31
0.0
210
0.0
220
0.0
230
0.9999999999999998
 40
0.577350269189626
 41
0.0
 42
6.283185307179586
  0
ELLIPSE
  5
2C6E3
330
2C644
100
AcDbEntity
  8
0
100
AcDbEllipse
 10
56.00243175538313
 20
14.77834255929798
 30
0.0
 11
1.249999999999871
 21
2.16506350946117
 31
0.0
210
0.0
220
0.0
230
1.0
 40
0.577350269189626
 41
3.742856870268584
 42
5.681921090500122
  0
ELLIPSE
  5
2C6E4
330
2C644
100
AcDbEntity
  8
0
100
AcDbEllipse
 10
57.41664531775623
 20
13.96184597837025
 30
0.0
 11
-1.25
 21
-2.165063509461096
 31
0.0
210
0.0
220
0.0
230
0.9999999999999998
 40
0.577350269189626
 41
0.0
 42
6.283185307179586
  0
ELLIPSE
  5
2C6E5
330
2C644
100
AcDbEntity
  8
0
100
AcDbEllipse
 10
-51.47779898497208
 20
-12.98254119224468
 30
0.0
 11
1.249999999999871
 21
2.165063509461171
 31
0.0
210
0.0
220
0.0
230
1.0
 40
0.5773502691896259
 41
3.742856870268584
 42
5.681921090500118
  0
ELLIPSE
  5
2C6E6
330
2C644
100
AcDbEntity
  8
0
100
AcDbEllipse
 10
-50.06358542259897
 20
-13.79903777317241
 30
0.0
 11
1.249999999999999
 21
2.165063509461096
 31
0.0
210
0.0
220
0.0
230
1.0
 40
0.5773502691896259
 41
0.0
 42
6.283185307179586
  0
ELLIPSE
  5
2C6E7
330
2C644
100
AcDbEntity
  8
0
100
AcDbEllipse
 10
-51.47779898497208
 20
3.34739042630983
 30
0.0
 11
1.249999999999871
 21
2.165063509461171
 31
0.0
210
0.0
220
0.0
230
1.0
 40
0.5773502691896259
 41
3.742856870268584
 42
5.681921090500118
  0
ELLIPSE
  5
2C6E8
330
2C644
100
AcDbEntity
  8
0
100
AcDbEllipse
 10
-50.06358542259897
 20
2.530893845382102
 30
0.0
 11
1.249999999999999
 21
2.165063509461096
 31
0.0
210
0.0
220
0.0
230
1.0
 40
0.5773502691896259
 41
0.0
 42
6.283185307179586
  0
ELLIPSE
  5
2C6E9
330
2C644
100
AcDbEntity
  8
0
100
AcDbEllipse
 10
-51.47779898497208
 20
19.67732204486434
 30
0.0
 11
1.249999999999871
 21
2.165063509461171
 31
0.0
210
0.0
220
0.0
230
1.0
 40
0.5773502691896259
 41
3.742856870268584
 42
5.681921090500118
  0
ELLIPSE
  5
2C6EA
330
2C644
100
AcDbEntity
  8
0
100
AcDbEllipse
 10
-50.06358542259897
 20
18.86082546393662
 30
0.0
 11
1.249999999999999
 21
2.165063509461096
 31
0.0
210
0.0
220
0.0
230
1.0
 40
0.5773502691896259
 41
0.0
 42
6.283185307179586
  0
ELLIPSE
  5
2C6EB
330
2C644
100
AcDbEntity
  8
0
100
AcDbEllipse
 10
-51.47779898497208
 20
36.00725366341888
 30
0.0
 11
1.249999999999871
 21
2.165063509461171
 31
0.0
210
0.0
220
0.0
230
1.0
 40
0.5773502691896259
 41
3.742856870268584
 42
5.681921090500122
  0
ELLIPSE
  5
2C6EC
330
2C644
100
AcDbEntity
  8
0
100
AcDbEllipse
 10
-50.06358542259897
 20
35.19075708249115
 30
0.0
 11
1.249999999999999
 21
2.165063509461096
 31
0.0
210
0.0
220
0.0
230
1.0
 40
0.5773502691896259
 41
0.0
 42
6.283185307179586
  0
ELLIPSE
  5
2C6ED
330
2C644
100
AcDbEntity
  8
0
100
AcDbEllipse
 10
-51.47779898497208
 20
52.33718528197339
 30
0.0
 11
1.249999999999871
 21
2.165063509461171
 31
0.0
210
0.0
220
0.0
230
1.0
 40
0.5773502691896259
 41
3.742856870268584
 42
5.681921090500122
  0
ELLIPSE
  5
2C6EE
330
2C644
100
AcDbEntity
  8
0
100
AcDbEllipse
 10
-50.06358542259897
 20
51.52068870104567
 30
0.0
 11
1.249999999999999
 21
2.165063509461096
 31
0.0
210
0.0
220
0.0
230
1.0
 40
0.5773502691896259
 41
0.0
 42
6.283185307179586
  0
ELLIPSE
  5
2C6EF
330
2C644
100
AcDbEntity
  8
0
100
AcDbEllipse
 10
-51.47779898497208
 20
68.66711690052792
 30
0.0
 11
1.249999999999871
 21
2.165063509461171
 31
0.0
210
0.0
220
0.0
230
1.0
 40
0.5773502691896259
 41
3.742856870268584
 42
5.681921090500122
  0
ELLIPSE
  5
2C6F0
330
2C644
100
AcDbEntity
  8
0
100
AcDbEllipse
 10
-50.06358542259897
 20
67.8506203196002
 30
0.0
 11
1.249999999999999
 21
2.165063509461096
 31
0.0
210
0.0
220
0.0
230
1.0
 40
0.5773502691896259
 41
0.0
 42
6.283185307179586
  0
ELLIPSE
  5
2C6F1
330
2C644
100
AcDbEntity
  8
0
100
AcDbEllipse
 10
-51.47779898497208
 20
84.99704851908241
 30
0.0
 11
1.249999999999871
 21
2.165063509461171
 31
0.0
210
0.0
220
0.0
230
1.0
 40
0.5773502691896259
 41
3.742856870268584
 42
5.681921090500122
  0
ELLIPSE
  5
2C6F2
330
2C644
100
AcDbEntity
  8
0
100
AcDbEllipse
 10
-50.06358542259897
 20
84.18055193815469
 30
0.0
 11
1.249999999999999
 21
2.165063509461096
 31
0.0
210
0.0
220
0.0
230
1.0
 40
0.5773502691896259
 41
0.0
 42
6.283185307179586
  0
ELLIPSE
  5
2C6F3
330
2C644
100
AcDbEntity
  8
0
100
AcDbEllipse
 10
-51.47779898497208
 20
101.3269801376369
 30
0.0
 11
1.249999999999871
 21
2.165063509461171
 31
0.0
210
0.0
220
0.0
230
1.0
 40
0.5773502691896259
 41
3.742856870268584
 42
5.681921090500106
  0
ELLIPSE
  5
2C6F4
330
2C644
100
AcDbEntity
  8
0
100
AcDbEllipse
 10
-50.06358542259897
 20
100.5104835567092
 30
0.0
 11
1.249999999999999
 21
2.165063509461096
 31
0.0
210
0.0
220
0.0
230
1.0
 40
0.5773502691896259
 41
0.0
 42
6.283185307179586
  0
ENDBLK
  5
2C646
330
2C644
100
AcDbEntity
  8
0
100
AcDbBlockEnd
  0
ENDSEC
  0
SECTION
  2
ENTITIES
  0
INSERT
  5
2C6F5
330
1F
100
AcDbEntity
  8
0
100
AcDbBlockReference
  2
SAEL500_150_2-Front
 10
0.0
 20
0.0
 30
0.0
  0
INSERT
  5
2C6F6
330
1F
100
AcDbEntity
  8
0
100
AcDbBlockReference
  2
SAEL500_150_2-Left
 10
169.6
 20
0.0
 30
0.0
  0
INSERT
  5
2C6F7
330
1F
100
AcDbEntity
  8
0
100
AcDbBlockReference
  2
SAEL500_150_2-Right
 10
-169.6
 20
0.0
 30
0.0
  0
INSERT
  5
2C6F8
330
1F
100
AcDbEntity
  8
0
100
AcDbBlockReference
  2
SAEL500_150_2-Top
 10
0.0
 20
-55.10000000000001
 30
0.0
  0
INSERT
  5
2C6F9
330
1F
100
AcDbEntity
  8
0
100
AcDbBlockReference
  2
SAEL500_150_2-Bottom
 10
0.0
 20
228.1
 30
0.0
  0
INSERT
  5
2C6FA
330
1F
100
AcDbEntity
  8
0
100
AcDbBlockReference
  2
SAEL500_150_2-ISO
 10
254.6307648334941
 20
-192.3528296984569
 30
0.0
  0
MTEXT
  5
2C6FB
330
1F
100
AcDbEntity
  8
0
100
AcDbMText
 10
0.0
 20
-194.2000000000034
 30
0.0
 40
17.7
 41
0.0
 71
     5
 72
     5
  1
SAEL500/150/2
 73
     1
 44
1.0
1001
ACAD
1000
MTEXTBEGIN
1070
    73
1070
     1
1070
    44
1040
1.0
1070
    74
1070
     0
1000
MTEXTEND
  0
ENDSEC
  0
SECTION
  2
OBJECTS
  0
DICTIONARY
  5
C
330
0
100
AcDbDictionary
281
     1
  3
ACAD_CIP_PREVIOUS_PRODUCT_INFO
350
216
  3
ACAD_COLOR
350
6B
  3
ACAD_DETAILVIEWSTYLE
350
21B
  3
ACAD_GROUP
350
D
  3
ACAD_LAYOUT
350
1A
  3
ACAD_MATERIAL
350
6A
  3
ACAD_MLEADERSTYLE
350
12D
  3
ACAD_MLINESTYLE
350
17
  3
ACAD_PLOTSETTINGS
350
19
  3
ACAD_PLOTSTYLENAME
350
E
  3
ACAD_SCALELIST
350
10C
  3
ACAD_SECTIONVIEWSTYLE
350
219
  3
ACAD_TABLESTYLE
350
7E
  3
ACAD_VISUALSTYLE
350
EF
  3
ACDB_RECOMPOSE_DATA
350
2C7FC
  3
AcDbVariableDictionary
350
5E
  3
DWGPROPS
350
2C7FD
  0
DICTIONARY
  5
2C74C
330
8
100
AcDbDictionary
280
     1
281
     1
  0
DICTIONARY
  5
1FF
330
2
100
AcDbDictionary
280
     1
281
     1
  3
ACAD_LAYERSTATES
360
200
  0
DICTIONARY
  5
13C
330
10
100
AcDbDictionary
280
     1
281
     1
  0
DICTIONARY
  5
1CE
330
1F
100
AcDbDictionary
280
     1
281
     1
  3
ACAD_LAYOUTSELFREF
360
2C754
  0
DICTIONARY
  5
2C6FF
330
D2
100
AcDbDictionary
280
     1
281
     1
  3
ACAD_LAYOUTSELFREF
360
2C75D
  0
DICTIONARY
  5
2C701
330
D6
100
AcDbDictionary
280
     1
281
     1
  3
ACAD_LAYOUTSELFREF
360
2C760
  0
XRECORD
  5
216
102
{ACAD_REACTORS
330
C
102
}
330
C
100
AcDbXrecord
280
     1
300
ACD
300
2021
300
87393ACD_2021_0F
  0
DICTIONARY
  5
6B
102
{ACAD_REACTORS
330
C
102
}
330
C
100
AcDbDictionary
281
     1
  0
DICTIONARY
  5
21B
102
{ACAD_REACTORS
330
C
102
}
330
C
100
AcDbDictionary
281
     1
  3
Metric50
350
21C
  0
DICTIONARY
  5
D
102
{ACAD_REACTORS
330
C
102
}
330
C
100
AcDbDictionary
281
     1
  0
DICTIONARY
  5
1A
102
{ACAD_REACTORS
330
C
102
}
330
C
100
AcDbDictionary
281
     1
  3
Layout1
350
D3
  3
Layout2
350
D7
  3
Model
350
22
  0
DICTIONARY
  5
6A
102
{ACAD_REACTORS
330
C
102
}
330
C
100
AcDbDictionary
281
     1
  3
ByBlock
350
ED
  3
ByLayer
350
EC
  3
Global
350
EE
  0
DICTIONARY
  5
12D
102
{ACAD_REACTORS
330
C
102
}
330
C
100
AcDbDictionary
281
     1
  3
Standard
350
12E
  0
DICTIONARY
  5
17
102
{ACAD_REACTORS
330
C
102
}
330
C
100
AcDbDictionary
281
     1
  3
Standard
350
18
  0
DICTIONARY
  5
19
102
{ACAD_REACTORS
330
C
102
}
330
C
100
AcDbDictionary
281
     1
  0
ACDBDICTIONARYWDFLT
  5
E
102
{ACAD_REACTORS
330
C
102
}
330
C
100
AcDbDictionary
281
     1
  3
Normal
350
F
100
AcDbDictionaryWithDefault
340
F
  0
DICTIONARY
  5
10C
102
{ACAD_REACTORS
330
C
102
}
330
C
100
AcDbDictionary
281
     1
  3
A0
350
10D
  3
A1
350
1BE
  3
A2
350
1BF
  3
A3
350
1C0
  3
A4
350
1C1
  3
A5
350
1C2
  3
A6
350
1C3
  3
A7
350
1C4
  3
A8
350
1C5
  3
A9
350
1C6
  3
B0
350
1C7
  3
B1
350
1C8
  3
B2
350
1C9
  3
B3
350
1CA
  3
B4
350
1CB
  3
B5
350
1CC
  3
B6
350
1CD
  0
DICTIONARY
  5
219
102
{ACAD_REACTORS
330
C
102
}
330
C
100
AcDbDictionary
281
     1
  3
Metric50
350
21A
  0
DICTIONARY
  5
7E
102
{ACAD_REACTORS
330
C
102
}
330
C
100
AcDbDictionary
281
     1
  3
Standard
350
7F
  0
DICTIONARY
  5
EF
102
{ACAD_REACTORS
330
C
102
}
330
C
100
AcDbDictionary
281
     1
  3
2dWireframe
350
F5
  3
Basic
350
F4
  3
Brighten
350
FB
  3
ColorChange
350
FF
  3
Conceptual
350
F8
  3
Dim
350
FA
  3
EdgeColorOff
350
1E6
  3
Facepattern
350
FE
  3
Flat
350
F0
  3
FlatWithEdges
350
F1
  3
Gouraud
350
F2
  3
GouraudWithEdges
350
F3
  3
Hidden
350
F7
  3
JitterOff
350
1E4
  3
Linepattern
350
FD
  3
OverhangOff
350
1E5
  3
Realistic
350
F9
  3
Shaded
350
1F3
  3
Shaded with edges
350
1F2
  3
Shades of Gray
350
1EF
  3
Sketchy
350
1F0
  3
Thicken
350
FC
  3
Wireframe
350
F6
  3
X-Ray
350
1F1
  0
XRECORD
  5
2C7FC
102
{ACAD_REACTORS
330
C
102
}
330
C
100
AcDbXrecord
280
     1
 90
        1
330
7F
  0
DICTIONARY
  5
5E
102
{ACAD_REACTORS
330
C
102
}
330
C
100
AcDbDictionary
281
     1
  3
CANNOSCALE
350
146
  3
CENTEREXE
350
259
  3
CENTERLTYPEFILE
350
25A
  3
CMLEADERSTYLE
350
145
  3
CTABLESTYLE
350
84
  3
CVIEWDETAILSTYLE
350
227
  3
CVIEWSECTIONSTYLE
350
228
  3
DIMASSOC
350
5F
  3
HIDETEXT
350
63
  3
INDEXCTL
350
2C7A9
  3
LAYEREVAL
350
1AE
  3
LAYERNOTIFY
350
1AF
  3
LIGHTINGUNITS
350
2C7A7
  3
MSLTSCALE
350
2C7A6
  3
PSOLHEIGHT
350
2C7F9
  3
PSOLWIDTH
350
2C7F8
  3
SORTENTS
350
2C7A8
  3
XCLIPFRAME
350
2C7FA
  0
XRECORD
  5
2C7FD
102
{ACAD_REACTORS
330
C
102
}
330
C
100
AcDbXrecord
280
     1
  1
DWGPROPS COOKIE
  2

  3

  4

  6

  7

  8
truole
  9

300
=
301
=
302
=
303
=
304
=
305
=
306
=
307
=
308
=
309
=
 40
0.0103819444444445
 41
2460398.356956019
 42
2460398.392777778
  1

 90
        0
  0
DICTIONARY
  5
200
102
{ACAD_REACTORS
330
1FF
102
}
330
1FF
100
AcDbDictionary
281
     1
  0
XRECORD
  5
2C754
102
{ACAD_REACTORS
330
1CE
102
}
330
1CE
100
AcDbXrecord
280
     1
340
1F
  0
XRECORD
  5
2C75D
102
{ACAD_REACTORS
330
2C6FF
102
}
330
2C6FF
100
AcDbXrecord
280
     1
340
D2
  0
XRECORD
  5
2C760
102
{ACAD_REACTORS
330
2C701
102
}
330
2C701
100
AcDbXrecord
280
     1
340
D6
  0
ACDBDETAILVIEWSTYLE
  5
21C
102
{ACAD_XDICTIONARY
360
2C83C
102
}
102
{ACAD_REACTORS
330
21B
102
}
330
21B
100
AcDbModelDocViewStyle
 70
     0
  3
Metric50
290
     0
100
AcDbDetailViewStyle
 70
     0
 71
     0
 90
        3
 71
     1
340
11
 40
5.0
340
0
 40
5.0
300

 40
0.0
280
     1
 71
     2
340
16
 90
       25
 71
     3
340
11
 40
5.0
 90
        0
 40
15.0
 90
        1
300
%<\AcVar ViewDetailId>% (%<\AcVar ViewScale \f "%sn">%)
 71
     4
340
16
 90
       25
340
16
 90
       25
280
     0
  0
LAYOUT
  5
D3
102
{ACAD_XDICTIONARY
360
2C801
102
}
102
{ACAD_REACTORS
330
1A
102
}
330
1A
100
AcDbPlotSettings
  1

  2
C:\Documents and Settings\basas\Application Data\Autodesk\AutoCAD 2005\R16.1\enu\plotters\Default Windows System Printer.pc3
  4

  6

 40
0.0
 41
0.0
 42
0.0
 43
0.0
 44
0.0
 45
0.0
 46
0.0
 47
0.0
 48
0.0
 49
0.0
140
0.0
141
0.0
142
1.0
143
1.0
 70
   688
 72
     0
 73
     0
 74
     5
  7

 75
    16
147
1.0
148
0.0
149
0.0
100
AcDbLayout
  1
Layout1
 70
     1
 71
     1
 10
0.0
 20
0.0
 11
12.0
 21
9.0
 12
0.0
 22
0.0
 32
0.0
 14
0.0
 24
0.0
 34
0.0
 15
0.0
 25
0.0
 35
0.0
146
0.0
 13
0.0
 23
0.0
 33
0.0
 16
1.0
 26
0.0
 36
0.0
 17
0.0
 27
1.0
 37
0.0
 76
     0
330
D2
  0
LAYOUT
  5
D7
102
{ACAD_XDICTIONARY
360
2C803
102
}
102
{ACAD_REACTORS
330
1A
102
}
330
1A
100
AcDbPlotSettings
  1

  2
C:\Documents and Settings\basas\Application Data\Autodesk\AutoCAD 2005\R16.1\enu\plotters\Default Windows System Printer.pc3
  4

  6

 40
0.0
 41
0.0
 42
0.0
 43
0.0
 44
0.0
 45
0.0
 46
0.0
 47
0.0
 48
0.0
 49
0.0
140
0.0
141
0.0
142
1.0
143
1.0
 70
   688
 72
     0
 73
     0
 74
     5
  7

 75
    16
147
1.0
148
0.0
149
0.0
100
AcDbLayout
  1
Layout2
 70
     1
 71
     2
 10
0.0
 20
0.0
 11
12.0
 21
9.0
 12
0.0
 22
0.0
 32
0.0
 14
0.0
 24
0.0
 34
0.0
 15
0.0
 25
0.0
 35
0.0
146
0.0
 13
0.0
 23
0.0
 33
0.0
 16
1.0
 26
0.0
 36
0.0
 17
0.0
 27
1.0
 37
0.0
 76
     0
330
D6
  0
LAYOUT
  5
22
102
{ACAD_XDICTIONARY
360
2C7FE
102
}
102
{ACAD_REACTORS
330
1A
102
}
330
1A
100
AcDbPlotSettings
  1

  2
none_device
  4
ISO_A4_(210.00_x_297.00_MM)
  6

 40
7.5
 41
20.0
 42
7.5
 43
20.0
 44
210.0
 45
297.0
 46
11.54999923706054
 47
-13.65000009536743
 48
0.0
 49
0.0
140
0.0
141
0.0
142
1.0
143
8.704084754739808
 70
 11952
 72
     1
 73
     0
 74
     0
  7

 75
     0
147
0.1148885871608098
148
0.0
149
0.0
100
AcDbLayout
  1
Model
 70
     1
 71
     0
 10
0.0
 20
0.0
 11
12.0
 21
9.0
 12
0.0
 22
0.0
 32
0.0
 14
0.0
 24
0.0
 34
0.0
 15
0.0
 25
0.0
 35
0.0
146
0.0
 13
0.0
 23
0.0
 33
0.0
 16
1.0
 26
0.0
 36
0.0
 17
0.0
 27
1.0
 37
0.0
 76
     0
330
1F
331
EA
1001
ACAD_PSEXT
1000
None
1000
None
1000
Not applicable
1000
The layout will not be plotted unless a new plotter configuration name is selected.
1070
     0
  0
MATERIAL
  5
ED
102
{ACAD_XDICTIONARY
360
1F9
102
}
102
{ACAD_REACTORS
330
6A
102
}
330
6A
100
AcDbMaterial
  1
ByBlock
  0
MATERIAL
  5
EC
102
{ACAD_XDICTIONARY
360
1F7
102
}
102
{ACAD_REACTORS
330
6A
102
}
330
6A
100
AcDbMaterial
  1
ByLayer
  0
MATERIAL
  5
EE
102
{ACAD_XDICTIONARY
360
173
102
}
102
{ACAD_REACTORS
330
6A
102
}
330
6A
100
AcDbMaterial
  1
Global
 43
0.0007999999797903
 43
0.0
 43
0.0
 43
0.0
 43
0.0
 43
0.0007999999797903
 43
0.0
 43
0.0
 43
0.0
 43
0.0
 43
1.0
 43
0.0
 43
0.0
 43
0.0
 43
0.0
 43
1.0
 49
0.0007999999797903
 49
0.0
 49
0.0
 49
0.0
 49
0.0
 49
0.0007999999797903
 49
0.0
 49
0.0
 49
0.0
 49
0.0
 49
1.0
 49
0.0
 49
0.0
 49
0.0
 49
0.0
 49
1.0
142
0.0007999999797903
142
0.0
142
0.0
142
0.0
142
0.0
142
0.0007999999797903
142
0.0
142
0.0
142
0.0
142
0.0
142
1.0
142
0.0
142
0.0
142
0.0
142
0.0
142
1.0
144
0.0007999999797903
144
0.0
144
0.0
144
0.0
144
0.0
144
0.0007999999797903
144
0.0
144
0.0
144
0.0
144
0.0
144
1.0
144
0.0
144
0.0
144
0.0
144
0.0
144
1.0
1001
ACAD
1070
    -1
1070
     3
1070
     0
1000

1071
        0
1070
     0
  0
MLEADERSTYLE
  5
12E
102
{ACAD_XDICTIONARY
360
2C828
102
}
102
{ACAD_REACTORS
330
12D
102
}
330
12D
100
AcDbMLeaderStyle
170
     2
171
     1
172
     0
 90
        2
 40
0.0
 41
0.0
173
     1
 91
-1056964608
340
14
 92
       -2
290
     1
 42
2.0
291
     1
 43
8.0
  3
Standard
 44
4.0
300

342
11
174
     1
178
     1
175
     1
176
     0
 93
-1056964608
 45
4.0
292
     0
297
     0
 46
4.0
 94
-1056964608
 47
1.0
 49
1.0
140
1.0
293
     1
141
0.0
294
     1
177
     0
142
1.0
295
     0
296
     0
143
3.75
1001
ACAD_MLEADERVER
1070
     2
  0
MLINESTYLE
  5
18
102
{ACAD_REACTORS
330
17
102
}
330
17
100
AcDbMlineStyle
  2
STANDARD
 70
     0
  3

 62
   256
 51
90.0
 52
90.0
 71
     2
 49
0.5
 62
   256
  6
BYLAYER
 49
-0.5
 62
   256
  6
BYLAYER
  0
ACDBPLACEHOLDER
  5
F
102
{ACAD_REACTORS
330
E
102
}
330
E
  0
SCALE
  5
10D
102
{ACAD_REACTORS
330
10C
102
}
330
10C
100
AcDbScale
 70
     0
300
1:1
140
1.0
141
1.0
290
     1
  0
SCALE
  5
1BE
102
{ACAD_REACTORS
330
10C
102
}
330
10C
100
AcDbScale
 70
     0
300
1:2
140
1.0
141
2.0
290
     0
  0
SCALE
  5
1BF
102
{ACAD_REACTORS
330
10C
102
}
330
10C
100
AcDbScale
 70
     0
300
1:4
140
1.0
141
4.0
290
     0
  0
SCALE
  5
1C0
102
{ACAD_REACTORS
330
10C
102
}
330
10C
100
AcDbScale
 70
     0
300
1:5
140
1.0
141
5.0
290
     0
  0
SCALE
  5
1C1
102
{ACAD_REACTORS
330
10C
102
}
330
10C
100
AcDbScale
 70
     0
300
1:8
140
1.0
141
8.0
290
     0
  0
SCALE
  5
1C2
102
{ACAD_REACTORS
330
10C
102
}
330
10C
100
AcDbScale
 70
     0
300
1:10
140
1.0
141
10.0
290
     0
  0
SCALE
  5
1C3
102
{ACAD_REACTORS
330
10C
102
}
330
10C
100
AcDbScale
 70
     0
300
1:16
140
1.0
141
16.0
290
     0
  0
SCALE
  5
1C4
102
{ACAD_REACTORS
330
10C
102
}
330
10C
100
AcDbScale
 70
     0
300
1:20
140
1.0
141
20.0
290
     0
  0
SCALE
  5
1C5
102
{ACAD_REACTORS
330
10C
102
}
330
10C
100
AcDbScale
 70
     0
300
1:30
140
1.0
141
30.0
290
     0
  0
SCALE
  5
1C6
102
{ACAD_REACTORS
330
10C
102
}
330
10C
100
AcDbScale
 70
     0
300
1:40
140
1.0
141
40.0
290
     0
  0
SCALE
  5
1C7
102
{ACAD_REACTORS
330
10C
102
}
330
10C
100
AcDbScale
 70
     0
300
1:50
140
1.0
141
50.0
290
     0
  0
SCALE
  5
1C8
102
{ACAD_REACTORS
330
10C
102
}
330
10C
100
AcDbScale
 70
     0
300
1:100
140
1.0
141
100.0
290
     0
  0
SCALE
  5
1C9
102
{ACAD_REACTORS
330
10C
102
}
330
10C
100
AcDbScale
 70
     0
300
2:1
140
2.0
141
1.0
290
     0
  0
SCALE
  5
1CA
102
{ACAD_REACTORS
330
10C
102
}
330
10C
100
AcDbScale
 70
     0
300
4:1
140
4.0
141
1.0
290
     0
  0
SCALE
  5
1CB
102
{ACAD_REACTORS
330
10C
102
}
330
10C
100
AcDbScale
 70
     0
300
8:1
140
8.0
141
1.0
290
     0
  0
SCALE
  5
1CC
102
{ACAD_REACTORS
330
10C
102
}
330
10C
100
AcDbScale
 70
     0
300
10:1
140
10.0
141
1.0
290
     0
  0
SCALE
  5
1CD
102
{ACAD_REACTORS
330
10C
102
}
330
10C
100
AcDbScale
 70
     0
300
100:1
140
100.0
141
1.0
290
     0
  0
ACDBSECTIONVIEWSTYLE
  5
21A
102
{ACAD_XDICTIONARY
360
2C83A
102
}
102
{ACAD_REACTORS
330
219
102
}
330
219
100
AcDbModelDocViewStyle
 70
     0
  3
Metric50
290
     0
100
AcDbSectionViewStyle
 70
     0
 71
     0
 90
      102
 71
     1
340
11
 40
5.0
340
0
340
0
 40
5.0
300
I, O, Q, S, X, Z
 40
10.0
 90
        0
 40
2.5
 90
        0
 71
     2
340
16
 90
       25
340
16
 90
       50
 40
5.0
 40
2.5
 40
5.0
 71
     3
340
11
 40
5.0
 90
        0
 40
15.0
 90
        1
300
%<\AcVar ViewSectionStartId>%-%<\AcVar ViewSectionEndId>% (%<\AcVar ViewScale \f "%sn">%)
 71
     4
300
ANSI31
 40
1.0
 90
        0
290
     0
290
     0
 90
        6
 40
0.0
 40
1.570796326794896
 40
0.2617993877991494
 40
1.308996938995747
 40
-0.2617993877991494
 40
1.832595714594046
  0
TABLESTYLE
  5
7F
102
{ACAD_XDICTIONARY
360
162
102
}
102
{ACAD_REACTORS
330
7E
102
}
330
7E
100
AcDbTableStyle
  3
Standard
 70
     0
 71
     0
 40
1.5
 41
1.5
280
     0
281
     0
  7
Standard
140
4.5
170
     2
 62
     0
 63
     7
283
     0
274
    -2
284
     1
 64
     0
275
    -2
285
     1
 65
     0
276
    -2
286
     1
 66
     0
277
    -2
287
     1
 67
     0
278
    -2
288
     1
 68
     0
279
    -2
289
     1
 69
     0
  7
Standard
140
6.0
170
     5
 62
     0
 63
     7
283
     0
274
    -2
284
     1
 64
     0
275
    -2
285
     1
 65
     0
276
    -2
286
     1
 66
     0
277
    -2
287
     1
 67
     0
278
    -2
288
     1
 68
     0
279
    -2
289
     1
 69
     0
  7
Standard
140
4.5
170
     5
 62
     0
 63
     7
283
     0
274
    -2
284
     1
 64
     0
275
    -2
285
     1
 65
     0
276
    -2
286
     1
 66
     0
277
    -2
287
     1
 67
     0
278
    -2
288
     1
 68
     0
279
    -2
289
     1
 69
     0
  0
VISUALSTYLE
  5
F5
102
{ACAD_XDICTIONARY
360
2C812
102
}
102
{ACAD_REACTORS
330
EF
102
}
330
EF
100
AcDbVisualStyle
  2
2dWireframe
 70
     4
 71
     0
 72
     2
 73
     1
 90
        0
 40
-0.6
 41
-30.0
 62
     5
 63
     7
 74
     1
 91
        4
 64
     7
 65
   257
 75
     1
175
     1
 42
1.0
 92
        0
 66
   257
 43
1.0
 76
     1
 77
     6
 78
     2
 67
     7
 79
     5
170
     0
171
     0
290
     0
174
     0
 93
        1
 44
0.0
173
     0
291
     0
 45
0.0
1001
ACAD
1000
AcDbSavedByObjectVersion
1070
     0
  0
VISUALSTYLE
  5
F4
102
{ACAD_XDICTIONARY
360
2C810
102
}
102
{ACAD_REACTORS
330
EF
102
}
330
EF
100
AcDbVisualStyle
  2
Basic
 70
     7
 71
     1
 72
     0
 73
     1
 90
        0
 40
-0.6
 41
-30.0
 62
     5
 63
     7
 74
     0
 91
        4
 64
     7
 65
   257
 75
     1
175
     1
 42
1.0
 92
        8
 66
     7
 43
1.0
 76
     1
 77
     6
 78
     2
 67
     7
 79
     5
170
     0
171
     0
290
     0
174
     0
 93
        1
 44
0.0
173
     0
291
     1
 45
0.0
1001
ACAD
1000
AcDbSavedByObjectVersion
1070
     0
  0
VISUALSTYLE
  5
FB
102
{ACAD_XDICTIONARY
360
2C81E
102
}
102
{ACAD_REACTORS
330
EF
102
}
330
EF
100
AcDbVisualStyle
  2
Brighten
 70
    12
 71
     2
 72
     2
 73
     1
 90
        0
 40
-0.6
 41
-30.0
 62
     5
 63
     7
 74
     1
 91
        4
 64
     7
 65
   257
 75
     1
175
     1
 42
1.0
 92
        8
 66
     7
 43
1.0
 76
     1
 77
     6
 78
     2
 67
     7
 79
     5
170
     0
171
     0
290
     0
174
     0
 93
        1
 44
50.0
173
     0
291
     1
 45
0.0
1001
ACAD
1000
AcDbSavedByObjectVersion
1070
     0
  0
VISUALSTYLE
  5
FF
102
{ACAD_XDICTIONARY
360
2C826
102
}
102
{ACAD_REACTORS
330
EF
102
}
330
EF
100
AcDbVisualStyle
  2
ColorChange
 70
    16
 71
     2
 72
     2
 73
     3
 90
        0
 40
-0.6
 41
-30.0
 62
     5
 63
     8
 74
     1
 91
        4
 64
     7
 65
   257
 75
     1
175
     1
 42
1.0
 92
        8
 66
     8
 43
1.0
 76
     1
 77
     6
 78
     2
 67
     7
 79
     5
170
     0
171
     0
290
     0
174
     0
 93
        1
 44
0.0
173
     0
291
     1
 45
0.0
1001
ACAD
1000
AcDbSavedByObjectVersion
1070
     0
  0
VISUALSTYLE
  5
F8
102
{ACAD_XDICTIONARY
360
2C818
102
}
102
{ACAD_REACTORS
330
EF
102
}
330
EF
100
AcDbVisualStyle
  2
Conceptual
 70
     9
 71
     3
 72
     2
 73
     1
 90
        0
 40
-0.6
 41
-30.0
 62
     5
 63
     7
 74
     2
 91
        2
 64
     7
 65
   257
 75
     1
175
     1
 42
40.0
 92
        8
 66
     7
 43
1.0
 76
     1
 77
     6
 78
     2
 67
     7
 79
     3
170
     0
171
     0
290
     0
174
     0
 93
        1
 44
0.0
173
     0
291
     0
 45
0.0
1001
ACAD
1000
AcDbSavedByObjectVersion
1070
     0
  0
VISUALSTYLE
  5
FA
102
{ACAD_XDICTIONARY
360
2C81C
102
}
102
{ACAD_REACTORS
330
EF
102
}
330
EF
100
AcDbVisualStyle
  2
Dim
 70
    11
 71
     2
 72
     2
 73
     1
 90
        0
 40
-0.6
 41
-30.0
 62
     5
 63
     7
 74
     1
 91
        4
 64
     7
 65
   257
 75
     1
175
     1
 42
1.0
 92
        8
 66
     7
 43
1.0
 76
     1
 77
     6
 78
     2
 67
     7
 79
     5
170
     0
171
     0
290
     0
174
     0
 93
        1
 44
-50.0
173
     0
291
     1
 45
0.0
1001
ACAD
1000
AcDbSavedByObjectVersion
1070
     0
  0
VISUALSTYLE
  5
1E6
102
{ACAD_XDICTIONARY
360
2C82E
102
}
102
{ACAD_REACTORS
330
EF
102
}
330
EF
100
AcDbVisualStyle
  2
EdgeColorOff
 70
    22
 71
     2
 72
     2
 73
     0
 90
        0
 40
-0.6
 41
-30.0
 62
     5
 63
     7
 74
     1
 91
        4
 64
     7
 65
   257
 75
     1
175
     1
 42
1.0
 92
        8
 66
     7
 43
1.0
 76
     1
 77
     6
 78
     2
 67
     7
 79
     5
170
     0
171
     0
290
     0
174
     0
 93
        1
 44
0.0
173
     0
291
     1
 45
0.0
1001
ACAD
1000
AcDbSavedByObjectVersion
1070
     0
  0
VISUALSTYLE
  5
FE
102
{ACAD_XDICTIONARY
360
2C824
102
}
102
{ACAD_REACTORS
330
EF
102
}
330
EF
100
AcDbVisualStyle
  2
Facepattern
 70
    15
 71
     2
 72
     2
 73
     1
 90
        0
 40
-0.6
 41
-30.0
 62
     5
 63
     7
 74
     1
 91
        4
 64
     7
 65
   257
 75
     1
175
     1
 42
1.0
 92
        8
 66
     7
 43
1.0
 76
     1
 77
     6
 78
     2
 67
     7
 79
     5
170
     0
171
     0
290
     0
174
     0
 93
        1
 44
0.0
173
     0
291
     1
 45
0.0
1001
ACAD
1000
AcDbSavedByObjectVersion
1070
     0
  0
VISUALSTYLE
  5
F0
102
{ACAD_XDICTIONARY
360
2C808
102
}
102
{ACAD_REACTORS
330
EF
102
}
330
EF
100
AcDbVisualStyle
  2
Flat
 70
     0
 71
     2
 72
     1
 73
     1
 90
        2
 40
-0.6
 41
30.0
 62
     5
 63
     7
 74
     0
 91
        0
 64
     7
 65
   257
 75
     1
175
     1
 42
1.0
 92
        8
 66
     7
 43
1.0
 76
     1
 77
     6
 78
     2
 67
     7
 79
     5
170
     0
171
     0
290
     0
174
     0
 93
       13
 44
0.0
173
     0
291
     1
 45
0.0
1001
ACAD
1000
AcDbSavedByObjectVersion
1070
     0
  0
VISUALSTYLE
  5
F1
102
{ACAD_XDICTIONARY
360
2C80A
102
}
102
{ACAD_REACTORS
330
EF
102
}
330
EF
100
AcDbVisualStyle
  2
FlatWithEdges
 70
     1
 71
     2
 72
     1
 73
     1
 90
        2
 40
-0.6
 41
30.0
 62
     5
 63
     7
 74
     1
 91
        0
 64
     7
 65
   257
 75
     1
175
     1
 42
1.0
 92
        0
 66
   257
 43
1.0
 76
     1
 77
     6
 78
     2
 67
     7
 79
     5
170
     0
171
     0
290
     0
174
     0
 93
       13
 44
0.0
173
     0
291
     1
 45
0.0
1001
ACAD
1000
AcDbSavedByObjectVersion
1070
     0
  0
VISUALSTYLE
  5
F2
102
{ACAD_XDICTIONARY
360
2C80C
102
}
102
{ACAD_REACTORS
330
EF
102
}
330
EF
100
AcDbVisualStyle
  2
Gouraud
 70
     2
 71
     2
 72
     2
 73
     1
 90
        2
 40
-0.6
 41
30.0
 62
     5
 63
     7
 74
     0
 91
        0
 64
     7
 65
   257
 75
     1
175
     1
 42
1.0
 92
        0
 66
     7
 43
1.0
 76
     1
 77
     6
 78
     2
 67
     7
 79
     5
170
     0
171
     0
290
     0
174
     0
 93
       13
 44
0.0
173
     0
291
     1
 45
0.0
1001
ACAD
1000
AcDbSavedByObjectVersion
1070
     0
  0
VISUALSTYLE
  5
F3
102
{ACAD_XDICTIONARY
360
2C80E
102
}
102
{ACAD_REACTORS
330
EF
102
}
330
EF
100
AcDbVisualStyle
  2
GouraudWithEdges
 70
     3
 71
     2
 72
     2
 73
     1
 90
        2
 40
-0.6
 41
30.0
 62
     5
 63
     7
 74
     1
 91
        0
 64
     7
 65
   257
 75
     1
175
     1
 42
1.0
 92
        0
 66
   257
 43
1.0
 76
     1
 77
     6
 78
     2
 67
     7
 79
     5
170
     0
171
     0
290
     0
174
     0
 93
       13
 44
0.0
173
     0
291
     1
 45
0.0
1001
ACAD
1000
AcDbSavedByObjectVersion
1070
     0
  0
VISUALSTYLE
  5
F7
102
{ACAD_XDICTIONARY
360
2C816
102
}
102
{ACAD_REACTORS
330
EF
102
}
330
EF
100
AcDbVisualStyle
  2
Hidden
 70
     6
 71
     1
 72
     2
 73
     2
 90
        0
 40
-0.6
 41
-30.0
 62
     5
 63
     7
 74
     2
 91
        2
 64
     7
 65
   257
 75
     2
175
     1
 42
40.0
 92
        0
 66
   257
 43
1.0
 76
     1
 77
     6
 78
     2
 67
     7
 79
     3
170
     0
171
     0
290
     0
174
     0
 93
        1
 44
0.0
173
     0
291
     0
 45
0.0
1001
ACAD
1000
AcDbSavedByObjectVersion
1070
     0
  0
VISUALSTYLE
  5
1E4
102
{ACAD_XDICTIONARY
360
2C82A
102
}
102
{ACAD_REACTORS
330
EF
102
}
330
EF
100
AcDbVisualStyle
  2
JitterOff
 70
    20
 71
     2
 72
     2
 73
     0
 90
        0
 40
-0.6
 41
-30.0
 62
     5
 63
     7
 74
     1
 91
        4
 64
     7
 65
   257
 75
     1
175
     1
 42
1.0
 92
       10
 66
     7
 43
1.0
 76
     1
 77
     6
 78
     2
 67
     7
 79
     5
170
     0
171
     0
290
     0
174
     0
 93
        1
 44
0.0
173
     0
291
     1
 45
0.0
1001
ACAD
1000
AcDbSavedByObjectVersion
1070
     0
  0
VISUALSTYLE
  5
FD
102
{ACAD_XDICTIONARY
360
2C822
102
}
102
{ACAD_REACTORS
330
EF
102
}
330
EF
100
AcDbVisualStyle
  2
Linepattern
 70
    14
 71
     2
 72
     2
 73
     1
 90
        0
 40
-0.6
 41
-30.0
 62
     5
 63
     7
 74
     1
 91
        4
 64
     7
 65
   257
 75
     7
175
     7
 42
1.0
 92
        8
 66
     7
 43
1.0
 76
     1
 77
     6
 78
     2
 67
     7
 79
     5
170
     0
171
     0
290
     0
174
     0
 93
        1
 44
0.0
173
     0
291
     1
 45
0.0
1001
ACAD
1000
AcDbSavedByObjectVersion
1070
     0
  0
VISUALSTYLE
  5
1E5
102
{ACAD_XDICTIONARY
360
2C82C
102
}
102
{ACAD_REACTORS
330
EF
102
}
330
EF
100
AcDbVisualStyle
  2
OverhangOff
 70
    21
 71
     2
 72
     2
 73
     0
 90
        0
 40
-0.6
 41
-30.0
 62
     5
 63
     7
 74
     1
 91
        4
 64
     7
 65
   257
 75
     1
175
     1
 42
1.0
 92
        9
 66
     7
 43
1.0
 76
     1
 77
     6
 78
     2
 67
     7
 79
     5
170
     0
171
     0
290
     0
174
     0
 93
        1
 44
0.0
173
     0
291
     1
 45
0.0
1001
ACAD
1000
AcDbSavedByObjectVersion
1070
     0
  0
VISUALSTYLE
  5
F9
102
{ACAD_XDICTIONARY
360
2C81A
102
}
102
{ACAD_REACTORS
330
EF
102
}
330
EF
100
AcDbVisualStyle
  2
Realistic
 70
     8
 71
     2
 72
     2
 73
     0
 90
        2
 40
-0.6
 41
30.0
 62
     5
 63
     7
 74
     0
 91
        0
 64
     7
 65
   257
 75
     1
175
     1
 42
1.0
 92
        8
 66
   257
 43
1.0
 76
     1
 77
     6
 78
     2
 67
     7
 79
     3
170
     0
171
     0
290
     0
174
     0
 93
       13
 44
0.0
173
     0
291
     0
 45
0.0
1001
ACAD
1000
AcDbSavedByObjectVersion
1070
     0
  0
VISUALSTYLE
  5
1F3
102
{ACAD_XDICTIONARY
360
2C838
102
}
102
{ACAD_REACTORS
330
EF
102
}
330
EF
100
AcDbVisualStyle
  2
Shaded
 70
    27
 71
     2
 72
     2
 73
     1
 90
        2
 40
-0.6
 41
30.0
 62
     5
 63
     7
 74
     0
 91
        4
 64
     7
 65
   257
 75
     1
175
     1
 42
1.0
 92
        8
 66
   257
 43
1.0
 76
     1
 77
     6
 78
     2
 67
     8
 79
     3
170
     0
171
     0
290
     0
174
     0
 93
        5
 44
0.0
173
     0
291
     0
 45
0.0
1001
ACAD
1000
AcDbSavedByObjectVersion
1070
     0
  0
VISUALSTYLE
  5
1F2
102
{ACAD_XDICTIONARY
360
2C836
102
}
102
{ACAD_REACTORS
330
EF
102
}
330
EF
100
AcDbVisualStyle
  2
Shaded with edges
 70
    26
 71
     2
 72
     2
 73
     1
 90
        2
 40
-0.6
 41
30.0
 62
     5
 63
     7
 74
     1
 91
        2
 64
     7
 65
   257
 75
     2
175
     1
 42
1.0
 92
        8
 66
   257
 43
1.0
 76
     1
 77
     6
 78
     2
 67
     7
 79
     3
170
     0
171
     0
290
     0
174
     0
 93
        5
 44
0.0
173
     0
291
     0
 45
0.0
1001
ACAD
1000
AcDbSavedByObjectVersion
1070
     0
  0
VISUALSTYLE
  5
1EF
102
{ACAD_XDICTIONARY
360
2C830
102
}
102
{ACAD_REACTORS
330
EF
102
}
330
EF
100
AcDbVisualStyle
  2
Shades of Gray
 70
    23
 71
     2
 72
     2
 73
     3
 90
        0
 40
-0.6
 41
-30.0
 62
     5
 63
     7
 74
     2
 91
        2
 64
     7
 65
     7
 75
     1
175
     1
 42
40.0
 92
        8
 66
     7
 43
1.0
 76
     1
 77
     6
 78
     2
 67
     7
 79
     3
170
     0
171
     0
290
     0
174
     0
 93
        1
 44
0.0
173
     0
291
     0
 45
0.0
1001
ACAD
1000
AcDbSavedByObjectVersion
1070
     0
  0
VISUALSTYLE
  5
1F0
102
{ACAD_XDICTIONARY
360
2C832
102
}
102
{ACAD_REACTORS
330
EF
102
}
330
EF
100
AcDbVisualStyle
  2
Sketchy
 70
    24
 71
     1
 72
     2
 73
     2
 90
        0
 40
-0.6
 41
-30.0
 62
     5
 63
     7
 74
     2
 91
        2
 64
     7
 65
     7
 75
     1
175
     1
 42
40.0
 92
       11
 66
     7
 43
1.0
 76
     1
 77
     6
 78
     2
 67
     7
 79
     6
170
     0
171
     0
290
     0
174
     0
 93
        1
 44
0.0
173
     0
291
     0
 45
0.0
1001
ACAD
1000
AcDbSavedByObjectVersion
1070
     0
  0
VISUALSTYLE
  5
FC
102
{ACAD_XDICTIONARY
360
2C820
102
}
102
{ACAD_REACTORS
330
EF
102
}
330
EF
100
AcDbVisualStyle
  2
Thicken
 70
    13
 71
     2
 72
     2
 73
     1
 90
        0
 40
-0.6
 41
-30.0
 62
     5
 63
     7
 74
     1
 91
        4
 64
     7
 65
   257
 75
     1
175
     1
 42
1.0
 92
       12
 66
     7
 43
1.0
 76
     1
 77
     6
 78
     2
 67
     7
 79
     5
170
     0
171
     0
290
     0
174
     0
 93
        1
 44
0.0
173
     0
291
     1
 45
0.0
1001
ACAD
1000
AcDbSavedByObjectVersion
1070
     0
  0
VISUALSTYLE
  5
F6
102
{ACAD_XDICTIONARY
360
2C814
102
}
102
{ACAD_REACTORS
330
EF
102
}
330
EF
100
AcDbVisualStyle
  2
Wireframe
 70
     5
 71
     0
 72
     2
 73
     0
 90
        0
 40
-0.6
 41
-30.0
 62
     5
 63
     7
 74
     1
 91
        4
 64
     7
 65
   257
 75
     1
175
     1
 42
1.0
 92
        0
 66
   257
 43
1.0
 76
     1
 77
     6
 78
     2
 67
     7
 79
     3
170
     0
171
     0
290
     0
174
     0
 93
        1
 44
0.0
173
     0
291
     0
 45
0.0
1001
ACAD
1000
AcDbSavedByObjectVersion
1070
     0
  0
VISUALSTYLE
  5
1F1
102
{ACAD_XDICTIONARY
360
2C834
102
}
102
{ACAD_REACTORS
330
EF
102
}
330
EF
100
AcDbVisualStyle
  2
X-Ray
 70
    25
 71
     2
 72
     2
 73
     1
 90
        1
 40
0.5
 41
-30.0
 62
     5
 63
     7
 74
     1
 91
        0
 64
     7
 65
   257
 75
     1
175
     1
 42
1.0
 92
        8
 66
     7
 43
1.0
 76
     1
 77
     6
 78
     2
 67
     7
 79
     3
170
     0
171
     0
290
     0
174
     0
 93
       13
 44
0.0
173
     0
291
     0
 45
0.0
1001
ACAD
1000
AcDbSavedByObjectVersion
1070
     0
  0
DICTIONARYVAR
  5
146
102
{ACAD_REACTORS
330
5E
102
}
330
5E
100
DictionaryVariables
280
     0
  1
1:1
  0
DICTIONARYVAR
  5
259
102
{ACAD_REACTORS
330
5E
102
}
330
5E
100
DictionaryVariables
280
     0
  1
3.500000
  0
DICTIONARYVAR
  5
25A
102
{ACAD_REACTORS
330
5E
102
}
330
5E
100
DictionaryVariables
280
     0
  1
acadiso.lin
  0
DICTIONARYVAR
  5
145
102
{ACAD_REACTORS
330
5E
102
}
330
5E
100
DictionaryVariables
280
     0
  1
STANDARD
  0
DICTIONARYVAR
  5
84
102
{ACAD_REACTORS
330
5E
102
}
330
5E
100
DictionaryVariables
280
     0
  1
STANDARD
  0
DICTIONARYVAR
  5
227
102
{ACAD_REACTORS
330
5E
102
}
330
5E
100
DictionaryVariables
280
     0
  1
Metric50
  0
DICTIONARYVAR
  5
228
102
{ACAD_REACTORS
330
5E
102
}
330
5E
100
DictionaryVariables
280
     0
  1
Metric50
  0
DICTIONARYVAR
  5
5F
102
{ACAD_REACTORS
330
5E
102
}
330
5E
100
DictionaryVariables
280
     0
  1
2
  0
DICTIONARYVAR
  5
63
102
{ACAD_REACTORS
330
5E
102
}
330
5E
100
DictionaryVariables
280
     0
  1
1
  0
DICTIONARYVAR
  5
2C7A9
102
{ACAD_REACTORS
330
5E
102
}
330
5E
100
DictionaryVariables
280
     0
  1
0
  0
DICTIONARYVAR
  5
1AE
102
{ACAD_REACTORS
330
5E
102
}
330
5E
100
DictionaryVariables
280
     0
  1
0
  0
DICTIONARYVAR
  5
1AF
102
{ACAD_REACTORS
330
5E
102
}
330
5E
100
DictionaryVariables
280
     0
  1
0
  0
DICTIONARYVAR
  5
2C7A7
102
{ACAD_REACTORS
330
5E
102
}
330
5E
100
DictionaryVariables
280
     0
  1
2
  0
DICTIONARYVAR
  5
2C7A6
102
{ACAD_REACTORS
330
5E
102
}
330
5E
100
DictionaryVariables
280
     0
  1
1
  0
DICTIONARYVAR
  5
2C7F9
102
{ACAD_REACTORS
330
5E
102
}
330
5E
100
DictionaryVariables
280
     0
  1
80.000000
  0
DICTIONARYVAR
  5
2C7F8
102
{ACAD_REACTORS
330
5E
102
}
330
5E
100
DictionaryVariables
280
     0
  1
5.000000
  0
DICTIONARYVAR
  5
2C7A8
102
{ACAD_REACTORS
330
5E
102
}
330
5E
100
DictionaryVariables
280
     0
  1
127
  0
DICTIONARYVAR
  5
2C7FA
102
{ACAD_REACTORS
330
5E
102
}
330
5E
100
DictionaryVariables
280
     0
  1
2
  0
DICTIONARY
  5
2C83C
330
21C
100
AcDbDictionary
280
     1
281
     1
  3
ACAD_XREC_ROUNDTRIP
360
2C83D
  0
DICTIONARY
  5
2C801
330
D3
100
AcDbDictionary
280
     1
281
     1
  3
ACAD_XREC_ROUNDTRIP
360
2C802
  0
DICTIONARY
  5
2C803
330
D7
100
AcDbDictionary
280
     1
281
     1
  3
ACAD_XREC_ROUNDTRIP
360
2C804
  0
DICTIONARY
  5
2C7FE
330
22
100
AcDbDictionary
280
     1
281
     1
  3
ACAD_XREC_ROUNDTRIP
360
2C7FF
  0
DICTIONARY
  5
1F9
330
ED
100
AcDbDictionary
280
     1
281
     1
  3
ACAD_XREC_ROUNDTRIP
360
2C806
  3
FBXASSET
360
1FA
  0
DICTIONARY
  5
1F7
330
EC
100
AcDbDictionary
280
     1
281
     1
  3
ACAD_XREC_ROUNDTRIP
360
2C805
  3
FBXASSET
360
1F8
  0
DICTIONARY
  5
173
330
EE
100
AcDbDictionary
280
     1
281
     1
  3
ACAD_XREC_ROUNDTRIP
360
2C807
  3
BUMPTILE
360
175
  3
DIFFUSETILE
360
174
  3
FBXASSET
360
1FB
  3
OPACITYTILE
360
176
  3
REFLECTIONTILE
360
177
  0
DICTIONARY
  5
2C828
330
12E
100
AcDbDictionary
280
     1
281
     1
  3
ACAD_XREC_ROUNDTRIP
360
2C829
  0
DICTIONARY
  5
2C83A
330
21A
100
AcDbDictionary
280
     1
281
     1
  3
ACAD_XREC_ROUNDTRIP
360
2C83B
  0
DICTIONARY
  5
162
330
7F
100
AcDbDictionary
280
     1
281
     1
  3
ACAD_ROUNDTRIP_2008_TABLESTYLE_CELLSTYLEMAP
360
2C7FB
  3
ACAD_XREC_ROUNDTRIP
360
2C800
  0
DICTIONARY
  5
2C812
330
F5
100
AcDbDictionary
280
     1
281
     1
  3
ACAD_XREC_ROUNDTRIP
360
2C813
  0
DICTIONARY
  5
2C810
330
F4
100
AcDbDictionary
280
     1
281
     1
  3
ACAD_XREC_ROUNDTRIP
360
2C811
  0
DICTIONARY
  5
2C81E
330
FB
100
AcDbDictionary
280
     1
281
     1
  3
ACAD_XREC_ROUNDTRIP
360
2C81F
  0
DICTIONARY
  5
2C826
330
FF
100
AcDbDictionary
280
     1
281
     1
  3
ACAD_XREC_ROUNDTRIP
360
2C827
  0
DICTIONARY
  5
2C818
330
F8
100
AcDbDictionary
280
     1
281
     1
  3
ACAD_XREC_ROUNDTRIP
360
2C819
  0
DICTIONARY
  5
2C81C
330
FA
100
AcDbDictionary
280
     1
281
     1
  3
ACAD_XREC_ROUNDTRIP
360
2C81D
  0
DICTIONARY
  5
2C82E
330
1E6
100
AcDbDictionary
280
     1
281
     1
  3
ACAD_XREC_ROUNDTRIP
360
2C82F
  0
DICTIONARY
  5
2C824
330
FE
100
AcDbDictionary
280
     1
281
     1
  3
ACAD_XREC_ROUNDTRIP
360
2C825
  0
DICTIONARY
  5
2C808
330
F0
100
AcDbDictionary
280
     1
281
     1
  3
ACAD_XREC_ROUNDTRIP
360
2C809
  0
DICTIONARY
  5
2C80A
330
F1
100
AcDbDictionary
280
     1
281
     1
  3
ACAD_XREC_ROUNDTRIP
360
2C80B
  0
DICTIONARY
  5
2C80C
330
F2
100
AcDbDictionary
280
     1
281
     1
  3
ACAD_XREC_ROUNDTRIP
360
2C80D
  0
DICTIONARY
  5
2C80E
330
F3
100
AcDbDictionary
280
     1
281
     1
  3
ACAD_XREC_ROUNDTRIP
360
2C80F
  0
DICTIONARY
  5
2C816
330
F7
100
AcDbDictionary
280
     1
281
     1
  3
ACAD_XREC_ROUNDTRIP
360
2C817
  0
DICTIONARY
  5
2C82A
330
1E4
100
AcDbDictionary
280
     1
281
     1
  3
ACAD_XREC_ROUNDTRIP
360
2C82B
  0
DICTIONARY
  5
2C822
330
FD
100
AcDbDictionary
280
     1
281
     1
  3
ACAD_XREC_ROUNDTRIP
360
2C823
  0
DICTIONARY
  5
2C82C
330
1E5
100
AcDbDictionary
280
     1
281
     1
  3
ACAD_XREC_ROUNDTRIP
360
2C82D
  0
DICTIONARY
  5
2C81A
330
F9
100
AcDbDictionary
280
     1
281
     1
  3
ACAD_XREC_ROUNDTRIP
360
2C81B
  0
DICTIONARY
  5
2C838
330
1F3
100
AcDbDictionary
280
     1
281
     1
  3
ACAD_XREC_ROUNDTRIP
360
2C839
  0
DICTIONARY
  5
2C836
330
1F2
100
AcDbDictionary
280
     1
281
     1
  3
ACAD_XREC_ROUNDTRIP
360
2C837
  0
DICTIONARY
  5
2C830
330
1EF
100
AcDbDictionary
280
     1
281
     1
  3
ACAD_XREC_ROUNDTRIP
360
2C831
  0
DICTIONARY
  5
2C832
330
1F0
100
AcDbDictionary
280
     1
281
     1
  3
ACAD_XREC_ROUNDTRIP
360
2C833
  0
DICTIONARY
  5
2C820
330
FC
100
AcDbDictionary
280
     1
281
     1
  3
ACAD_XREC_ROUNDTRIP
360
2C821
  0
DICTIONARY
  5
2C814
330
F6
100
AcDbDictionary
280
     1
281
     1
  3
ACAD_XREC_ROUNDTRIP
360
2C815
  0
DICTIONARY
  5
2C834
330
1F1
100
AcDbDictionary
280
     1
281
     1
  3
ACAD_XREC_ROUNDTRIP
360
2C835
  0
XRECORD
  5
2C83D
102
{ACAD_REACTORS
330
2C83C
102
}
330
2C83C
100
AcDbXrecord
280
     1
102
DISPLAYNAME
  1
Metric50
102
FLAGS
 90
        0
  0
XRECORD
  5
2C802
102
{ACAD_REACTORS
330
2C801
102
}
330
2C801
100
AcDbXrecord
280
     1
102
SHADEPLOT
 70
     0
102
SHADEPLOTRESLEVEL
 70
     2
102
SHADEPLOTCUSTOMDPI
 70
   300
  0
XRECORD
  5
2C804
102
{ACAD_REACTORS
330
2C803
102
}
330
2C803
100
AcDbXrecord
280
     1
102
SHADEPLOT
 70
     0
102
SHADEPLOTRESLEVEL
 70
     2
102
SHADEPLOTCUSTOMDPI
 70
   300
  0
XRECORD
  5
2C7FF
102
{ACAD_REACTORS
330
2C7FE
102
}
330
2C7FE
100
AcDbXrecord
280
     1
102
SHADEPLOT
 70
     0
102
SHADEPLOTRESLEVEL
 70
     2
102
SHADEPLOTCUSTOMDPI
 70
   300
  0
XRECORD
  5
2C806
102
{ACAD_REACTORS
330
1F9
102
}
330
1F9
100
AcDbXrecord
280
     1
102
MATERIAL
148
0.0
149
0.0
149
0.0
 93
        0
 94
       63
282
     0
 72
     1
 77
     1
171
     1
175
     1
179
     1
273
     0
  0
XRECORD
  5
1FA
102
{ACAD_REACTORS
330
1F9
102
}
330
1F9
100
AcDbXrecord
280
     1
 70
     1
 90
429727718
  1
D62C5603-E3A1-4AEA-B7FB-FE5D8D0755AF
310
504B03040A0000080000CC70623B3DEE336E79000000790000001B0000006175746F6465736B2D64657369676E2D7061636B6167652E786D6C3C3F786D6C2076657273696F6E3D22312E302220656E636F64696E673D227574662D3822203F3E3C666F726D6174733E3C666F726D61743E687474703A2F2F736368656D612E
310
6175746F6465736B2E636F6D2F64657369676E2D7061636B6167652F323030393C2F666F726D61743E3C2F666F726D6174733E504B0304140006080800CC70623BD486FD9CA0000000F4000000130000005B436F6E74656E745F54797065735D2E786D6C7D8EC10E82300C865F65E91D8A1E8C310C0EEA1BF002731658846E
310
D98AC1B77784ABF1D8FE5FBFBF75BBCE937A534CCEB38643598122B6FEE978D0B0485F9C41B54DDD7D022595594E1A469170414C76A4D9A4D207E29CF43ECE46F218070CC6BECC4078ACAA135ACF422C856C0E68EA1BF5669944DDD7BCDE7B1F8E415D77AECB980613C2E4AC91FC167A2B244592486606FC29C8FD7F045B9A
310
EF7053A7E60B504B0304140006080800CC70623B853B8169EB0000007C01000008000000636F72652E786D6C8D90416EC3201045AF62CDB6C206821CC7C244919D9CA01740401C94182C03558F5F9C3852BBEB6A467FFE9B197D7EFC9E1EC5975982F5AE035262288C535E5B377690E21535501C055FBC8FBF6C503839990E
310
5619041F179FE64D52DE45E362569DD7661365082642A11EB9E920A89B99642953CC8E702F67A9EE7234257977194EC9EAE275C4EABCCF5EAD5940D4AC6F0E35A568B8F43562CD7046CD199FD07E60174276A7BE677B5EADB0E0D14EEFFB6A31321A0D82627C4084204C3F096B71DD52F6819B16635EADF63F509AF53FA164
310
5DDCD1EDDD17164090FCC8732078B56691CB33A85CD7DCC40F504B0304140006080800CC70623B55019EA25F0000007C00000007000000636E782E786D6C4DCB3B0E80201045D1AD90E915ED2CF8AC45050C11660C8261F98AB1B07AC9C97D42D718D865D3E909258CFD00CCE24AC6E326A164D74DC0B4128928FF32603847
310
2BA13128B1252AC747C6BAB984FC68F0B87FE8960A5C09FE86CFB69FBA01504B0304140006080800CC70623BDBABAAF470010000D40300000C0000006662782F636F72652E786D6CC553D16E823014FD95A6AF4B694182CC941A83FA05FB810A9511A125A5257EFE2E82712ECEB8A7F100CD39F7F69E734AF9FADC366850B6
310
AF8DCE7018308C942E4C59EB2AC3DE1D498AD15A706B8CFB56869196ADCAF00863C12B6B7C374385D14E6907A836A59A41D9F7CA615434B0C8705F7CAA5606D23BA8E84F41278B93AC54100640439DE0BDB320004D43C63716C7C399D30917DCFBBA9CD9BA8469F5B156168B24CED3F7248AC8769F27244EB73B92EED8862C
310
B7F13E0C179B3C8F979C8ECD82BBBABDAA2BAC924E9558448CBD9330242CFA08E3154B5651FCC6D215639C8EE5774DBE2B5F6CF2B5768B68963BB5F5588420E442FC700B1139D4CB01F450C1E918227C2E09DF070D8140C84E1E9AAB8F1340832A9CB13130A5F1376A908D57309505ECF2A0DF179C4E9D30F5B239B87E3823
310
7A79C6F31DE1A8A5AEC08474B03C7837EAE4938639B44E5932B833D2C6B6B279CDC613877FA26EE21F4A2A4C63EC7F29A2F301D1F9F7A0E37D145F504B0304140006080800CC70623B9C113CC27E0000009D0000000B0000006662782F636E782E786D6C4DCCDF0A83201C86E15B91DFB94BFB330DD428C8FB886521330DA7
310
6397BF1A1DECE883878F57749FCDA1B7892F1BBC047A23808C7F84D9FA55424E0BE6803A256208E9EF06C84F9B91703228B1C690F78B66B34CD9A5439DF5CF0BFBF65E35BCA1B8D6A5C6F540381E886698B5741C695F9503EBA150A2F8958E3DC3EA0B504B0304140006080800CC70623B7DF2F77C2A010000120200003100
310
00006662782F41393633353835312D344632462D344230382D423046372D3739314545314133324237412F636F72652E786D6C8D51DB8EC22014FC15C2939B0D2DB4B45643319AE817EC0F6041255A68B86CFCFC856D4D76DF7CE190393373060EDB3DC707F856CE6B6B7A480A0C81328395DA5C7B18C3057510EC3873D686
310
3F34088C18550F330C39BB3A1BA7051AAC09CA84841A2BD5020AEF55806078A44B0FFD7053A328440C89E1EFC52486BBB8AA8214A99D789CF9E05200300FC927E4FB4D5B375D43103D5527440FB843077C5AA3F5861C8F645F5787F59E95B390B318B55CE45AA638FAA2957BD7248B390B7A7CC51F9C124149C82B8C378810
310
84AB2F42B7B8DD56F413775B8C5999E9FF4471926F8AA236A1AE96B8B3CC434E5839373893369E1FAF30EA395917409EB7F26AF8801C171837A4A6AC9C89E9F9C9B1A58BA30FD6A5EF5DDDCF894B9AD9B6A59C957943A9FCAE2FD5BC4DFE03504B0304140006080800CC70623BAD7543B64E01000033030000300000006662
310
782F41393633353835312D344632462D344230382D423046372D3739314545314133324237412F636E782E786D6CD593CD6EC32010845F0571AD6CE3D48AD20813A9873E410FBD12D82434182C7EAAE6EDBB2424CD25871E7B41D6EC30B3FA84F9E67BB2E40B4234DE8DB46F1925E094D7C6ED479AD3AE5951B2113C789FEE
310
6C943839C1488B4C05DF079FE72A69D8C96C13AAD6B8631503449F83828872B949AC57D26200B826A308D316B4064D6E46FCDA41C05550DC9E483A00797BFD207EFB092A45DE9514C1BBD22178396BD39D891265658C238DEA00936C654E5E433CB65A26D9F6EDB5EBC14EBF49A45CB856E66048291F6939A9A81BB5C89177
310
38143CA680F4AA299D66A042CEB3354A2684DC9D8D178FE0D9B8B41CAAD720F880EE7EF93C0C18769E099ECC04D5A102C8049A8A05632F4DDF376CF1DE0F6BB65C2F8627B65A33C6BB62177CEBBDAD973006829F89F22E814B54F4BC2BE347F8AA8F681390B50FA73F804400B5F542E796F19FF974E7F78DB802FE05E20750
310
4B0304140006080800CC70623BE75B7789680500003C100000340000006662782F41393633353835312D344632462D344230382D423046372D3739314545314133324237412F6F626A656374732E786D6CAD575B8F9B3818FD2B887D06C22499CB8AA1CA655245D5B455A356FB305264C061D8018C6C3393D95FBFC7600890
310
A4CD5EF210B0B1BFEBF98E3F7B1FF6596ABC522E1296DF9BAE3D320D9A872C4AF2F8DE2CE5CEBA358D0FBEC719939D65A691938CDE9B6ADAF4BD98B3B2D05311DD91329583D9D5FC0F438434A7A611A644887B5384CF34233629258BA878B12322891DEFF6B66BD70BFB62634E8AE781D082709A4B588AF91C528CDA28B73F
310
1C998EEF39EABBEFA97FBD6A7C7E9553F9D3D79FE442923C3C523610337627CB87ABE99D359D4CC6D6E4FACAB5E6ABF9D2726FC6A3C5F56271377BB88362213924694B38DD99FE47C48627A1E7D49F5A8BB5E1A74C0A599ED3B0F21F1E56366B89112D681E218F0915D0D6F17AD41FBA2A369DCF6335D62ABBD39779D5DDD1
310
11D4D8DE3CBB96B2E04FB8202E41051754A1AA8E8F76B4C6DFE810B580B1547F4B84911149794252234D024EF8BBE963A95AE27B3D310A9D5C215C7960FAEE415ED75694C6AFB17BCACA5D99A60A9AA65F217B0BFC53292ACB92BF283FAD0D3621576592CB5BED907C2FA8E9DF794E35E97BEA31BED21FEB401ABB94C44839
310
DCACBF0E1C5DA8DA5B2F4DFFD32AD86F543D9E565E7056502E157C00AD2671CD534549AB752FCA9CDA00677A313F04E51B22FF19E57B300579E3C97EB29F682D92935CEC18CF901B7B54FD8C51F362B56FC72FE0B3C1EAE335EDCCBF5AEC39ADB17DC238973F804BA5E6F6BFE7AF1FB32E523BE9F3BD571418E3631DCA4D48
310
5250CF639223210A9446CA30052EDF057BD35F8329C1ECD84552BF0DC8D18BE7BCE23BFE6BD960AB4A7DE79923A103BEBD80F911CBAA2C60DB19B01CF164A5583B772EE6D3FFA56666CBCDA74DC97724A48F9A58967497E489C4D979006FD7A05E227A1EBDD0F737C623387A9C844D3709995625106D157315F8B8392CD4E0
310
A0B9A720C4BE9829CEF37EA1E13111214D53925356365ADA634861B52519DD27A00AEB808EAF0628E6F435519D446F45CF2C9CF5214F0A15B2F6D06B79DA3EE3CBF7F56780D2F4E7EF73A0F5E5B02A38D07DC852C6B7C1FBB6664213E0C39E3EBA7FF4E1AD23EA2829407C85E586727488B751B2DB9502BC7B228A3FD68B6E
310
A65A22397E690AA8D158D7E404EC8CDA235CC3B7D1898680131CEC2CDF2638C65196279577750F15884AEE19F94199155B92B13297978469D4F8D358DF0AEF7631E28DC8F0D9F437D5D39A83B2231A1D52D543813A824EF8D44BCFF2FA6A31BD1E8DAD87F1CCB526B3879935BF59CDADD5C37479BB1CDD4CA7B3556B516589
310
EF352754B706114D9C885EC9131DE6EFEB43D99AFE2391C2F958179413D7CFEF6B1B6DB1E7600F00DE6E5C67454A339A4BA2E0FBA85ED26F045D454F463DBFCE484C2F90F2E5E3666003662ED8F755951A7D1BECD5B30B550B2785C8E7320B7292A4838DDA71BBC863ED7613CAF659337A3354231D4FF4A182A54904C2898C
310
98B28C4AD0CE056CCF332A80986E571EE9DBC305BB5FEB7E509220A58D25CF042D712A806AC0AD0C657FDEF80D2D9CEAA2EE4D1C76F60BFE74219A06527D6F82DF6412526107381E55E353090704D085B52408A8913C4ED159D79BDA71BB4BC506F4831350EB6F975CD22D69BF7AC49B91A2C0A9DDA3D5CA36AD20FC478E37
310
E61844E2352865EBCB61A275A65283CAAA9DD27703B4102F5AF51EF5F573B75CBB5AD38BC845F7A49F82A0966A49C2E3EA5EA0ECD326CD965F1DB402C6FA8B51A4658C5C5E2EC9E214602E55810345408596591009A82E7E7FFACA19EEA299B14A0081A705CB3296EBC14CDF658DCD336EA6D1136881AAEB87B81AB9EE53D5
310
F5EB8BC8362082DA24122F98680A4E7930C01A0079749CEA14382A0783E5EBA5A10F8C098456A03D6A4AEB6BB881E2513747552A5DB22C7EDAF83BD5528081A365F7FF06504B0304140006080000CC70623B000000000000000000000000350000006662782F41393633353835312D344632462D344230382D423046372D37
310
39314545314133324237412F76657274696365732E62696E504B0304140006080800CC70623BF270F1330600000004000000360000006662782F41393633353835312D344632462D344230382D423046372D3739314545314133324237412F747269616E676C65732E62696E636660600000504B0304140006080000CC7062
310
3B000000000000000000000000370000006662782F41393633353835312D344632462D344230382D423046372D3739314545314133324237412F617474726962757465732E62696E504B0304140006080800CC70623B08DA0BD19000000041010000360000006662782F41393633353835312D344632462D344230382D4230
310
46372D3739314545314133324237412F6469726563746F72792E786D6C858F410AC3201045AF22B36F53E9A60B35CBEEBAE80D244E44489C6234F4F835464A48035D0DF398FF9F8AF63D0E6CC63039F212F8F9020C7D47C6792B21C5FE7403D62A1188E2E60C98D7234A5830286103A55745067B9D86B8A3CF9C7F90C11DE6
310
07FB144396D7B6A82D282E9A152AD114D5EF2CB866EEE831B8EEA07A7BB5A8D7D61A2BAAEB7FD5F70921FF497D00504B0304140006080800CC70623BEDD1DC58FD000000A00100003B0000006662782F41393633353835312D344632462D344230382D423046372D3739314545314133324237412F7265736F75726365732F
310
636F72652E786D6C8D504B6E833010BD0A9A6D65B00922041947112427E8052C33A156828DFCA97AFC9A40A576D7CDCCE87D344F8F9FBFE667F689CE6B6B3A6039850C8DB2A336530731DC4903D95970676DF82583CCC8193B5861107C72362E3BA4AC096842428D1D7107A5F7182053CF7474E0D507CE32973124857FE48B
310
540F3961CEF244279DE03EB81420DB9EAC1384436FA353E879B1B182C7A8C75DA3C7F453DF353A1075D537A7BA6464B8F535A99AE14A9A2BBD90E350DD183B5CFABE3AF262350B1EF4FC9351399401471025A527C218A1E53BAB5A5AB765F5469B96525EACF23FA6B88CFF34456DC2A1DCE36E360F82A5202F42F062ED2BAD
310
579969AFDD8A6F504B010214000A0000080000CC70623B3DEE336E79000000790000001B00000000000000000000000000000000006175746F6465736B2D64657369676E2D7061636B6167652E786D6C504B01021400140006080800CC70623BD486FD9CA0000000F40000001300000000000000000000000000B20000005B
310
436F6E74656E745F54797065735D2E786D6C504B01021400140006080800CC70623B853B8169EB0000007C010000080000000000000000000000000083010000636F72652E786D6C504B01021400140006080800CC70623B55019EA25F0000007C000000070000000000000000000000000094020000636E782E786D6C504B
310
01021400140006080800CC70623BDBABAAF470010000D40300000C00000000000000000000000000180300006662782F636F72652E786D6C504B01021400140006080800CC70623B9C113CC27E0000009D0000000B00000000000000000000000000B20400006662782F636E782E786D6C504B01021400140006080800CC70
310
623B7DF2F77C2A010000120200003100000000000000000000000000590500006662782F41393633353835312D344632462D344230382D423046372D3739314545314133324237412F636F72652E786D6C504B01021400140006080800CC70623BAD7543B64E010000330300003000000000000000000000000000D2060000
310
6662782F41393633353835312D344632462D344230382D423046372D3739314545314133324237412F636E782E786D6C504B01021400140006080800CC70623BE75B7789680500003C10000034000000000000000000000000006E0800006662782F41393633353835312D344632462D344230382D423046372D3739314545
310
314133324237412F6F626A656374732E786D6C504B01021400140006080000CC70623B0000000000000000000000003500000000000000000000000000280E00006662782F41393633353835312D344632462D344230382D423046372D3739314545314133324237412F76657274696365732E62696E504B01021400140006
310
080800CC70623BF270F133060000000400000036000000000000000000000000007B0E00006662782F41393633353835312D344632462D344230382D423046372D3739314545314133324237412F747269616E676C65732E62696E504B01021400140006080000CC70623B0000000000000000000000003700000000000000
310
000000000000D50E00006662782F41393633353835312D344632462D344230382D423046372D3739314545314133324237412F617474726962757465732E62696E504B01021400140006080800CC70623B08DA0BD1900000004101000036000000000000000000000000002A0F00006662782F41393633353835312D344632
310
462D344230382D423046372D3739314545314133324237412F6469726563746F72792E786D6C504B01021400140006080800CC70623BEDD1DC58FD000000A00100003B000000000000000000000000000E1000006662782F41393633353835312D344632462D344230382D423046372D3739314545314133324237412F7265
310
736F75726365732F636F72652E786D6C504B0506000000000E000E0080040000641100000000
  0
XRECORD
  5
2C805
102
{ACAD_REACTORS
330
1F7
102
}
330
1F7
100
AcDbXrecord
280
     1
102
MATERIAL
148
0.0
149
0.0
149
0.0
 93
        0
 94
       63
282
     0
 72
     1
 77
     1
171
     1
175
     1
179
     1
273
     0
  0
XRECORD
  5
1F8
102
{ACAD_REACTORS
330
1F7
102
}
330
1F7
100
AcDbXrecord
280
     1
 70
     1
 90
429727718
  1
30362254-06B7-45E0-A893-8CFA70E3D6BC
310
504B03040A0000080000CC70623B3DEE336E79000000790000001B0000006175746F6465736B2D64657369676E2D7061636B6167652E786D6C3C3F786D6C2076657273696F6E3D22312E302220656E636F64696E673D227574662D3822203F3E3C666F726D6174733E3C666F726D61743E687474703A2F2F736368656D612E
310
6175746F6465736B2E636F6D2F64657369676E2D7061636B6167652F323030393C2F666F726D61743E3C2F666F726D6174733E504B0304140006080800CC70623BD486FD9CA0000000F4000000130000005B436F6E74656E745F54797065735D2E786D6C7D8EC10E82300C865F65E91D8A1E8C310C0EEA1BF002731658846E
310
D98AC1B77784ABF1D8FE5FBFBF75BBCE937A534CCEB38643598122B6FEE978D0B0485F9C41B54DDD7D022595594E1A469170414C76A4D9A4D207E29CF43ECE46F218070CC6BECC4078ACAA135ACF422C856C0E68EA1BF5669944DDD7BCDE7B1F8E415D77AECB980613C2E4AC91FC167A2B244592486606FC29C8FD7F045B9A
310
EF7053A7E60B504B0304140006080800CC70623B1EC5D7A3EB0000007C01000008000000636F72652E786D6C8D90416EC3201045AF82665B6103C6756C6122AB4D4ED00B204C5C94182C03558F5F9C3852BBEB6A467FFE9B197D71FC9E6FE8CBACC17AD7032D0820E3B41FAD9B7A48F1820F808E52ACDEC75F36404ECDA687
310
4D0629A6D5A76597B477D1B89855E747B38B2A041301E95B6E7A08FAD3CCAA50296647B8168BD2573599823EBB0CA76447F43862C7BCCF5EAC59410E4DDD9C7973C2755553CCCFA4C603E3040F1565ED3B1FDE4E432BCA0D9622DAF9795FAF464533826484B498524CD807E51D79ED187F21878E10516EF63F505AC67F42C9
310
BA58B1FDDD071640D2FCC87D2045B96591CB3DA85CB7DCE40F504B0304140006080800CC70623B55019EA25F0000007C00000007000000636E782E786D6C4DCB3B0E80201045D1AD90E915ED2CF8AC45050C11660C8261F98AB1B07AC9C97D42D718D865D3E909258CFD00CCE24AC6E326A164D74DC0B4128928FF32603847
310
2BA13128B1252AC747C6BAB984FC68F0B87FE8960A5C09FE86CFB69FBA01504B0304140006080800CC70623B8C9102E971010000D40300000C0000006662782F636F72652E786D6CC5535B6E833010BC8AE5DF0A6C08340F1947A84D4ED00B38C6A128602363A31CBFCB234A53A551FA553EC09AD9F5CE8C31DB9E9B1AF5CA
310
7695D1198E428A91D2D214952E33ECDD315861B4E5CC1AE3BE9561A445A3323CC098B3D21ADFCE9034DA29ED00D5A6503328BA4E398C640D8B0C77F253352214DE4145770A5B214FA2546114020D759C75CE8200340D19DE981F0F6746269C33EFAB6266AB02A655C74A59CCF365BADC27CB5D902ED22848F6340DF238A141
310
BE88E2F57B92BFEDF23523433367AE6A2EEAA455C2A902F398D2751045018D3FA264435F3771F242571B4A1919CA6F9A7C5B3CD9E42BED16F12C776AEB308F40C848FC700B1139D4891EF410CEC810227CC6846F8386402064270EF5C5C709A05E49676C024C61FC95EA45ED154CA5211D1FF4FB8291A913A68E9B83EBBB33
310
E2A7673CDE118E5AE8124C0807CB8377834E366998436B950D7A7746DAD846D4CFD978E0F04FD455FC5D49D2D4C6FE9722321F10997F0F32DC47FE05504B0304140006080800CC70623BFFEA85907E0000009D0000000B0000006662782F636E782E786D6C4DCCD10A83201886E15B91FFDC95D95A811AB6F23E625948A6C3
310
E9D8E5AF46073BFAE0E1E365ED67B3E8ADC3CB78C7815C7240DA3DFC64DCC221C519D7805AC182F7F1EF06C88D9BE6703008B6049F9E274D7A1E938DBB5AE3D6131B2589BA0D3D965551E0B2EA732C9B9A624AAEB41E3A557677029960D9AFB4EF11165F504B0304140006080800CC70623B4FEEA4082C0100001202000031
310
0000006662782F39464131463745442D413632322D343644302D413938332D3331353338454246344243312F636F72652E786D6C8D515B6EC32010BC0AE2AB55850DD871ED0813254D72825EC00192A2C460F1A872FC42ED48ED5F7E00CDCECCCEB26C731F6FE05B39AFADE921293004CA082BB5B9F43086336A21D870E6AC
310
0D7F68109861543DCC30E4ECE26C9C164858139409093556AA051CBC570102714B8F1E7AF1A5C6A11862480C7F2DA6415C878B2A4891CA89C7990F2E050073937C42DE1DB7E4F87ED8A36D4329AA9B3D46DBAEAD504556557BD81DEBDD0761E52CE42C462D17B996298E3E6BE59E35C962CE821E1FF18553435012728A7187
310
0841987E927A8D9B35ADDF70BBC6989599FE4F1427F9A4286A132ABAC49D651EF234CD5CE04CDA78BA3DC2A8FB645D00B9DF8B57E215725C60BCA2A463E54C4CE327C7A65E1C7DB02E7DEFCBF594B864C5CA6CDBD49C957943E9FA5D5FBAF336F90F504B0304140006080800CC70623BAD7543B64E01000033030000300000
310
006662782F39464131463745442D413632322D343644302D413938332D3331353338454246344243312F636E782E786D6CD593CD6EC32010845F0571AD6CE3D48AD20813A9873E410FBD12D82434182C7EAAE6EDBB2424CD25871E7B41D6EC30B3FA84F9E67BB2E40B4234DE8DB46F1925E094D7C6ED479AD3AE5951B2113C
310
789FEE6C943839C1488B4C05DF079FE72A69D8C96C13AAD6B8631503449F83828872B949AC57D26200B826A308D316B4064D6E46FCDA41C05550DC9E483A00797BFD207EFB092A45DE9514C1BBD22178396BD39D891265658C238DEA00936C654E5E433CB65A26D9F6EDB5EBC14EBF49A45CB856E66048291F6939A9A81BB5
310
C8917738143CA680F4AA299D66A042CEB3354A2684DC9D8D178FE0D9B8B41CAAD720F880EE7EF93C0C18769E099ECC04D5A102C8049A8A05632F4DDF376CF1DE0F6BB65C2F8627B65A33C6BB62177CEBBDAD973006829F89F22E814B54F4BC2BE347F8AA8F681390B50FA73F804400B5F542E796F19FF974E7F78DB802FE05
310
E207504B0304140006080800CC70623B16AB87BA640500003C100000340000006662782F39464131463745442D413632322D343644302D413938332D3331353338454246344243312F6F626A656374732E786D6CAD575B6FA33818FD2B887DE6924B3BED8A326A92B68A663B534DD4D13E548A0C38942D60649B369D5FBFC7
310
600890A493BDE42160637FD7F31D7FF63E6FB3D478A55C242CBF3247B66B1A340F5994E4F19559CA8D75611A9F7D8F33263BCB4C232719BD32D5B4E97B316765A1A722BA21652A07B3B7B33F0D11D29C9A46981221AE4C113ED38CD8A4942CA2E2C58E882476BCD9DA23BB5ED8171B73523C0F841684D35CC252CCE79062D4
310
468DFA43D7747CCF51DF7D4FFDEB5593E3AB9CCA9FBEFE241792E4E19EB28198C968BAB8199F5D5A67D3E9C49A9E8F47D6EC76B6B0469F26EEFC7C3EBFBCBEB98462213924694B38DD98FE1D62C393D073EA4FADC5DAF04326852CCF6958F90F0F2B9BB5C48816348F90C7840A68EB78EDF68723159BCEE7891A6B95DDE9D3
310
BCEAEEE8086A6C6F9E5D4B59F0175C10A7A0820BAA5055C7473B5AE3CFDD452D602CD5DF12616444529E90D448938013FE6EFA58AA96F85E4F8C42275708571E98FE6827AF6B2B4AE3D7D83D64E5A64C53054DD3AF90BD06FEA9149565C94FCA0F6B834DC85599E4F2423B24DF0B6AFA979E534DFA9E7A4CC6FA631D486393
310
921829879BF5D781A373557BCB85E97FB90DB62B558F8795179C15944B051F40AB495CF35451D26A4727654E6D8033BD98EF82F21D91FF8AF2DD9982BCF1643BDD4EB516C9492E368C67C88DED563FC36D5EACF66DFF057C3658BDBFA69DF9578B3DA735B64F18C7F20770A9D45CFCF7FCF563D6456A277DBEF78A02637CA2
310
43B90A490AEAB94F72244481D24819A6C0E59B606BFA4B3025981DBB48EAB701D97BF19C577CC77F2D1B6C55A9EF3C732474C0B727303F625995056C3B02963D9EAC146BE78EC5FCEC7FA999EBC5EACBAAE41B12D27B4D2C0BBA49F244E2ECDC81B76B502F113D8F5EE8FB1BE3111CDD4FC2AA9B844CAB1288B68AB90A7CDC
310
1C166AB0D3DC5310625FCC14E779BFD0709F8890A629C9292B1B2DED31A4B0DA928CEE135085754027E3018A397D4D5427D15BD1330B677DC8934285AC3DF45A9EB68FF8F2B8FC0A509AFEECFD0FF2DE25CC6047F7214B195F07EFEB9A094D800F7BFAE8FED187B78EA8A3A400F115961BCAD1215E47C966530AF0EE8128FE
310
58CEBB996A8964FFA529A046635D9353B0336A8F700DDF46271A024E70B0B37C9DE01847591E54DED53D54202AB947E4076556AC49C6CA5C9E1226B7F1A7B1BE15DEED62C41B91E1B3E9AFAAA735036547343A925075041DF0A9979E893B391F8FCFA6967B3EFB644DCF6E5CEBFAE272625DCC6FAF3FB93793C5F90CE1EF57
310
407342756B10D1C489E8953CD1617E5CEECAD6F4EF8914CE5D5D504E5C3F1F9736DA62CFC11E00BCDDB8CC8A9466349744C1F75EBDA4DF09BA8A9E8C7A7E9991989E20E5DBDD6A6003664ED8F7A04A8DBE0DF6EAD9B9AA858342E47399053949D2C146EDB85DE4B176BB0965FBAC19BD19AA918E27FA50C1D22402E144464C
310
59462568E704B6E71915404CB72B8FF4EDE184DDAF753F284990D2C6926782963815403548A70C657FDEF80D2D9CEAA2AE4C1C76F60BFE74219A06527D6582DF6412526107381E55E353090704D085B52408D0933C4ED159D79BDA71BB4BC506F4831350EB6F979CD22D69BF7AC49B91A2C0A9DDA3D5CA36AD20FC478E37E6
310
1844E2352865EBCB6EA275A652E3836BE04EFB400BF1A2556F515F1FBB35B2AB35BD889C744FFA1004B5544B121E57F70215746DD2F5E2C1412B602CBF19455AC6C8E5E9922C4E01E65215385004546899059180EAFCF7A707CE7017CD8CDB0410789AB32C63B91E5CEBBBACB17AC6CD347A022D5075FD106377347AAABA7E
310
7D11590744509B44E205134DC1290F06580320F78E537D3D73540E06CB970B431F185308AD40BBD794D6D77003C5A36E8EAA54BA64597CD8F83BD552A080A365F7FF06504B0304140006080000CC70623B000000000000000000000000350000006662782F39464131463745442D413632322D343644302D413938332D3331
310
353338454246344243312F76657274696365732E62696E504B0304140006080800CC70623BF270F1330600000004000000360000006662782F39464131463745442D413632322D343644302D413938332D3331353338454246344243312F747269616E676C65732E62696E636660600000504B0304140006080000CC70623B
310
000000000000000000000000370000006662782F39464131463745442D413632322D343644302D413938332D3331353338454246344243312F617474726962757465732E62696E504B0304140006080800CC70623B08DA0BD19000000041010000360000006662782F39464131463745442D413632322D343644302D413938
310
332D3331353338454246344243312F6469726563746F72792E786D6C858F410AC3201045AF22B36F53E9A60B35CBEEBAE80D244E44489C6234F4F835464A48035D0DF398FF9F8AF63D0E6CC63039F212F8F9020C7D47C6792B21C5FE7403D62A1188E2E60C98D7234A5830286103A55745067B9D86B8A3CF9C7F90C11DE607
310
FB144396D7B6A82D282E9A152AD114D5EF2CB866EEE831B8EEA07A7BB5A8D7D61A2BAAEB7FD5F70921FF497D00504B0304140006080800CC70623B0D6EF93BFE000000A00100003B0000006662782F39464131463745442D413632322D343644302D413938332D3331353338454246344243312F7265736F75726365732F63
310
6F72652E786D6C8D50596E833010BD0A9ADFCA60B334011947A8694ED00B586642AC041B79A97AFC9A40A5F6AF3F33A3B7689E1E3F7DCD8FEC139DD7D6F4C0720A191A65476DA61E62B892236427C19DB5E1970C322367EC618541F0C9D9B8EC90B226A009093576C41D94DE63804C3DD2D18357379C652E63480A7FCF17A9
310
EE72C29CE5894E3AC17D702940B63D59270887DE46A7D0F36263058F518FBB468FE9A7BE6A7420864373B8D4873369AA8691FA421B3294352543C5CAF65C0F6FEF43CB8BD52C78D0F34F46E550061C419494B6843142CB0F5677F4B52BEB177AEC28E5C52AFF638ACBF84F53D42654E51E77B379102C05791282176B5F693D
310
CB4C7BED567C03504B010214000A0000080000CC70623B3DEE336E79000000790000001B00000000000000000000000000000000006175746F6465736B2D64657369676E2D7061636B6167652E786D6C504B01021400140006080800CC70623BD486FD9CA0000000F40000001300000000000000000000000000B20000005B
310
436F6E74656E745F54797065735D2E786D6C504B01021400140006080800CC70623B1EC5D7A3EB0000007C010000080000000000000000000000000083010000636F72652E786D6C504B01021400140006080800CC70623B55019EA25F0000007C000000070000000000000000000000000094020000636E782E786D6C504B
310
01021400140006080800CC70623B8C9102E971010000D40300000C00000000000000000000000000180300006662782F636F72652E786D6C504B01021400140006080800CC70623BFFEA85907E0000009D0000000B00000000000000000000000000B30400006662782F636E782E786D6C504B01021400140006080800CC70
310
623B4FEEA4082C0100001202000031000000000000000000000000005A0500006662782F39464131463745442D413632322D343644302D413938332D3331353338454246344243312F636F72652E786D6C504B01021400140006080800CC70623BAD7543B64E010000330300003000000000000000000000000000D5060000
310
6662782F39464131463745442D413632322D343644302D413938332D3331353338454246344243312F636E782E786D6C504B01021400140006080800CC70623B16AB87BA640500003C1000003400000000000000000000000000710800006662782F39464131463745442D413632322D343644302D413938332D3331353338
310
454246344243312F6F626A656374732E786D6C504B01021400140006080000CC70623B0000000000000000000000003500000000000000000000000000270E00006662782F39464131463745442D413632322D343644302D413938332D3331353338454246344243312F76657274696365732E62696E504B01021400140006
310
080800CC70623BF270F133060000000400000036000000000000000000000000007A0E00006662782F39464131463745442D413632322D343644302D413938332D3331353338454246344243312F747269616E676C65732E62696E504B01021400140006080000CC70623B0000000000000000000000003700000000000000
310
000000000000D40E00006662782F39464131463745442D413632322D343644302D413938332D3331353338454246344243312F617474726962757465732E62696E504B01021400140006080800CC70623B08DA0BD190000000410100003600000000000000000000000000290F00006662782F39464131463745442D413632
310
322D343644302D413938332D3331353338454246344243312F6469726563746F72792E786D6C504B01021400140006080800CC70623B0D6EF93BFE000000A00100003B000000000000000000000000000D1000006662782F39464131463745442D413632322D343644302D413938332D3331353338454246344243312F7265
310
736F75726365732F636F72652E786D6C504B0506000000000E000E0080040000641100000000
  0
XRECORD
  5
2C807
102
{ACAD_REACTORS
330
173
102
}
330
173
100
AcDbXrecord
280
     1
102
MATERIAL
148
0.0
149
0.0
149
0.0
 93
        0
 94
       63
282
     0
 72
     1
 77
     1
171
     1
175
     1
179
     1
273
     0
  0
XRECORD
  5
175
102
{ACAD_REACTORS
330
173
102
}
330
173
100
AcDbXrecord
280
     1
270
     1
271
     1
  0
XRECORD
  5
174
102
{ACAD_REACTORS
330
173
102
}
330
173
100
AcDbXrecord
280
     1
270
     1
271
     1
  0
XRECORD
  5
1FB
102
{ACAD_REACTORS
330
173
102
}
330
173
100
AcDbXrecord
280
     1
 70
     0
 90
1673772943
  1
ECE7A1D2-D628-4531-984C-D00F80459256
310
504B03040A0000080000CC70623B3DEE336E79000000790000001B0000006175746F6465736B2D64657369676E2D7061636B6167652E786D6C3C3F786D6C2076657273696F6E3D22312E302220656E636F64696E673D227574662D3822203F3E3C666F726D6174733E3C666F726D61743E687474703A2F2F736368656D612E
310
6175746F6465736B2E636F6D2F64657369676E2D7061636B6167652F323030393C2F666F726D61743E3C2F666F726D6174733E504B0304140006080800CC70623BD486FD9CA0000000F4000000130000005B436F6E74656E745F54797065735D2E786D6C7D8EC10E82300C865F65E91D8A1E8C310C0EEA1BF002731658846E
310
D98AC1B77784ABF1D8FE5FBFBF75BBCE937A534CCEB38643598122B6FEE978D0B0485F9C41B54DDD7D022595594E1A469170414C76A4D9A4D207E29CF43ECE46F218070CC6BECC4078ACAA135ACF422C856C0E68EA1BF5669944DDD7BCDE7B1F8E415D77AECB980613C2E4AC91FC167A2B244592486606FC29C8FD7F045B9A
310
EF7053A7E60B504B0304140006080800CC70623BD9DDAED0EC0000007C01000008000000636F72652E786D6C8D90416EC3201045AF82665B61836D9CD8C2444DD39CA01740405C94182C03558F5F9C3852BBEB6A467FFE9B197D7EF89E6EE8CB2CC17A37002D0820E394D7D68D03A478C17B4007C117EFE32F1B20272733C0
310
2A83E0E3E2D3BC49CABB685CCCAAF3DA6CA20CC14440EA969B0182FA34932C648AD911AEC52CD5558EA6A0CF2EC329598D1E47ACCEFBECC59A050463A7EA5833865FEBDD0E37353BE3EE8DBDE3F6786A48D375FBF6CC78B9C282473B3DEFABC5C86834888A900E538A49F5419B9EB47DD5BC907D4F082F57FB1F28CDFA9F50
310
B22ED6D5F6EE030B20687EE43E10BC5CB3C8E51E54AE6B6EE207504B0304140006080800CC70623B55019EA25F0000007C00000007000000636E782E786D6C4DCB3B0E80201045D1AD90E915ED2CF8AC45050C11660C8261F98AB1B07AC9C97D42D718D865D3E909258CFD00CCE24AC6E326A164D74DC0B4128928FF326038
310
472BA13128B1252AC747C6BAB984FC68F0B87FE8960A5C09FE86CFB69FBA01504B0304140006080800CC70623BA24EB22D72010000D40300000C0000006662782F636F72652E786D6CC5535B6E833010BC8AE5DF0A6C5E49888CA3A6694ED00B38E05014B091B1518EDFE511A5A9D228FD2A1F60CDEC7A67C6986DCE4D8D7A
310
69BA4AAB0C073EC548AA5C17952A33ECECD15B61B4E1CC686DBF9561A44423333CC098B3D268D7CE50AE9595CA02AA74216750749DB418E5352C32DCE59FB211BE70162ABA93DF8AFC244AE9073ED050C759670D0840D390E18DF9F1706664C23973AE2A66B62A605A75ACA4C13C4976E1364A12EF355A2EBD384AF65EFA96
310
BC7B8BED2EA6719AAE16FB8491A199335B351775B991C2CA02F390D2D40B028F861F41BCA68B7518BFD0D59A524686F29B26D7164F36B94AD9289CE54E6D1DE6010819891F6E21228B3AD1831EC219194284CF98F06DD01008846CC5A1BEF83801D4CBDC6A1303536877A57A513B0953A94FC707FDBE6064EA84A9E3E6E0FA
310
EE8CF0E9198F7784A316AA0413C2C2F2E0ECA0934D1AE6D05A69BCDE9E91D2A611F573361E38FC1375157F5752AE6B6DFE4B11990F88CCBF0719EE23FF02504B0304140006080800CC70623B408A7D3B7C0000009D0000000B0000006662782F636E782E786D6C4DCCD10A83201886E15B91FFDC552A92A0064DBC8F581632
310
D3703A76F9ABD1C18E3E78F878E5F0D9027ABBFCF2292AE86E2D20171F69F6715550CB827B40839639A5F2770314A7CD293819B45C73AAFB45B35BA61ACAA1C1C7E7855C58C15BC331339661262CC762340413D68D77DA5B42298546CBE6573AF60CEB2F504B0304140006080800CC70623B449FB9BD290100001202000031
310
0000006662782F36394639363044362D344446342D343946362D394244322D3234314243333846323333332F636F72652E786D6C8D515B6EC32010BC0AE22B55850D98B871848994463E412FE002495162B07854397EA176A4F62F3F2C9A9D991D587EB84F37F0AD7D30CEF6905418026DA553C65E7A98E219ED203808EE9D
310
8B7F6810D871D23D2C3014FCE25D9A57483A1BB58D19B54EE9151C43D0110279CB971E06F9A5A7B11A53CC8C70ADE6515EC78BAE4895DB992778883E0700CB907242D17643D7E2538BD869608875438BBAE38922CAC8F1BDD90DB4691A5E2F42C153326A951B95E398B3D1FE599322163C9AE9115F7A3D46ADA0A018778810
310
84E907617BDCEE297BC5BB3DC6BC2EF47FA234AB2745C9D8D8D035EE220B50105E2F0DC1954B9FB747187D9F9D8FA0CCDB042D5FA0C015C65B42DF78BD10F3F3B363CB56C7109DCFDFBBB97E662ED92EB62D13BC2E1BCAE5777DB9966D8A1F504B0304140006080800CC70623BAD7543B64E01000033030000300000006662
310
782F36394639363044362D344446342D343946362D394244322D3234314243333846323333332F636E782E786D6CD593CD6EC32010845F0571AD6CE3D48AD20813A9873E410FBD12D82434182C7EAAE6EDBB2424CD25871E7B41D6EC30B3FA84F9E67BB2E40B4234DE8DB46F1925E094D7C6ED479AD3AE5951B2113C789FEE
310
6C943839C1488B4C05DF079FE72A69D8C96C13AAD6B8631503449F83828872B949AC57D26200B826A308D316B4064D6E46FCDA41C05550DC9E483A00797BFD207EFB092A45DE9514C1BBD22178396BD39D891265658C238DEA00936C654E5E433CB65A26D9F6EDB5EBC14EBF49A45CB856E66048291F6939A9A81BB5C89177
310
38143CA680F4AA299D66A042CEB3354A2684DC9D8D178FE0D9B8B41CAAD720F880EE7EF93C0C18769E099ECC04D5A102C8049A8A05632F4DDF376CF1DE0F6BB65C2F8627B65A33C6BB62177CEBBDAD973006829F89F22E814B54F4BC2BE347F8AA8F681390B50FA73F804400B5F542E796F19FF974E7F78DB802FE05E20750
310
4B0304140006080800CC70623B8D05915C650500003B100000340000006662782F36394639363044362D344446342D343946362D394244322D3234314243333846323333332F6F626A656374732E786D6CAD575B6FA33814FE2B887D06429276DA1565D4266D158D3A339A6846FB502932E050B66023DB74D2FDF5FB190C01
310
9276B2973C046C8ECFF53B17071F77456EBD502133CEAE6CDF9DD81665314F32965ED995DA3A17B6F5310C04E7AA47665B8C14F4CAD6DB7618A48257A5D94AE89654B91AEDDEDDFC61C998326A5B714EA4BCB265FC440BE2924AF184CA6737218AB8E976E7FA6E4338649B0A523E8D98964450A6A029F619B8588D52FE7039
310
B1BD30F0F4F730D0FF866AF6369557DB33949F31A9088B0F848DD8CCFCF9F2767A76E99CCDE733677E3EF59D9BBB9BA5E37F984D16E78BC5E5F5ED25044B25C0C96822E8D60EEFE11B91C581D77CEA34368A1F5329E68CD1B8B61F16D63A1B8E092D294B10C78C4A48EB593D192E7DED9BDEE7995E1B91FDEDD3ACEA9FE831
310
6A756F9F7D4D79F4274C90A7A04248AA51D5F8C718DAE06FB2F75AC4796EBE65D22A88A22223B995679120E2D50E41AA49C260C046A35368846B0BECD0DFF3EBEB8AD4F835768F69B9ADF25C43D30E6B646F807FAA64AD59F61715C7A54127C4AACA98BA3006A9D792DAE165E0D59B61A01FB3A9F9D838D2DAE62445C86166
310
F37564E842E7DE6A69879FEEA2DD5AE7E371E1A5E025154AC307D06A03D73EB5978C58FFA4C8E9033066E0F3BD53BEC1F39F91BE7B55103791EDE6BBB991A2046172CB4581D8B893FA674DDA17A77B3B7C413D1B511FD2743BFF8A38F03A658705E3ADF8015C3A3417FF3D7E439FF591DA0B5F18BC20C1B8981957AE6392A3
310
F43C640C01D1A0B4728E2DD4F26DB4B3C3152A252A3B4E913CEC1C72F012782FF88EFF8637AA552DBEF76408E8A8DE9E50F9E1CB3A2DA0DB1B6039A893B56063DC5B3E3FFB5F72E67AB9FEB4AEC496C4F4C1149625DD662C53E89D7BF0F6151A046260D1337DFDC94502430F83B0EE07A130A224BCAD7DAE1D9FB6CD422FF6
310
920702629C4BB9AE79C12F243C6432A6794E18E5552BA56B431AAB5D91317302B2B071E86C3A42B1A02F999E24061403B5D0EB639195DA655DD3EBEAB4FB862DDF579F014AD0E73C22F99E28DA57FB98E75C6CA2D74D53086D600F4786E0FE3144B771A8A7B900F03594DB8A633CBC49B2EDB69228BB479CF863B5E807AAAB
310
23872F6DFEB4129B949CA33823F58830E86D65621E10047D9DB34D862E8EAC3C2ABC2F7B2C40D67CDFE01F5545B92105AF983AC54D93D69E56FB8E797F88913F898A9FEC705D3F9D1B54EC8426FB500D40A03BD0119B06E1B95DDC7EB8F6975367793EBD70E66733DFB9BC982F9CE564727731999F5D4ECFCE3B8D6A4DC2A0
310
6D50FD148437D110834A64C6CDDF57FBACB5C307A2A477DFE4939736CFEF2B175371E0E10CF0DD1D5C15654E0BCA14D1E87DD02FF93782A162C0A3D95F1524A52770F972BF1EE9809D13CE7DD599467F8ECE9ADD85CE85A34CD45355448C64F9E8A031DC2D596ACC6E5DD93D9B82DE2EF5CAF81363A8E47996A0DE24564A79
310
4115AACE09C55E14540231FDA13C319787134EBF34E3A022514E5B4D9E0826E25C02D5805B15ABE1BEF51B26383D445DD9E875EE33FE4C22DA16427D65A3BCA92CA6D28DD01DF5DC53330704308475351050232CCD31583787BA75774AFB06E5070DD0C8EF484E19968C5D83BA5B90B244D31E54D55A372320FE4786B7EA58
310
44E135AA5467CB7EA333A61683CC6A8C3257034C10CF46F40EF9F5BE59BE5BD30C3C72D235E95D10345C1D45445A5F0BB47E46A5EBE5570F9380B5FA629579952296A773720405982B9DE04011506178964401AA8BDF1FBF0A8EAB6861DD6580C0E38217056766716DAEB2D6FA0917D3E4116581EADB879C4E7CFFB11EFACD
310
3D641311495D92C8676CB409A72D18610D803CE8A626049E8EC1887CB5B44CC39883690DDA8399B4B9855B481E7D71D4A9D22F96E5BB73BF5793020C02137BF837504B0304140006080000CC70623B000000000000000000000000350000006662782F36394639363044362D344446342D343946362D394244322D32343142
310
43333846323333332F76657274696365732E62696E504B0304140006080800CC70623BF270F1330600000004000000360000006662782F36394639363044362D344446342D343946362D394244322D3234314243333846323333332F747269616E676C65732E62696E636660600000504B0304140006080000CC70623B0000
310
00000000000000000000370000006662782F36394639363044362D344446342D343946362D394244322D3234314243333846323333332F617474726962757465732E62696E504B0304140006080800CC70623B08DA0BD19000000041010000360000006662782F36394639363044362D344446342D343946362D394244322D
310
3234314243333846323333332F6469726563746F72792E786D6C858F410AC3201045AF22B36F53E9A60B35CBEEBAE80D244E44489C6234F4F835464A48035D0DF398FF9F8AF63D0E6CC63039F212F8F9020C7D47C6792B21C5FE7403D62A1188E2E60C98D7234A5830286103A55745067B9D86B8A3CF9C7F90C11DE607FB14
310
4396D7B6A82D282E9A152AD114D5EF2CB866EEE831B8EEA07A7BB5A8D7D61A2BAAEB7FD5F70921FF497D00504B0304140006080800CC70623BCA768048FE000000A00100003B0000006662782F36394639363044362D344446342D343946362D394244322D3234314243333846323333332F7265736F75726365732F636F72
310
652E786D6C8D50596E833010BD0A9ADFCA60D600328E9AA639412F609909B1126CE4A5EAF16B0295DABFFECC8CDEA2797AECF8353F924FB44E193D409E5248504B332A3D0D10FC95B4901C39B3C6F85F3248B49871801506CE266BC2B243D2688FDA47549B11775038871E12F988C7004EDE7016A9083E2ADC3D5D84BC8B09
310
D33C8D74D471E6BC8D0192EDC93A815B742658898E651BCB59086ADC356A8C3FD555A1055ED7E7E254D615792D0F075295F585746FF53B694EE78A565DD736979A65AB9933AFE69F8CD2A2F038022F28ED489E135A7CE4554F9BBEA85E68DB53CAB255FEC71496F19FA6A0B42F8B3DEE6673C0F318E4497096AD7DC5F52C33
310
EEB55BFE0D504B010214000A0000080000CC70623B3DEE336E79000000790000001B00000000000000000000000000000000006175746F6465736B2D64657369676E2D7061636B6167652E786D6C504B01021400140006080800CC70623BD486FD9CA0000000F40000001300000000000000000000000000B20000005B436F
310
6E74656E745F54797065735D2E786D6C504B01021400140006080800CC70623BD9DDAED0EC0000007C010000080000000000000000000000000083010000636F72652E786D6C504B01021400140006080800CC70623B55019EA25F0000007C000000070000000000000000000000000095020000636E782E786D6C504B0102
310
1400140006080800CC70623BA24EB22D72010000D40300000C00000000000000000000000000190300006662782F636F72652E786D6C504B01021400140006080800CC70623B408A7D3B7C0000009D0000000B00000000000000000000000000B50400006662782F636E782E786D6C504B01021400140006080800CC70623B
310
449FB9BD290100001202000031000000000000000000000000005A0500006662782F36394639363044362D344446342D343946362D394244322D3234314243333846323333332F636F72652E786D6C504B01021400140006080800CC70623BAD7543B64E010000330300003000000000000000000000000000D20600006662
310
782F36394639363044362D344446342D343946362D394244322D3234314243333846323333332F636E782E786D6C504B01021400140006080800CC70623B8D05915C650500003B10000034000000000000000000000000006E0800006662782F36394639363044362D344446342D343946362D394244322D32343142433338
310
46323333332F6F626A656374732E786D6C504B01021400140006080000CC70623B0000000000000000000000003500000000000000000000000000250E00006662782F36394639363044362D344446342D343946362D394244322D3234314243333846323333332F76657274696365732E62696E504B010214001400060808
310
00CC70623BF270F13306000000040000003600000000000000000000000000780E00006662782F36394639363044362D344446342D343946362D394244322D3234314243333846323333332F747269616E676C65732E62696E504B01021400140006080000CC70623B00000000000000000000000037000000000000000000
310
00000000D20E00006662782F36394639363044362D344446342D343946362D394244322D3234314243333846323333332F617474726962757465732E62696E504B01021400140006080800CC70623B08DA0BD190000000410100003600000000000000000000000000270F00006662782F36394639363044362D344446342D
310
343946362D394244322D3234314243333846323333332F6469726563746F72792E786D6C504B01021400140006080800CC70623BCA768048FE000000A00100003B000000000000000000000000000B1000006662782F36394639363044362D344446342D343946362D394244322D3234314243333846323333332F7265736F
310
75726365732F636F72652E786D6C504B0506000000000E000E0080040000621100000000
  0
XRECORD
  5
176
102
{ACAD_REACTORS
330
173
102
}
330
173
100
AcDbXrecord
280
     1
270
     1
271
     1
  0
XRECORD
  5
177
102
{ACAD_REACTORS
330
173
102
}
330
173
100
AcDbXrecord
280
     1
270
     1
271
     1
  0
XRECORD
  5
2C829
102
{ACAD_REACTORS
330
2C828
102
}
330
2C828
100
AcDbXrecord
280
     1
102
ACAD_ROUNDTRIP_2012_MLEADER_STYLE
298
     1
  0
XRECORD
  5
2C83B
102
{ACAD_REACTORS
330
2C83A
102
}
330
2C83A
100
AcDbXrecord
280
     1
102
DISPLAYNAME
  1
Metric50
102
FLAGS
 90
        0
  0
CELLSTYLEMAP
  5
2C7FB
102
{ACAD_REACTORS
330
162
102
}
330
162
100
AcDbCellStyleMap
 90
        3
300
CELLSTYLE
  1
TABLEFORMAT_BEGIN
 90
        5
170
     1
 91
        0
 92
    32768
 62
   257
 93
        1
300
CONTENTFORMAT
  1
CONTENTFORMAT_BEGIN
 90
        0
 91
        0
 92
      512
 93
        0
300

 40
0.0
140
1.0
 94
        5
 62
     0
340
11
144
6.0
309
CONTENTFORMAT_END
171
     1
301
MARGIN
  1
CELLMARGIN_BEGIN
 40
1.5
 40
1.5
 40
1.5
 40
1.5
 40
4.5
 40
4.5
309
CELLMARGIN_END
 94
        6
 95
        1
302
GRIDFORMAT
  1
GRIDFORMAT_BEGIN
 90
        0
 91
        1
 62
     0
 92
       -2
340
14
 93
        0
 40
1.125
309
GRIDFORMAT_END
 95
        2
302
GRIDFORMAT
  1
GRIDFORMAT_BEGIN
 90
        0
 91
        1
 62
     0
 92
       -2
340
14
 93
        0
 40
1.125
309
GRIDFORMAT_END
 95
        4
302
GRIDFORMAT
  1
GRIDFORMAT_BEGIN
 90
        0
 91
        1
 62
     0
 92
       -2
340
14
 93
        0
 40
1.125
309
GRIDFORMAT_END
 95
        8
302
GRIDFORMAT
  1
GRIDFORMAT_BEGIN
 90
        0
 91
        1
 62
     0
 92
       -2
340
14
 93
        0
 40
1.125
309
GRIDFORMAT_END
 95
       16
302
GRIDFORMAT
  1
GRIDFORMAT_BEGIN
 90
        0
 91
        1
 62
     0
 92
       -2
340
14
 93
        0
 40
1.125
309
GRIDFORMAT_END
 95
       32
302
GRIDFORMAT
  1
GRIDFORMAT_BEGIN
 90
        0
 91
        1
 62
     0
 92
       -2
340
14
 93
        0
 40
1.125
309
GRIDFORMAT_END
309
TABLEFORMAT_END
  1
CELLSTYLE_BEGIN
 90
        1
 91
        1
300
_TITLE
309
CELLSTYLE_END
300
CELLSTYLE
  1
TABLEFORMAT_BEGIN
 90
        5
170
     1
 91
        0
 92
        0
 62
   257
 93
        1
300
CONTENTFORMAT
  1
CONTENTFORMAT_BEGIN
 90
        0
 91
        0
 92
      512
 93
        0
300

 40
0.0
140
1.0
 94
        5
 62
     0
340
11
144
4.5
309
CONTENTFORMAT_END
171
     1
301
MARGIN
  1
CELLMARGIN_BEGIN
 40
1.5
 40
1.5
 40
1.5
 40
1.5
 40
4.5
 40
4.5
309
CELLMARGIN_END
 94
        6
 95
        1
302
GRIDFORMAT
  1
GRIDFORMAT_BEGIN
 90
        0
 91
        1
 62
     0
 92
       -2
340
14
 93
        0
 40
1.125
309
GRIDFORMAT_END
 95
        2
302
GRIDFORMAT
  1
GRIDFORMAT_BEGIN
 90
        0
 91
        1
 62
     0
 92
       -2
340
14
 93
        0
 40
1.125
309
GRIDFORMAT_END
 95
        4
302
GRIDFORMAT
  1
GRIDFORMAT_BEGIN
 90
        0
 91
        1
 62
     0
 92
       -2
340
14
 93
        0
 40
1.125
309
GRIDFORMAT_END
 95
        8
302
GRIDFORMAT
  1
GRIDFORMAT_BEGIN
 90
        0
 91
        1
 62
     0
 92
       -2
340
14
 93
        0
 40
1.125
309
GRIDFORMAT_END
 95
       16
302
GRIDFORMAT
  1
GRIDFORMAT_BEGIN
 90
        0
 91
        1
 62
     0
 92
       -2
340
14
 93
        0
 40
1.125
309
GRIDFORMAT_END
 95
       32
302
GRIDFORMAT
  1
GRIDFORMAT_BEGIN
 90
        0
 91
        1
 62
     0
 92
       -2
340
14
 93
        0
 40
1.125
309
GRIDFORMAT_END
309
TABLEFORMAT_END
  1
CELLSTYLE_BEGIN
 90
        2
 91
        1
300
_HEADER
309
CELLSTYLE_END
300
CELLSTYLE
  1
TABLEFORMAT_BEGIN
 90
        5
170
     1
 91
        0
 92
        0
 62
   257
 93
        1
300
CONTENTFORMAT
  1
CONTENTFORMAT_BEGIN
 90
        0
 91
        0
 92
      512
 93
        0
300

 40
0.0
140
1.0
 94
        2
 62
     0
340
11
144
4.5
309
CONTENTFORMAT_END
171
     1
301
MARGIN
  1
CELLMARGIN_BEGIN
 40
1.5
 40
1.5
 40
1.5
 40
1.5
 40
4.5
 40
4.5
309
CELLMARGIN_END
 94
        6
 95
        1
302
GRIDFORMAT
  1
GRIDFORMAT_BEGIN
 90
        0
 91
        1
 62
     0
 92
       -2
340
14
 93
        0
 40
1.125
309
GRIDFORMAT_END
 95
        2
302
GRIDFORMAT
  1
GRIDFORMAT_BEGIN
 90
        0
 91
        1
 62
     0
 92
       -2
340
14
 93
        0
 40
1.125
309
GRIDFORMAT_END
 95
        4
302
GRIDFORMAT
  1
GRIDFORMAT_BEGIN
 90
        0
 91
        1
 62
     0
 92
       -2
340
14
 93
        0
 40
1.125
309
GRIDFORMAT_END
 95
        8
302
GRIDFORMAT
  1
GRIDFORMAT_BEGIN
 90
        0
 91
        1
 62
     0
 92
       -2
340
14
 93
        0
 40
1.125
309
GRIDFORMAT_END
 95
       16
302
GRIDFORMAT
  1
GRIDFORMAT_BEGIN
 90
        0
 91
        1
 62
     0
 92
       -2
340
14
 93
        0
 40
1.125
309
GRIDFORMAT_END
 95
       32
302
GRIDFORMAT
  1
GRIDFORMAT_BEGIN
 90
        0
 91
        1
 62
     0
 92
       -2
340
14
 93
        0
 40
1.125
309
GRIDFORMAT_END
309
TABLEFORMAT_END
  1
CELLSTYLE_BEGIN
 90
        3
 91
        2
300
_DATA
309
CELLSTYLE_END
  0
XRECORD
  5
2C800
102
{ACAD_REACTORS
330
162
102
}
330
162
100
AcDbXrecord
280
     1
102
ACAD_ROUNDTRIP_PRE2007_TABLESTYLE
 90
      512
 91
        0
  1

 92
      512
 93
        0
  2

 94
      512
 95
        0
  3

  0
XRECORD
  5
2C813
102
{ACAD_REACTORS
330
2C812
102
}
330
2C812
100
AcDbXrecord
280
     1
102
RTVSPost2010Prop28
280
     1
102
RTVSPost2010PropOp28
 70
     1
102
RTVSPost2010Prop29
280
     1
102
RTVSPost2010PropOp29
 70
     1
102
RTVSPost2010Prop30
280
     0
102
RTVSPost2010PropOp30
 70
     1
102
RTVSPost2010Prop31
280
     0
102
RTVSPost2010PropOp31
 70
     1
102
RTVSPost2010Prop32
280
     0
102
RTVSPost2010PropOp32
 70
     1
102
RTVSPost2010Prop33
280
     0
102
RTVSPost2010PropOp33
 70
     1
102
RTVSPost2010Prop34
280
     0
102
RTVSPost2010PropOp34
 70
     1
102
RTVSPost2010Prop35
280
     0
102
RTVSPost2010PropOp35
 70
     1
102
RTVSPost2010Prop36
280
     0
102
RTVSPost2010PropOp36
 70
     1
102
RTVSPost2010Prop37
 90
       50
102
RTVSPost2010PropOp37
 70
     1
102
RTVSPost2010Prop38
140
0.0
102
RTVSPost2010PropOp38
 70
     1
102
RTVSPost2010Prop39
140
1.0
102
RTVSPost2010PropOp39
 70
     1
102
RTVSPost2010Prop40
 90
        0
102
RTVSPost2010PropOp40
 70
     1
102
RTVSPost2010Prop41ColorIndex
 90
       18
102
RTVSPost2010Prop41ColorRGB
 90
        0
102
RTVSPost2010PropOp41
 70
     1
102
RTVSPost2010Prop42
 90
       50
102
RTVSPost2010PropOp42
 70
     1
102
RTVSPost2010Prop43
 90
        3
102
RTVSPost2010PropOp43
 70
     1
102
RTVSPost2010Prop44ColorIndex
 90
        5
102
RTVSPost2010Prop44ColorRGB
 90
      255
102
RTVSPost2010PropOp44
 70
     1
102
RTVSPost2010Prop45
280
     0
102
RTVSPost2010PropOp45
 70
     1
102
RTVSPost2010Prop46
 90
       50
102
RTVSPost2010PropOp46
 70
     1
102
RTVSPost2010Prop47
 90
       50
102
RTVSPost2010PropOp47
 70
     1
102
RTVSPost2010Prop48
 90
       50
102
RTVSPost2010PropOp48
 70
     1
102
RTVSPost2010Prop49
280
     0
102
RTVSPost2010PropOp49
 70
     1
102
RTVSPost2010Prop50
 90
       50
102
RTVSPost2010PropOp50
 70
     1
102
RTVSPost2010Prop51ColorIndex
 90
      256
102
RTVSPost2010Prop51ColorRGB
 90
-16777216
102
RTVSPost2010PropOp51
 70
     0
102
RTVSPost2010Prop52
140
1.0
102
RTVSPost2010PropOp52
 70
     0
102
RTVSPost2010Prop53
 90
        2
102
RTVSPost2010PropOp53
 70
     1
102
RTVSPost2010Prop54
  1
strokes_ogs.tif
102
RTVSPost2010PropOp54
 70
     1
102
RTVSPost2010Prop55
280
     0
102
RTVSPost2010PropOp55
 70
     1
102
RTVSPost2010Prop56
140
1.0
102
RTVSPost2010PropOp56
 70
     1
102
RTVSPost2010Prop57
140
1.0
102
RTVSPost2010PropOp57
 70
     1
102
RTVSPropertyOp0
 70
     1
102
RTVSPropertyOp1
 70
     1
102
RTVSPropertyOp2
 70
     1
102
RTVSPropertyOp3
 70
     1
102
RTVSPropertyOp4
 70
     1
102
RTVSPropertyOp5
 70
     1
102
RTVSPropertyOp6
 70
     1
102
RTVSPropertyOp7
 70
     1
102
RTVSPropertyOp8
 70
     1
102
RTVSPropertyOp9
 70
     1
102
RTVSPropertyOp10
 70
     1
102
RTVSPropertyOp11
 70
     1
102
RTVSPropertyOp12
 70
     1
102
RTVSPropertyOp13
 70
     1
102
RTVSPropertyOp14
 70
     1
102
RTVSPropertyOp15
 70
     1
102
RTVSPropertyOp16
 70
     1
102
RTVSPropertyOp17
 70
     1
102
RTVSPropertyOp18
 70
     1
102
RTVSPropertyOp19
 70
     1
102
RTVSPropertyOp20
 70
     1
102
RTVSPropertyOp21
 70
     1
102
RTVSPropertyOp22
 70
     1
102
RTVSPropertyOp23
 70
     1
102
RTVSPropertyOp24
 70
     1
102
RTVSPropertyOp25
 70
     1
102
RTVSPropertyOp26
 70
     1
102
RTVSPropertyOp27
 70
     1
102
RTVSPropertyOp28
 70
     1
102
RTVSPropertyOp29
 70
     1
102
RTVSPropertyOp30
 70
     1
102
RTVSPropertyOp31
 70
     1
102
RTVSPropertyOp32
 70
     1
102
RTVSPropertyOp33
 70
     1
102
RTVSPropertyOp34
 70
     1
102
RTVSPropertyOp35
 70
     1
102
RTVSPropertyOp36
 70
     1
102
RTVSPropertyOp37
 70
     1
102
RTVSPropertyOp38
 70
     1
102
RTVSPropertyOp39
 70
     1
102
RTVSPropertyOp40
 70
     1
102
RTVSPropertyOp41
 70
     1
102
RTVSPropertyOp42
 70
     1
102
RTVSPropertyOp43
 70
     1
102
RTVSPropertyOp44
 70
     1
102
RTVSPropertyOp45
 70
     1
102
RTVSPropertyOp46
 70
     1
102
RTVSPropertyOp47
 70
     1
102
RTVSPropertyOp48
 70
     1
102
RTVSPropertyOp49
 70
     1
102
RTVSPropertyOp50
 70
     1
102
RTVSPropertyOp51
 70
     0
102
RTVSPropertyOp52
 70
     0
102
RTVSPropertyOp53
 70
     1
102
RTVSPropertyOp54
 70
     1
102
RTVSPropertyOp55
 70
     1
102
RTVSPropertyOp56
 70
     1
102
RTVSPropertyOp57
 70
     1
102
RTVSPropertyOp58
 70
     1
102
RTVSPropertyOp59
 70
     1
102
RTVSPropertyOp60
 70
     1
102
RTVSPropertyOp61
 70
     1
102
RTVSPropertyOp62
 70
     1
  0
XRECORD
  5
2C811
102
{ACAD_REACTORS
330
2C810
102
}
330
2C810
100
AcDbXrecord
280
     1
102
RTVSPost2010Prop28
280
     0
102
RTVSPost2010PropOp28
 70
     1
102
RTVSPost2010Prop29
280
     1
102
RTVSPost2010PropOp29
 70
     1
102
RTVSPost2010Prop30
280
     1
102
RTVSPost2010PropOp30
 70
     1
102
RTVSPost2010Prop31
280
     0
102
RTVSPost2010PropOp31
 70
     1
102
RTVSPost2010Prop32
280
     0
102
RTVSPost2010PropOp32
 70
     1
102
RTVSPost2010Prop33
280
     0
102
RTVSPost2010PropOp33
 70
     1
102
RTVSPost2010Prop34
280
     0
102
RTVSPost2010PropOp34
 70
     1
102
RTVSPost2010Prop35
280
     0
102
RTVSPost2010PropOp35
 70
     1
102
RTVSPost2010Prop36
280
     0
102
RTVSPost2010PropOp36
 70
     1
102
RTVSPost2010Prop37
 90
       50
102
RTVSPost2010PropOp37
 70
     1
102
RTVSPost2010Prop38
140
0.0
102
RTVSPost2010PropOp38
 70
     1
102
RTVSPost2010Prop39
140
1.0
102
RTVSPost2010PropOp39
 70
     1
102
RTVSPost2010Prop40
 90
        0
102
RTVSPost2010PropOp40
 70
     1
102
RTVSPost2010Prop41ColorIndex
 90
       18
102
RTVSPost2010Prop41ColorRGB
 90
        0
102
RTVSPost2010PropOp41
 70
     1
102
RTVSPost2010Prop42
 90
       50
102
RTVSPost2010PropOp42
 70
     1
102
RTVSPost2010Prop43
 90
        3
102
RTVSPost2010PropOp43
 70
     1
102
RTVSPost2010Prop44ColorIndex
 90
        5
102
RTVSPost2010Prop44ColorRGB
 90
      255
102
RTVSPost2010PropOp44
 70
     1
102
RTVSPost2010Prop45
280
     0
102
RTVSPost2010PropOp45
 70
     1
102
RTVSPost2010Prop46
 90
       50
102
RTVSPost2010PropOp46
 70
     1
102
RTVSPost2010Prop47
 90
       50
102
RTVSPost2010PropOp47
 70
     1
102
RTVSPost2010Prop48
 90
       50
102
RTVSPost2010PropOp48
 70
     1
102
RTVSPost2010Prop49
280
     0
102
RTVSPost2010PropOp49
 70
     1
102
RTVSPost2010Prop50
 90
       50
102
RTVSPost2010PropOp50
 70
     1
102
RTVSPost2010Prop51ColorIndex
 90
      256
102
RTVSPost2010Prop51ColorRGB
 90
-16777216
102
RTVSPost2010PropOp51
 70
     0
102
RTVSPost2010Prop52
140
1.0
102
RTVSPost2010PropOp52
 70
     0
102
RTVSPost2010Prop53
 90
        2
102
RTVSPost2010PropOp53
 70
     1
102
RTVSPost2010Prop54
  1
strokes_ogs.tif
102
RTVSPost2010PropOp54
 70
     1
102
RTVSPost2010Prop55
280
     0
102
RTVSPost2010PropOp55
 70
     1
102
RTVSPost2010Prop56
140
1.0
102
RTVSPost2010PropOp56
 70
     1
102
RTVSPost2010Prop57
140
1.0
102
RTVSPost2010PropOp57
 70
     1
102
RTVSPropertyOp0
 70
     1
102
RTVSPropertyOp1
 70
     1
102
RTVSPropertyOp2
 70
     1
102
RTVSPropertyOp3
 70
     1
102
RTVSPropertyOp4
 70
     1
102
RTVSPropertyOp5
 70
     1
102
RTVSPropertyOp6
 70
     1
102
RTVSPropertyOp7
 70
     1
102
RTVSPropertyOp8
 70
     1
102
RTVSPropertyOp9
 70
     1
102
RTVSPropertyOp10
 70
     1
102
RTVSPropertyOp11
 70
     1
102
RTVSPropertyOp12
 70
     1
102
RTVSPropertyOp13
 70
     1
102
RTVSPropertyOp14
 70
     1
102
RTVSPropertyOp15
 70
     1
102
RTVSPropertyOp16
 70
     1
102
RTVSPropertyOp17
 70
     1
102
RTVSPropertyOp18
 70
     1
102
RTVSPropertyOp19
 70
     1
102
RTVSPropertyOp20
 70
     1
102
RTVSPropertyOp21
 70
     1
102
RTVSPropertyOp22
 70
     1
102
RTVSPropertyOp23
 70
     1
102
RTVSPropertyOp24
 70
     1
102
RTVSPropertyOp25
 70
     1
102
RTVSPropertyOp26
 70
     1
102
RTVSPropertyOp27
 70
     1
102
RTVSPropertyOp28
 70
     1
102
RTVSPropertyOp29
 70
     1
102
RTVSPropertyOp30
 70
     1
102
RTVSPropertyOp31
 70
     1
102
RTVSPropertyOp32
 70
     1
102
RTVSPropertyOp33
 70
     1
102
RTVSPropertyOp34
 70
     1
102
RTVSPropertyOp35
 70
     1
102
RTVSPropertyOp36
 70
     1
102
RTVSPropertyOp37
 70
     1
102
RTVSPropertyOp38
 70
     1
102
RTVSPropertyOp39
 70
     1
102
RTVSPropertyOp40
 70
     1
102
RTVSPropertyOp41
 70
     1
102
RTVSPropertyOp42
 70
     1
102
RTVSPropertyOp43
 70
     1
102
RTVSPropertyOp44
 70
     1
102
RTVSPropertyOp45
 70
     1
102
RTVSPropertyOp46
 70
     1
102
RTVSPropertyOp47
 70
     1
102
RTVSPropertyOp48
 70
     1
102
RTVSPropertyOp49
 70
     1
102
RTVSPropertyOp50
 70
     1
102
RTVSPropertyOp51
 70
     0
102
RTVSPropertyOp52
 70
     0
102
RTVSPropertyOp53
 70
     1
102
RTVSPropertyOp54
 70
     1
102
RTVSPropertyOp55
 70
     1
102
RTVSPropertyOp56
 70
     1
102
RTVSPropertyOp57
 70
     1
102
RTVSPropertyOp58
 70
     1
102
RTVSPropertyOp59
 70
     1
102
RTVSPropertyOp60
 70
     1
102
RTVSPropertyOp61
 70
     1
102
RTVSPropertyOp62
 70
     1
  0
XRECORD
  5
2C81F
102
{ACAD_REACTORS
330
2C81E
102
}
330
2C81E
100
AcDbXrecord
280
     1
102
RTVSPost2010Prop28
280
     0
102
RTVSPost2010PropOp28
 70
     1
102
RTVSPost2010Prop29
280
     1
102
RTVSPost2010PropOp29
 70
     1
102
RTVSPost2010Prop30
280
     1
102
RTVSPost2010PropOp30
 70
     1
102
RTVSPost2010Prop31
280
     0
102
RTVSPost2010PropOp31
 70
     1
102
RTVSPost2010Prop32
280
     0
102
RTVSPost2010PropOp32
 70
     1
102
RTVSPost2010Prop33
280
     0
102
RTVSPost2010PropOp33
 70
     1
102
RTVSPost2010Prop34
280
     0
102
RTVSPost2010PropOp34
 70
     1
102
RTVSPost2010Prop35
280
     0
102
RTVSPost2010PropOp35
 70
     1
102
RTVSPost2010Prop36
280
     0
102
RTVSPost2010PropOp36
 70
     1
102
RTVSPost2010Prop37
 90
       50
102
RTVSPost2010PropOp37
 70
     1
102
RTVSPost2010Prop38
140
0.0
102
RTVSPost2010PropOp38
 70
     1
102
RTVSPost2010Prop39
140
1.0
102
RTVSPost2010PropOp39
 70
     1
102
RTVSPost2010Prop40
 90
        0
102
RTVSPost2010PropOp40
 70
     1
102
RTVSPost2010Prop41ColorIndex
 90
       18
102
RTVSPost2010Prop41ColorRGB
 90
        0
102
RTVSPost2010PropOp41
 70
     1
102
RTVSPost2010Prop42
 90
       50
102
RTVSPost2010PropOp42
 70
     1
102
RTVSPost2010Prop43
 90
        3
102
RTVSPost2010PropOp43
 70
     1
102
RTVSPost2010Prop44ColorIndex
 90
        5
102
RTVSPost2010Prop44ColorRGB
 90
      255
102
RTVSPost2010PropOp44
 70
     1
102
RTVSPost2010Prop45
280
     0
102
RTVSPost2010PropOp45
 70
     1
102
RTVSPost2010Prop46
 90
       50
102
RTVSPost2010PropOp46
 70
     1
102
RTVSPost2010Prop47
 90
       50
102
RTVSPost2010PropOp47
 70
     1
102
RTVSPost2010Prop48
 90
       50
102
RTVSPost2010PropOp48
 70
     1
102
RTVSPost2010Prop49
280
     0
102
RTVSPost2010PropOp49
 70
     1
102
RTVSPost2010Prop50
 90
       50
102
RTVSPost2010PropOp50
 70
     1
102
RTVSPost2010Prop51ColorIndex
 90
      256
102
RTVSPost2010Prop51ColorRGB
 90
-16777216
102
RTVSPost2010PropOp51
 70
     0
102
RTVSPost2010Prop52
140
1.0
102
RTVSPost2010PropOp52
 70
     0
102
RTVSPost2010Prop53
 90
        2
102
RTVSPost2010PropOp53
 70
     1
102
RTVSPost2010Prop54
  1
strokes_ogs.tif
102
RTVSPost2010PropOp54
 70
     1
102
RTVSPost2010Prop55
280
     0
102
RTVSPost2010PropOp55
 70
     1
102
RTVSPost2010Prop56
140
1.0
102
RTVSPost2010PropOp56
 70
     1
102
RTVSPost2010Prop57
140
1.0
102
RTVSPost2010PropOp57
 70
     1
102
RTVSPropertyOp0
 70
     1
102
RTVSPropertyOp1
 70
     1
102
RTVSPropertyOp2
 70
     1
102
RTVSPropertyOp3
 70
     1
102
RTVSPropertyOp4
 70
     1
102
RTVSPropertyOp5
 70
     1
102
RTVSPropertyOp6
 70
     1
102
RTVSPropertyOp7
 70
     1
102
RTVSPropertyOp8
 70
     1
102
RTVSPropertyOp9
 70
     1
102
RTVSPropertyOp10
 70
     1
102
RTVSPropertyOp11
 70
     1
102
RTVSPropertyOp12
 70
     1
102
RTVSPropertyOp13
 70
     1
102
RTVSPropertyOp14
 70
     1
102
RTVSPropertyOp15
 70
     1
102
RTVSPropertyOp16
 70
     1
102
RTVSPropertyOp17
 70
     1
102
RTVSPropertyOp18
 70
     1
102
RTVSPropertyOp19
 70
     1
102
RTVSPropertyOp20
 70
     1
102
RTVSPropertyOp21
 70
     1
102
RTVSPropertyOp22
 70
     1
102
RTVSPropertyOp23
 70
     1
102
RTVSPropertyOp24
 70
     1
102
RTVSPropertyOp25
 70
     1
102
RTVSPropertyOp26
 70
     1
102
RTVSPropertyOp27
 70
     1
102
RTVSPropertyOp28
 70
     1
102
RTVSPropertyOp29
 70
     1
102
RTVSPropertyOp30
 70
     1
102
RTVSPropertyOp31
 70
     1
102
RTVSPropertyOp32
 70
     1
102
RTVSPropertyOp33
 70
     1
102
RTVSPropertyOp34
 70
     1
102
RTVSPropertyOp35
 70
     1
102
RTVSPropertyOp36
 70
     1
102
RTVSPropertyOp37
 70
     1
102
RTVSPropertyOp38
 70
     1
102
RTVSPropertyOp39
 70
     1
102
RTVSPropertyOp40
 70
     1
102
RTVSPropertyOp41
 70
     1
102
RTVSPropertyOp42
 70
     1
102
RTVSPropertyOp43
 70
     1
102
RTVSPropertyOp44
 70
     1
102
RTVSPropertyOp45
 70
     1
102
RTVSPropertyOp46
 70
     1
102
RTVSPropertyOp47
 70
     1
102
RTVSPropertyOp48
 70
     1
102
RTVSPropertyOp49
 70
     1
102
RTVSPropertyOp50
 70
     1
102
RTVSPropertyOp51
 70
     0
102
RTVSPropertyOp52
 70
     0
102
RTVSPropertyOp53
 70
     1
102
RTVSPropertyOp54
 70
     1
102
RTVSPropertyOp55
 70
     1
102
RTVSPropertyOp56
 70
     1
102
RTVSPropertyOp57
 70
     1
102
RTVSPropertyOp58
 70
     1
102
RTVSPropertyOp59
 70
     1
102
RTVSPropertyOp60
 70
     1
102
RTVSPropertyOp61
 70
     1
102
RTVSPropertyOp62
 70
     1
  0
XRECORD
  5
2C827
102
{ACAD_REACTORS
330
2C826
102
}
330
2C826
100
AcDbXrecord
280
     1
102
RTVSPost2010Prop28
280
     0
102
RTVSPost2010PropOp28
 70
     1
102
RTVSPost2010Prop29
280
     1
102
RTVSPost2010PropOp29
 70
     1
102
RTVSPost2010Prop30
280
     1
102
RTVSPost2010PropOp30
 70
     1
102
RTVSPost2010Prop31
280
     0
102
RTVSPost2010PropOp31
 70
     1
102
RTVSPost2010Prop32
280
     0
102
RTVSPost2010PropOp32
 70
     1
102
RTVSPost2010Prop33
280
     0
102
RTVSPost2010PropOp33
 70
     1
102
RTVSPost2010Prop34
280
     0
102
RTVSPost2010PropOp34
 70
     1
102
RTVSPost2010Prop35
280
     0
102
RTVSPost2010PropOp35
 70
     1
102
RTVSPost2010Prop36
280
     0
102
RTVSPost2010PropOp36
 70
     1
102
RTVSPost2010Prop37
 90
       50
102
RTVSPost2010PropOp37
 70
     1
102
RTVSPost2010Prop38
140
0.0
102
RTVSPost2010PropOp38
 70
     1
102
RTVSPost2010Prop39
140
1.0
102
RTVSPost2010PropOp39
 70
     1
102
RTVSPost2010Prop40
 90
        0
102
RTVSPost2010PropOp40
 70
     1
102
RTVSPost2010Prop41ColorIndex
 90
       18
102
RTVSPost2010Prop41ColorRGB
 90
        0
102
RTVSPost2010PropOp41
 70
     1
102
RTVSPost2010Prop42
 90
       50
102
RTVSPost2010PropOp42
 70
     1
102
RTVSPost2010Prop43
 90
        3
102
RTVSPost2010PropOp43
 70
     1
102
RTVSPost2010Prop44ColorIndex
 90
        5
102
RTVSPost2010Prop44ColorRGB
 90
      255
102
RTVSPost2010PropOp44
 70
     1
102
RTVSPost2010Prop45
280
     0
102
RTVSPost2010PropOp45
 70
     1
102
RTVSPost2010Prop46
 90
       50
102
RTVSPost2010PropOp46
 70
     1
102
RTVSPost2010Prop47
 90
       50
102
RTVSPost2010PropOp47
 70
     1
102
RTVSPost2010Prop48
 90
       50
102
RTVSPost2010PropOp48
 70
     1
102
RTVSPost2010Prop49
280
     0
102
RTVSPost2010PropOp49
 70
     1
102
RTVSPost2010Prop50
 90
       50
102
RTVSPost2010PropOp50
 70
     1
102
RTVSPost2010Prop51ColorIndex
 90
      256
102
RTVSPost2010Prop51ColorRGB
 90
-16777216
102
RTVSPost2010PropOp51
 70
     0
102
RTVSPost2010Prop52
140
1.0
102
RTVSPost2010PropOp52
 70
     0
102
RTVSPost2010Prop53
 90
        2
102
RTVSPost2010PropOp53
 70
     1
102
RTVSPost2010Prop54
  1
strokes_ogs.tif
102
RTVSPost2010PropOp54
 70
     1
102
RTVSPost2010Prop55
280
     0
102
RTVSPost2010PropOp55
 70
     1
102
RTVSPost2010Prop56
140
1.0
102
RTVSPost2010PropOp56
 70
     1
102
RTVSPost2010Prop57
140
1.0
102
RTVSPost2010PropOp57
 70
     1
102
RTVSPropertyOp0
 70
     1
102
RTVSPropertyOp1
 70
     1
102
RTVSPropertyOp2
 70
     1
102
RTVSPropertyOp3
 70
     1
102
RTVSPropertyOp4
 70
     1
102
RTVSPropertyOp5
 70
     1
102
RTVSPropertyOp6
 70
     1
102
RTVSPropertyOp7
 70
     1
102
RTVSPropertyOp8
 70
     1
102
RTVSPropertyOp9
 70
     1
102
RTVSPropertyOp10
 70
     1
102
RTVSPropertyOp11
 70
     1
102
RTVSPropertyOp12
 70
     1
102
RTVSPropertyOp13
 70
     1
102
RTVSPropertyOp14
 70
     1
102
RTVSPropertyOp15
 70
     1
102
RTVSPropertyOp16
 70
     1
102
RTVSPropertyOp17
 70
     1
102
RTVSPropertyOp18
 70
     1
102
RTVSPropertyOp19
 70
     1
102
RTVSPropertyOp20
 70
     1
102
RTVSPropertyOp21
 70
     1
102
RTVSPropertyOp22
 70
     1
102
RTVSPropertyOp23
 70
     1
102
RTVSPropertyOp24
 70
     1
102
RTVSPropertyOp25
 70
     1
102
RTVSPropertyOp26
 70
     1
102
RTVSPropertyOp27
 70
     1
102
RTVSPropertyOp28
 70
     1
102
RTVSPropertyOp29
 70
     1
102
RTVSPropertyOp30
 70
     1
102
RTVSPropertyOp31
 70
     1
102
RTVSPropertyOp32
 70
     1
102
RTVSPropertyOp33
 70
     1
102
RTVSPropertyOp34
 70
     1
102
RTVSPropertyOp35
 70
     1
102
RTVSPropertyOp36
 70
     1
102
RTVSPropertyOp37
 70
     1
102
RTVSPropertyOp38
 70
     1
102
RTVSPropertyOp39
 70
     1
102
RTVSPropertyOp40
 70
     1
102
RTVSPropertyOp41
 70
     1
102
RTVSPropertyOp42
 70
     1
102
RTVSPropertyOp43
 70
     1
102
RTVSPropertyOp44
 70
     1
102
RTVSPropertyOp45
 70
     1
102
RTVSPropertyOp46
 70
     1
102
RTVSPropertyOp47
 70
     1
102
RTVSPropertyOp48
 70
     1
102
RTVSPropertyOp49
 70
     1
102
RTVSPropertyOp50
 70
     1
102
RTVSPropertyOp51
 70
     0
102
RTVSPropertyOp52
 70
     0
102
RTVSPropertyOp53
 70
     1
102
RTVSPropertyOp54
 70
     1
102
RTVSPropertyOp55
 70
     1
102
RTVSPropertyOp56
 70
     1
102
RTVSPropertyOp57
 70
     1
102
RTVSPropertyOp58
 70
     1
102
RTVSPropertyOp59
 70
     1
102
RTVSPropertyOp60
 70
     1
102
RTVSPropertyOp61
 70
     1
102
RTVSPropertyOp62
 70
     1
  0
XRECORD
  5
2C819
102
{ACAD_REACTORS
330
2C818
102
}
330
2C818
100
AcDbXrecord
280
     1
102
RTVSPost2010Prop28
280
     0
102
RTVSPost2010PropOp28
 70
     1
102
RTVSPost2010Prop29
280
     1
102
RTVSPost2010PropOp29
 70
     1
102
RTVSPost2010Prop30
280
     1
102
RTVSPost2010PropOp30
 70
     1
102
RTVSPost2010Prop31
280
     0
102
RTVSPost2010PropOp31
 70
     1
102
RTVSPost2010Prop32
280
     0
102
RTVSPost2010PropOp32
 70
     1
102
RTVSPost2010Prop33
280
     0
102
RTVSPost2010PropOp33
 70
     1
102
RTVSPost2010Prop34
280
     0
102
RTVSPost2010PropOp34
 70
     1
102
RTVSPost2010Prop35
280
     0
102
RTVSPost2010PropOp35
 70
     1
102
RTVSPost2010Prop36
280
     0
102
RTVSPost2010PropOp36
 70
     1
102
RTVSPost2010Prop37
 90
       50
102
RTVSPost2010PropOp37
 70
     1
102
RTVSPost2010Prop38
140
0.0
102
RTVSPost2010PropOp38
 70
     1
102
RTVSPost2010Prop39
140
1.0
102
RTVSPost2010PropOp39
 70
     1
102
RTVSPost2010Prop40
 90
        0
102
RTVSPost2010PropOp40
 70
     1
102
RTVSPost2010Prop41ColorIndex
 90
       18
102
RTVSPost2010Prop41ColorRGB
 90
        0
102
RTVSPost2010PropOp41
 70
     1
102
RTVSPost2010Prop42
 90
       50
102
RTVSPost2010PropOp42
 70
     1
102
RTVSPost2010Prop43
 90
        3
102
RTVSPost2010PropOp43
 70
     1
102
RTVSPost2010Prop44ColorIndex
 90
        5
102
RTVSPost2010Prop44ColorRGB
 90
      255
102
RTVSPost2010PropOp44
 70
     1
102
RTVSPost2010Prop45
280
     0
102
RTVSPost2010PropOp45
 70
     1
102
RTVSPost2010Prop46
 90
       50
102
RTVSPost2010PropOp46
 70
     1
102
RTVSPost2010Prop47
 90
       50
102
RTVSPost2010PropOp47
 70
     1
102
RTVSPost2010Prop48
 90
       50
102
RTVSPost2010PropOp48
 70
     1
102
RTVSPost2010Prop49
280
     0
102
RTVSPost2010PropOp49
 70
     1
102
RTVSPost2010Prop50
 90
       50
102
RTVSPost2010PropOp50
 70
     1
102
RTVSPost2010Prop51ColorIndex
 90
      256
102
RTVSPost2010Prop51ColorRGB
 90
-16777216
102
RTVSPost2010PropOp51
 70
     0
102
RTVSPost2010Prop52
140
1.0
102
RTVSPost2010PropOp52
 70
     0
102
RTVSPost2010Prop53
 90
        2
102
RTVSPost2010PropOp53
 70
     1
102
RTVSPost2010Prop54
  1
strokes_ogs.tif
102
RTVSPost2010PropOp54
 70
     1
102
RTVSPost2010Prop55
280
     0
102
RTVSPost2010PropOp55
 70
     1
102
RTVSPost2010Prop56
140
1.0
102
RTVSPost2010PropOp56
 70
     1
102
RTVSPost2010Prop57
140
1.0
102
RTVSPost2010PropOp57
 70
     1
102
RTVSPropertyOp0
 70
     1
102
RTVSPropertyOp1
 70
     1
102
RTVSPropertyOp2
 70
     1
102
RTVSPropertyOp3
 70
     1
102
RTVSPropertyOp4
 70
     1
102
RTVSPropertyOp5
 70
     1
102
RTVSPropertyOp6
 70
     1
102
RTVSPropertyOp7
 70
     1
102
RTVSPropertyOp8
 70
     1
102
RTVSPropertyOp9
 70
     1
102
RTVSPropertyOp10
 70
     1
102
RTVSPropertyOp11
 70
     1
102
RTVSPropertyOp12
 70
     1
102
RTVSPropertyOp13
 70
     1
102
RTVSPropertyOp14
 70
     1
102
RTVSPropertyOp15
 70
     1
102
RTVSPropertyOp16
 70
     1
102
RTVSPropertyOp17
 70
     1
102
RTVSPropertyOp18
 70
     1
102
RTVSPropertyOp19
 70
     1
102
RTVSPropertyOp20
 70
     1
102
RTVSPropertyOp21
 70
     1
102
RTVSPropertyOp22
 70
     1
102
RTVSPropertyOp23
 70
     1
102
RTVSPropertyOp24
 70
     1
102
RTVSPropertyOp25
 70
     1
102
RTVSPropertyOp26
 70
     1
102
RTVSPropertyOp27
 70
     1
102
RTVSPropertyOp28
 70
     1
102
RTVSPropertyOp29
 70
     1
102
RTVSPropertyOp30
 70
     1
102
RTVSPropertyOp31
 70
     1
102
RTVSPropertyOp32
 70
     1
102
RTVSPropertyOp33
 70
     1
102
RTVSPropertyOp34
 70
     1
102
RTVSPropertyOp35
 70
     1
102
RTVSPropertyOp36
 70
     1
102
RTVSPropertyOp37
 70
     1
102
RTVSPropertyOp38
 70
     1
102
RTVSPropertyOp39
 70
     1
102
RTVSPropertyOp40
 70
     1
102
RTVSPropertyOp41
 70
     1
102
RTVSPropertyOp42
 70
     1
102
RTVSPropertyOp43
 70
     1
102
RTVSPropertyOp44
 70
     1
102
RTVSPropertyOp45
 70
     1
102
RTVSPropertyOp46
 70
     1
102
RTVSPropertyOp47
 70
     1
102
RTVSPropertyOp48
 70
     1
102
RTVSPropertyOp49
 70
     1
102
RTVSPropertyOp50
 70
     1
102
RTVSPropertyOp51
 70
     0
102
RTVSPropertyOp52
 70
     0
102
RTVSPropertyOp53
 70
     1
102
RTVSPropertyOp54
 70
     1
102
RTVSPropertyOp55
 70
     1
102
RTVSPropertyOp56
 70
     1
102
RTVSPropertyOp57
 70
     1
102
RTVSPropertyOp58
 70
     1
102
RTVSPropertyOp59
 70
     1
102
RTVSPropertyOp60
 70
     1
102
RTVSPropertyOp61
 70
     1
102
RTVSPropertyOp62
 70
     1
  0
XRECORD
  5
2C81D
102
{ACAD_REACTORS
330
2C81C
102
}
330
2C81C
100
AcDbXrecord
280
     1
102
RTVSPost2010Prop28
280
     0
102
RTVSPost2010PropOp28
 70
     1
102
RTVSPost2010Prop29
280
     1
102
RTVSPost2010PropOp29
 70
     1
102
RTVSPost2010Prop30
280
     1
102
RTVSPost2010PropOp30
 70
     1
102
RTVSPost2010Prop31
280
     0
102
RTVSPost2010PropOp31
 70
     1
102
RTVSPost2010Prop32
280
     0
102
RTVSPost2010PropOp32
 70
     1
102
RTVSPost2010Prop33
280
     0
102
RTVSPost2010PropOp33
 70
     1
102
RTVSPost2010Prop34
280
     0
102
RTVSPost2010PropOp34
 70
     1
102
RTVSPost2010Prop35
280
     0
102
RTVSPost2010PropOp35
 70
     1
102
RTVSPost2010Prop36
280
     0
102
RTVSPost2010PropOp36
 70
     1
102
RTVSPost2010Prop37
 90
       50
102
RTVSPost2010PropOp37
 70
     1
102
RTVSPost2010Prop38
140
0.0
102
RTVSPost2010PropOp38
 70
     1
102
RTVSPost2010Prop39
140
1.0
102
RTVSPost2010PropOp39
 70
     1
102
RTVSPost2010Prop40
 90
        0
102
RTVSPost2010PropOp40
 70
     1
102
RTVSPost2010Prop41ColorIndex
 90
       18
102
RTVSPost2010Prop41ColorRGB
 90
        0
102
RTVSPost2010PropOp41
 70
     1
102
RTVSPost2010Prop42
 90
       50
102
RTVSPost2010PropOp42
 70
     1
102
RTVSPost2010Prop43
 90
        3
102
RTVSPost2010PropOp43
 70
     1
102
RTVSPost2010Prop44ColorIndex
 90
        5
102
RTVSPost2010Prop44ColorRGB
 90
      255
102
RTVSPost2010PropOp44
 70
     1
102
RTVSPost2010Prop45
280
     0
102
RTVSPost2010PropOp45
 70
     1
102
RTVSPost2010Prop46
 90
       50
102
RTVSPost2010PropOp46
 70
     1
102
RTVSPost2010Prop47
 90
       50
102
RTVSPost2010PropOp47
 70
     1
102
RTVSPost2010Prop48
 90
       50
102
RTVSPost2010PropOp48
 70
     1
102
RTVSPost2010Prop49
280
     0
102
RTVSPost2010PropOp49
 70
     1
102
RTVSPost2010Prop50
 90
       50
102
RTVSPost2010PropOp50
 70
     1
102
RTVSPost2010Prop51ColorIndex
 90
      256
102
RTVSPost2010Prop51ColorRGB
 90
-16777216
102
RTVSPost2010PropOp51
 70
     0
102
RTVSPost2010Prop52
140
1.0
102
RTVSPost2010PropOp52
 70
     0
102
RTVSPost2010Prop53
 90
        2
102
RTVSPost2010PropOp53
 70
     1
102
RTVSPost2010Prop54
  1
strokes_ogs.tif
102
RTVSPost2010PropOp54
 70
     1
102
RTVSPost2010Prop55
280
     0
102
RTVSPost2010PropOp55
 70
     1
102
RTVSPost2010Prop56
140
1.0
102
RTVSPost2010PropOp56
 70
     1
102
RTVSPost2010Prop57
140
1.0
102
RTVSPost2010PropOp57
 70
     1
102
RTVSPropertyOp0
 70
     1
102
RTVSPropertyOp1
 70
     1
102
RTVSPropertyOp2
 70
     1
102
RTVSPropertyOp3
 70
     1
102
RTVSPropertyOp4
 70
     1
102
RTVSPropertyOp5
 70
     1
102
RTVSPropertyOp6
 70
     1
102
RTVSPropertyOp7
 70
     1
102
RTVSPropertyOp8
 70
     1
102
RTVSPropertyOp9
 70
     1
102
RTVSPropertyOp10
 70
     1
102
RTVSPropertyOp11
 70
     1
102
RTVSPropertyOp12
 70
     1
102
RTVSPropertyOp13
 70
     1
102
RTVSPropertyOp14
 70
     1
102
RTVSPropertyOp15
 70
     1
102
RTVSPropertyOp16
 70
     1
102
RTVSPropertyOp17
 70
     1
102
RTVSPropertyOp18
 70
     1
102
RTVSPropertyOp19
 70
     1
102
RTVSPropertyOp20
 70
     1
102
RTVSPropertyOp21
 70
     1
102
RTVSPropertyOp22
 70
     1
102
RTVSPropertyOp23
 70
     1
102
RTVSPropertyOp24
 70
     1
102
RTVSPropertyOp25
 70
     1
102
RTVSPropertyOp26
 70
     1
102
RTVSPropertyOp27
 70
     1
102
RTVSPropertyOp28
 70
     1
102
RTVSPropertyOp29
 70
     1
102
RTVSPropertyOp30
 70
     1
102
RTVSPropertyOp31
 70
     1
102
RTVSPropertyOp32
 70
     1
102
RTVSPropertyOp33
 70
     1
102
RTVSPropertyOp34
 70
     1
102
RTVSPropertyOp35
 70
     1
102
RTVSPropertyOp36
 70
     1
102
RTVSPropertyOp37
 70
     1
102
RTVSPropertyOp38
 70
     1
102
RTVSPropertyOp39
 70
     1
102
RTVSPropertyOp40
 70
     1
102
RTVSPropertyOp41
 70
     1
102
RTVSPropertyOp42
 70
     1
102
RTVSPropertyOp43
 70
     1
102
RTVSPropertyOp44
 70
     1
102
RTVSPropertyOp45
 70
     1
102
RTVSPropertyOp46
 70
     1
102
RTVSPropertyOp47
 70
     1
102
RTVSPropertyOp48
 70
     1
102
RTVSPropertyOp49
 70
     1
102
RTVSPropertyOp50
 70
     1
102
RTVSPropertyOp51
 70
     0
102
RTVSPropertyOp52
 70
     0
102
RTVSPropertyOp53
 70
     1
102
RTVSPropertyOp54
 70
     1
102
RTVSPropertyOp55
 70
     1
102
RTVSPropertyOp56
 70
     1
102
RTVSPropertyOp57
 70
     1
102
RTVSPropertyOp58
 70
     1
102
RTVSPropertyOp59
 70
     1
102
RTVSPropertyOp60
 70
     1
102
RTVSPropertyOp61
 70
     1
102
RTVSPropertyOp62
 70
     1
  0
XRECORD
  5
2C82F
102
{ACAD_REACTORS
330
2C82E
102
}
330
2C82E
100
AcDbXrecord
280
     1
102
RTVSPost2010Prop28
280
     0
102
RTVSPost2010PropOp28
 70
     1
102
RTVSPost2010Prop29
280
     1
102
RTVSPost2010PropOp29
 70
     1
102
RTVSPost2010Prop30
280
     1
102
RTVSPost2010PropOp30
 70
     1
102
RTVSPost2010Prop31
280
     0
102
RTVSPost2010PropOp31
 70
     1
102
RTVSPost2010Prop32
280
     0
102
RTVSPost2010PropOp32
 70
     1
102
RTVSPost2010Prop33
280
     0
102
RTVSPost2010PropOp33
 70
     1
102
RTVSPost2010Prop34
280
     0
102
RTVSPost2010PropOp34
 70
     1
102
RTVSPost2010Prop35
280
     0
102
RTVSPost2010PropOp35
 70
     1
102
RTVSPost2010Prop36
280
     0
102
RTVSPost2010PropOp36
 70
     1
102
RTVSPost2010Prop37
 90
       50
102
RTVSPost2010PropOp37
 70
     1
102
RTVSPost2010Prop38
140
0.0
102
RTVSPost2010PropOp38
 70
     1
102
RTVSPost2010Prop39
140
1.0
102
RTVSPost2010PropOp39
 70
     1
102
RTVSPost2010Prop40
 90
        0
102
RTVSPost2010PropOp40
 70
     1
102
RTVSPost2010Prop41ColorIndex
 90
       18
102
RTVSPost2010Prop41ColorRGB
 90
        0
102
RTVSPost2010PropOp41
 70
     1
102
RTVSPost2010Prop42
 90
       50
102
RTVSPost2010PropOp42
 70
     1
102
RTVSPost2010Prop43
 90
        3
102
RTVSPost2010PropOp43
 70
     1
102
RTVSPost2010Prop44ColorIndex
 90
        5
102
RTVSPost2010Prop44ColorRGB
 90
      255
102
RTVSPost2010PropOp44
 70
     1
102
RTVSPost2010Prop45
280
     0
102
RTVSPost2010PropOp45
 70
     1
102
RTVSPost2010Prop46
 90
       50
102
RTVSPost2010PropOp46
 70
     1
102
RTVSPost2010Prop47
 90
       50
102
RTVSPost2010PropOp47
 70
     1
102
RTVSPost2010Prop48
 90
       50
102
RTVSPost2010PropOp48
 70
     1
102
RTVSPost2010Prop49
280
     0
102
RTVSPost2010PropOp49
 70
     1
102
RTVSPost2010Prop50
 90
       50
102
RTVSPost2010PropOp50
 70
     1
102
RTVSPost2010Prop51ColorIndex
 90
      256
102
RTVSPost2010Prop51ColorRGB
 90
-16777216
102
RTVSPost2010PropOp51
 70
     0
102
RTVSPost2010Prop52
140
1.0
102
RTVSPost2010PropOp52
 70
     0
102
RTVSPost2010Prop53
 90
        2
102
RTVSPost2010PropOp53
 70
     1
102
RTVSPost2010Prop54
  1
strokes_ogs.tif
102
RTVSPost2010PropOp54
 70
     1
102
RTVSPost2010Prop55
280
     0
102
RTVSPost2010PropOp55
 70
     1
102
RTVSPost2010Prop56
140
1.0
102
RTVSPost2010PropOp56
 70
     1
102
RTVSPost2010Prop57
140
1.0
102
RTVSPost2010PropOp57
 70
     1
102
RTVSPropertyOp0
 70
     0
102
RTVSPropertyOp1
 70
     0
102
RTVSPropertyOp2
 70
     0
102
RTVSPropertyOp3
 70
     0
102
RTVSPropertyOp4
 70
     0
102
RTVSPropertyOp5
 70
     0
102
RTVSPropertyOp6
 70
     0
102
RTVSPropertyOp7
 70
     0
102
RTVSPropertyOp8
 70
     0
102
RTVSPropertyOp9
 70
     0
102
RTVSPropertyOp10
 70
     0
102
RTVSPropertyOp11
 70
     0
102
RTVSPropertyOp12
 70
     0
102
RTVSPropertyOp13
 70
     0
102
RTVSPropertyOp14
 70
     2
102
RTVSPropertyOp15
 70
     0
102
RTVSPropertyOp16
 70
     0
102
RTVSPropertyOp17
 70
     0
102
RTVSPropertyOp18
 70
     0
102
RTVSPropertyOp19
 70
     0
102
RTVSPropertyOp20
 70
     0
102
RTVSPropertyOp21
 70
     0
102
RTVSPropertyOp22
 70
     0
102
RTVSPropertyOp23
 70
     0
102
RTVSPropertyOp24
 70
     0
102
RTVSPropertyOp25
 70
     0
102
RTVSPropertyOp26
 70
     0
102
RTVSPropertyOp27
 70
     0
102
RTVSPropertyOp28
 70
     1
102
RTVSPropertyOp29
 70
     1
102
RTVSPropertyOp30
 70
     1
102
RTVSPropertyOp31
 70
     1
102
RTVSPropertyOp32
 70
     1
102
RTVSPropertyOp33
 70
     1
102
RTVSPropertyOp34
 70
     1
102
RTVSPropertyOp35
 70
     1
102
RTVSPropertyOp36
 70
     1
102
RTVSPropertyOp37
 70
     1
102
RTVSPropertyOp38
 70
     1
102
RTVSPropertyOp39
 70
     1
102
RTVSPropertyOp40
 70
     1
102
RTVSPropertyOp41
 70
     1
102
RTVSPropertyOp42
 70
     1
102
RTVSPropertyOp43
 70
     1
102
RTVSPropertyOp44
 70
     1
102
RTVSPropertyOp45
 70
     1
102
RTVSPropertyOp46
 70
     1
102
RTVSPropertyOp47
 70
     1
102
RTVSPropertyOp48
 70
     1
102
RTVSPropertyOp49
 70
     1
102
RTVSPropertyOp50
 70
     1
102
RTVSPropertyOp51
 70
     0
102
RTVSPropertyOp52
 70
     0
102
RTVSPropertyOp53
 70
     1
102
RTVSPropertyOp54
 70
     1
102
RTVSPropertyOp55
 70
     1
102
RTVSPropertyOp56
 70
     1
102
RTVSPropertyOp57
 70
     1
102
RTVSPropertyOp58
 70
     1
102
RTVSPropertyOp59
 70
     1
102
RTVSPropertyOp60
 70
     1
102
RTVSPropertyOp61
 70
     1
102
RTVSPropertyOp62
 70
     1
  0
XRECORD
  5
2C825
102
{ACAD_REACTORS
330
2C824
102
}
330
2C824
100
AcDbXrecord
280
     1
102
RTVSPost2010Prop28
280
     0
102
RTVSPost2010PropOp28
 70
     1
102
RTVSPost2010Prop29
280
     1
102
RTVSPost2010PropOp29
 70
     1
102
RTVSPost2010Prop30
280
     1
102
RTVSPost2010PropOp30
 70
     1
102
RTVSPost2010Prop31
280
     0
102
RTVSPost2010PropOp31
 70
     1
102
RTVSPost2010Prop32
280
     0
102
RTVSPost2010PropOp32
 70
     1
102
RTVSPost2010Prop33
280
     0
102
RTVSPost2010PropOp33
 70
     1
102
RTVSPost2010Prop34
280
     0
102
RTVSPost2010PropOp34
 70
     1
102
RTVSPost2010Prop35
280
     0
102
RTVSPost2010PropOp35
 70
     1
102
RTVSPost2010Prop36
280
     0
102
RTVSPost2010PropOp36
 70
     1
102
RTVSPost2010Prop37
 90
       50
102
RTVSPost2010PropOp37
 70
     1
102
RTVSPost2010Prop38
140
0.0
102
RTVSPost2010PropOp38
 70
     1
102
RTVSPost2010Prop39
140
1.0
102
RTVSPost2010PropOp39
 70
     1
102
RTVSPost2010Prop40
 90
        0
102
RTVSPost2010PropOp40
 70
     1
102
RTVSPost2010Prop41ColorIndex
 90
       18
102
RTVSPost2010Prop41ColorRGB
 90
        0
102
RTVSPost2010PropOp41
 70
     1
102
RTVSPost2010Prop42
 90
       50
102
RTVSPost2010PropOp42
 70
     1
102
RTVSPost2010Prop43
 90
        3
102
RTVSPost2010PropOp43
 70
     1
102
RTVSPost2010Prop44ColorIndex
 90
        5
102
RTVSPost2010Prop44ColorRGB
 90
      255
102
RTVSPost2010PropOp44
 70
     1
102
RTVSPost2010Prop45
280
     0
102
RTVSPost2010PropOp45
 70
     1
102
RTVSPost2010Prop46
 90
       50
102
RTVSPost2010PropOp46
 70
     1
102
RTVSPost2010Prop47
 90
       50
102
RTVSPost2010PropOp47
 70
     1
102
RTVSPost2010Prop48
 90
       50
102
RTVSPost2010PropOp48
 70
     1
102
RTVSPost2010Prop49
280
     0
102
RTVSPost2010PropOp49
 70
     1
102
RTVSPost2010Prop50
 90
       50
102
RTVSPost2010PropOp50
 70
     1
102
RTVSPost2010Prop51ColorIndex
 90
      256
102
RTVSPost2010Prop51ColorRGB
 90
-16777216
102
RTVSPost2010PropOp51
 70
     0
102
RTVSPost2010Prop52
140
1.0
102
RTVSPost2010PropOp52
 70
     0
102
RTVSPost2010Prop53
 90
        2
102
RTVSPost2010PropOp53
 70
     1
102
RTVSPost2010Prop54
  1
strokes_ogs.tif
102
RTVSPost2010PropOp54
 70
     1
102
RTVSPost2010Prop55
280
     0
102
RTVSPost2010PropOp55
 70
     1
102
RTVSPost2010Prop56
140
1.0
102
RTVSPost2010PropOp56
 70
     1
102
RTVSPost2010Prop57
140
1.0
102
RTVSPost2010PropOp57
 70
     1
102
RTVSPropertyOp0
 70
     1
102
RTVSPropertyOp1
 70
     1
102
RTVSPropertyOp2
 70
     1
102
RTVSPropertyOp3
 70
     1
102
RTVSPropertyOp4
 70
     1
102
RTVSPropertyOp5
 70
     1
102
RTVSPropertyOp6
 70
     1
102
RTVSPropertyOp7
 70
     1
102
RTVSPropertyOp8
 70
     1
102
RTVSPropertyOp9
 70
     1
102
RTVSPropertyOp10
 70
     1
102
RTVSPropertyOp11
 70
     1
102
RTVSPropertyOp12
 70
     1
102
RTVSPropertyOp13
 70
     1
102
RTVSPropertyOp14
 70
     1
102
RTVSPropertyOp15
 70
     1
102
RTVSPropertyOp16
 70
     1
102
RTVSPropertyOp17
 70
     1
102
RTVSPropertyOp18
 70
     1
102
RTVSPropertyOp19
 70
     1
102
RTVSPropertyOp20
 70
     1
102
RTVSPropertyOp21
 70
     1
102
RTVSPropertyOp22
 70
     1
102
RTVSPropertyOp23
 70
     1
102
RTVSPropertyOp24
 70
     1
102
RTVSPropertyOp25
 70
     1
102
RTVSPropertyOp26
 70
     1
102
RTVSPropertyOp27
 70
     1
102
RTVSPropertyOp28
 70
     1
102
RTVSPropertyOp29
 70
     1
102
RTVSPropertyOp30
 70
     1
102
RTVSPropertyOp31
 70
     1
102
RTVSPropertyOp32
 70
     1
102
RTVSPropertyOp33
 70
     1
102
RTVSPropertyOp34
 70
     1
102
RTVSPropertyOp35
 70
     1
102
RTVSPropertyOp36
 70
     1
102
RTVSPropertyOp37
 70
     1
102
RTVSPropertyOp38
 70
     1
102
RTVSPropertyOp39
 70
     1
102
RTVSPropertyOp40
 70
     1
102
RTVSPropertyOp41
 70
     1
102
RTVSPropertyOp42
 70
     1
102
RTVSPropertyOp43
 70
     1
102
RTVSPropertyOp44
 70
     1
102
RTVSPropertyOp45
 70
     1
102
RTVSPropertyOp46
 70
     1
102
RTVSPropertyOp47
 70
     1
102
RTVSPropertyOp48
 70
     1
102
RTVSPropertyOp49
 70
     1
102
RTVSPropertyOp50
 70
     1
102
RTVSPropertyOp51
 70
     0
102
RTVSPropertyOp52
 70
     0
102
RTVSPropertyOp53
 70
     1
102
RTVSPropertyOp54
 70
     1
102
RTVSPropertyOp55
 70
     1
102
RTVSPropertyOp56
 70
     1
102
RTVSPropertyOp57
 70
     1
102
RTVSPropertyOp58
 70
     1
102
RTVSPropertyOp59
 70
     1
102
RTVSPropertyOp60
 70
     1
102
RTVSPropertyOp61
 70
     1
102
RTVSPropertyOp62
 70
     1
  0
XRECORD
  5
2C809
102
{ACAD_REACTORS
330
2C808
102
}
330
2C808
100
AcDbXrecord
280
     1
102
RTVSPost2010Prop28
280
     0
102
RTVSPost2010PropOp28
 70
     1
102
RTVSPost2010Prop29
280
     1
102
RTVSPost2010PropOp29
 70
     1
102
RTVSPost2010Prop30
280
     1
102
RTVSPost2010PropOp30
 70
     1
102
RTVSPost2010Prop31
280
     0
102
RTVSPost2010PropOp31
 70
     1
102
RTVSPost2010Prop32
280
     0
102
RTVSPost2010PropOp32
 70
     1
102
RTVSPost2010Prop33
280
     0
102
RTVSPost2010PropOp33
 70
     1
102
RTVSPost2010Prop34
280
     0
102
RTVSPost2010PropOp34
 70
     1
102
RTVSPost2010Prop35
280
     0
102
RTVSPost2010PropOp35
 70
     1
102
RTVSPost2010Prop36
280
     0
102
RTVSPost2010PropOp36
 70
     1
102
RTVSPost2010Prop37
 90
       50
102
RTVSPost2010PropOp37
 70
     1
102
RTVSPost2010Prop38
140
0.0
102
RTVSPost2010PropOp38
 70
     1
102
RTVSPost2010Prop39
140
1.0
102
RTVSPost2010PropOp39
 70
     1
102
RTVSPost2010Prop40
 90
        0
102
RTVSPost2010PropOp40
 70
     1
102
RTVSPost2010Prop41ColorIndex
 90
       18
102
RTVSPost2010Prop41ColorRGB
 90
        0
102
RTVSPost2010PropOp41
 70
     1
102
RTVSPost2010Prop42
 90
       50
102
RTVSPost2010PropOp42
 70
     1
102
RTVSPost2010Prop43
 90
        3
102
RTVSPost2010PropOp43
 70
     1
102
RTVSPost2010Prop44ColorIndex
 90
        5
102
RTVSPost2010Prop44ColorRGB
 90
      255
102
RTVSPost2010PropOp44
 70
     1
102
RTVSPost2010Prop45
280
     0
102
RTVSPost2010PropOp45
 70
     1
102
RTVSPost2010Prop46
 90
       50
102
RTVSPost2010PropOp46
 70
     1
102
RTVSPost2010Prop47
 90
       50
102
RTVSPost2010PropOp47
 70
     1
102
RTVSPost2010Prop48
 90
       50
102
RTVSPost2010PropOp48
 70
     1
102
RTVSPost2010Prop49
280
     0
102
RTVSPost2010PropOp49
 70
     1
102
RTVSPost2010Prop50
 90
       50
102
RTVSPost2010PropOp50
 70
     1
102
RTVSPost2010Prop51ColorIndex
 90
      256
102
RTVSPost2010Prop51ColorRGB
 90
-16777216
102
RTVSPost2010PropOp51
 70
     0
102
RTVSPost2010Prop52
140
1.0
102
RTVSPost2010PropOp52
 70
     0
102
RTVSPost2010Prop53
 90
        2
102
RTVSPost2010PropOp53
 70
     1
102
RTVSPost2010Prop54
  1
strokes_ogs.tif
102
RTVSPost2010PropOp54
 70
     1
102
RTVSPost2010Prop55
280
     0
102
RTVSPost2010PropOp55
 70
     1
102
RTVSPost2010Prop56
140
1.0
102
RTVSPost2010PropOp56
 70
     1
102
RTVSPost2010Prop57
140
1.0
102
RTVSPost2010PropOp57
 70
     1
102
RTVSPropertyOp0
 70
     1
102
RTVSPropertyOp1
 70
     1
102
RTVSPropertyOp2
 70
     1
102
RTVSPropertyOp3
 70
     1
102
RTVSPropertyOp4
 70
     1
102
RTVSPropertyOp5
 70
     1
102
RTVSPropertyOp6
 70
     1
102
RTVSPropertyOp7
 70
     1
102
RTVSPropertyOp8
 70
     1
102
RTVSPropertyOp9
 70
     1
102
RTVSPropertyOp10
 70
     1
102
RTVSPropertyOp11
 70
     1
102
RTVSPropertyOp12
 70
     1
102
RTVSPropertyOp13
 70
     1
102
RTVSPropertyOp14
 70
     1
102
RTVSPropertyOp15
 70
     1
102
RTVSPropertyOp16
 70
     1
102
RTVSPropertyOp17
 70
     1
102
RTVSPropertyOp18
 70
     1
102
RTVSPropertyOp19
 70
     1
102
RTVSPropertyOp20
 70
     1
102
RTVSPropertyOp21
 70
     1
102
RTVSPropertyOp22
 70
     1
102
RTVSPropertyOp23
 70
     1
102
RTVSPropertyOp24
 70
     1
102
RTVSPropertyOp25
 70
     1
102
RTVSPropertyOp26
 70
     1
102
RTVSPropertyOp27
 70
     1
102
RTVSPropertyOp28
 70
     1
102
RTVSPropertyOp29
 70
     1
102
RTVSPropertyOp30
 70
     1
102
RTVSPropertyOp31
 70
     1
102
RTVSPropertyOp32
 70
     1
102
RTVSPropertyOp33
 70
     1
102
RTVSPropertyOp34
 70
     1
102
RTVSPropertyOp35
 70
     1
102
RTVSPropertyOp36
 70
     1
102
RTVSPropertyOp37
 70
     1
102
RTVSPropertyOp38
 70
     1
102
RTVSPropertyOp39
 70
     1
102
RTVSPropertyOp40
 70
     1
102
RTVSPropertyOp41
 70
     1
102
RTVSPropertyOp42
 70
     1
102
RTVSPropertyOp43
 70
     1
102
RTVSPropertyOp44
 70
     1
102
RTVSPropertyOp45
 70
     1
102
RTVSPropertyOp46
 70
     1
102
RTVSPropertyOp47
 70
     1
102
RTVSPropertyOp48
 70
     1
102
RTVSPropertyOp49
 70
     1
102
RTVSPropertyOp50
 70
     1
102
RTVSPropertyOp51
 70
     0
102
RTVSPropertyOp52
 70
     0
102
RTVSPropertyOp53
 70
     1
102
RTVSPropertyOp54
 70
     1
102
RTVSPropertyOp55
 70
     1
102
RTVSPropertyOp56
 70
     1
102
RTVSPropertyOp57
 70
     1
102
RTVSPropertyOp58
 70
     1
102
RTVSPropertyOp59
 70
     1
102
RTVSPropertyOp60
 70
     1
102
RTVSPropertyOp61
 70
     1
102
RTVSPropertyOp62
 70
     1
  0
XRECORD
  5
2C80B
102
{ACAD_REACTORS
330
2C80A
102
}
330
2C80A
100
AcDbXrecord
280
     1
102
RTVSPost2010Prop28
280
     0
102
RTVSPost2010PropOp28
 70
     1
102
RTVSPost2010Prop29
280
     1
102
RTVSPost2010PropOp29
 70
     1
102
RTVSPost2010Prop30
280
     1
102
RTVSPost2010PropOp30
 70
     1
102
RTVSPost2010Prop31
280
     0
102
RTVSPost2010PropOp31
 70
     1
102
RTVSPost2010Prop32
280
     0
102
RTVSPost2010PropOp32
 70
     1
102
RTVSPost2010Prop33
280
     0
102
RTVSPost2010PropOp33
 70
     1
102
RTVSPost2010Prop34
280
     0
102
RTVSPost2010PropOp34
 70
     1
102
RTVSPost2010Prop35
280
     0
102
RTVSPost2010PropOp35
 70
     1
102
RTVSPost2010Prop36
280
     0
102
RTVSPost2010PropOp36
 70
     1
102
RTVSPost2010Prop37
 90
       50
102
RTVSPost2010PropOp37
 70
     1
102
RTVSPost2010Prop38
140
0.0
102
RTVSPost2010PropOp38
 70
     1
102
RTVSPost2010Prop39
140
1.0
102
RTVSPost2010PropOp39
 70
     1
102
RTVSPost2010Prop40
 90
        0
102
RTVSPost2010PropOp40
 70
     1
102
RTVSPost2010Prop41ColorIndex
 90
       18
102
RTVSPost2010Prop41ColorRGB
 90
        0
102
RTVSPost2010PropOp41
 70
     1
102
RTVSPost2010Prop42
 90
       50
102
RTVSPost2010PropOp42
 70
     1
102
RTVSPost2010Prop43
 90
        3
102
RTVSPost2010PropOp43
 70
     1
102
RTVSPost2010Prop44ColorIndex
 90
        5
102
RTVSPost2010Prop44ColorRGB
 90
      255
102
RTVSPost2010PropOp44
 70
     1
102
RTVSPost2010Prop45
280
     0
102
RTVSPost2010PropOp45
 70
     1
102
RTVSPost2010Prop46
 90
       50
102
RTVSPost2010PropOp46
 70
     1
102
RTVSPost2010Prop47
 90
       50
102
RTVSPost2010PropOp47
 70
     1
102
RTVSPost2010Prop48
 90
       50
102
RTVSPost2010PropOp48
 70
     1
102
RTVSPost2010Prop49
280
     0
102
RTVSPost2010PropOp49
 70
     1
102
RTVSPost2010Prop50
 90
       50
102
RTVSPost2010PropOp50
 70
     1
102
RTVSPost2010Prop51ColorIndex
 90
      256
102
RTVSPost2010Prop51ColorRGB
 90
-16777216
102
RTVSPost2010PropOp51
 70
     0
102
RTVSPost2010Prop52
140
1.0
102
RTVSPost2010PropOp52
 70
     0
102
RTVSPost2010Prop53
 90
        2
102
RTVSPost2010PropOp53
 70
     1
102
RTVSPost2010Prop54
  1
strokes_ogs.tif
102
RTVSPost2010PropOp54
 70
     1
102
RTVSPost2010Prop55
280
     0
102
RTVSPost2010PropOp55
 70
     1
102
RTVSPost2010Prop56
140
1.0
102
RTVSPost2010PropOp56
 70
     1
102
RTVSPost2010Prop57
140
1.0
102
RTVSPost2010PropOp57
 70
     1
102
RTVSPropertyOp0
 70
     1
102
RTVSPropertyOp1
 70
     1
102
RTVSPropertyOp2
 70
     1
102
RTVSPropertyOp3
 70
     1
102
RTVSPropertyOp4
 70
     1
102
RTVSPropertyOp5
 70
     1
102
RTVSPropertyOp6
 70
     1
102
RTVSPropertyOp7
 70
     1
102
RTVSPropertyOp8
 70
     1
102
RTVSPropertyOp9
 70
     1
102
RTVSPropertyOp10
 70
     1
102
RTVSPropertyOp11
 70
     1
102
RTVSPropertyOp12
 70
     1
102
RTVSPropertyOp13
 70
     1
102
RTVSPropertyOp14
 70
     1
102
RTVSPropertyOp15
 70
     1
102
RTVSPropertyOp16
 70
     1
102
RTVSPropertyOp17
 70
     1
102
RTVSPropertyOp18
 70
     1
102
RTVSPropertyOp19
 70
     1
102
RTVSPropertyOp20
 70
     1
102
RTVSPropertyOp21
 70
     1
102
RTVSPropertyOp22
 70
     1
102
RTVSPropertyOp23
 70
     1
102
RTVSPropertyOp24
 70
     1
102
RTVSPropertyOp25
 70
     1
102
RTVSPropertyOp26
 70
     1
102
RTVSPropertyOp27
 70
     1
102
RTVSPropertyOp28
 70
     1
102
RTVSPropertyOp29
 70
     1
102
RTVSPropertyOp30
 70
     1
102
RTVSPropertyOp31
 70
     1
102
RTVSPropertyOp32
 70
     1
102
RTVSPropertyOp33
 70
     1
102
RTVSPropertyOp34
 70
     1
102
RTVSPropertyOp35
 70
     1
102
RTVSPropertyOp36
 70
     1
102
RTVSPropertyOp37
 70
     1
102
RTVSPropertyOp38
 70
     1
102
RTVSPropertyOp39
 70
     1
102
RTVSPropertyOp40
 70
     1
102
RTVSPropertyOp41
 70
     1
102
RTVSPropertyOp42
 70
     1
102
RTVSPropertyOp43
 70
     1
102
RTVSPropertyOp44
 70
     1
102
RTVSPropertyOp45
 70
     1
102
RTVSPropertyOp46
 70
     1
102
RTVSPropertyOp47
 70
     1
102
RTVSPropertyOp48
 70
     1
102
RTVSPropertyOp49
 70
     1
102
RTVSPropertyOp50
 70
     1
102
RTVSPropertyOp51
 70
     0
102
RTVSPropertyOp52
 70
     0
102
RTVSPropertyOp53
 70
     1
102
RTVSPropertyOp54
 70
     1
102
RTVSPropertyOp55
 70
     1
102
RTVSPropertyOp56
 70
     1
102
RTVSPropertyOp57
 70
     1
102
RTVSPropertyOp58
 70
     1
102
RTVSPropertyOp59
 70
     1
102
RTVSPropertyOp60
 70
     1
102
RTVSPropertyOp61
 70
     1
102
RTVSPropertyOp62
 70
     1
  0
XRECORD
  5
2C80D
102
{ACAD_REACTORS
330
2C80C
102
}
330
2C80C
100
AcDbXrecord
280
     1
102
RTVSPost2010Prop28
280
     0
102
RTVSPost2010PropOp28
 70
     1
102
RTVSPost2010Prop29
280
     1
102
RTVSPost2010PropOp29
 70
     1
102
RTVSPost2010Prop30
280
     1
102
RTVSPost2010PropOp30
 70
     1
102
RTVSPost2010Prop31
280
     0
102
RTVSPost2010PropOp31
 70
     1
102
RTVSPost2010Prop32
280
     0
102
RTVSPost2010PropOp32
 70
     1
102
RTVSPost2010Prop33
280
     0
102
RTVSPost2010PropOp33
 70
     1
102
RTVSPost2010Prop34
280
     0
102
RTVSPost2010PropOp34
 70
     1
102
RTVSPost2010Prop35
280
     0
102
RTVSPost2010PropOp35
 70
     1
102
RTVSPost2010Prop36
280
     0
102
RTVSPost2010PropOp36
 70
     1
102
RTVSPost2010Prop37
 90
       50
102
RTVSPost2010PropOp37
 70
     1
102
RTVSPost2010Prop38
140
0.0
102
RTVSPost2010PropOp38
 70
     1
102
RTVSPost2010Prop39
140
1.0
102
RTVSPost2010PropOp39
 70
     1
102
RTVSPost2010Prop40
 90
        0
102
RTVSPost2010PropOp40
 70
     1
102
RTVSPost2010Prop41ColorIndex
 90
       18
102
RTVSPost2010Prop41ColorRGB
 90
        0
102
RTVSPost2010PropOp41
 70
     1
102
RTVSPost2010Prop42
 90
       50
102
RTVSPost2010PropOp42
 70
     1
102
RTVSPost2010Prop43
 90
        3
102
RTVSPost2010PropOp43
 70
     1
102
RTVSPost2010Prop44ColorIndex
 90
        5
102
RTVSPost2010Prop44ColorRGB
 90
      255
102
RTVSPost2010PropOp44
 70
     1
102
RTVSPost2010Prop45
280
     0
102
RTVSPost2010PropOp45
 70
     1
102
RTVSPost2010Prop46
 90
       50
102
RTVSPost2010PropOp46
 70
     1
102
RTVSPost2010Prop47
 90
       50
102
RTVSPost2010PropOp47
 70
     1
102
RTVSPost2010Prop48
 90
       50
102
RTVSPost2010PropOp48
 70
     1
102
RTVSPost2010Prop49
280
     0
102
RTVSPost2010PropOp49
 70
     1
102
RTVSPost2010Prop50
 90
       50
102
RTVSPost2010PropOp50
 70
     1
102
RTVSPost2010Prop51ColorIndex
 90
      256
102
RTVSPost2010Prop51ColorRGB
 90
-16777216
102
RTVSPost2010PropOp51
 70
     0
102
RTVSPost2010Prop52
140
1.0
102
RTVSPost2010PropOp52
 70
     0
102
RTVSPost2010Prop53
 90
        2
102
RTVSPost2010PropOp53
 70
     1
102
RTVSPost2010Prop54
  1
strokes_ogs.tif
102
RTVSPost2010PropOp54
 70
     1
102
RTVSPost2010Prop55
280
     0
102
RTVSPost2010PropOp55
 70
     1
102
RTVSPost2010Prop56
140
1.0
102
RTVSPost2010PropOp56
 70
     1
102
RTVSPost2010Prop57
140
1.0
102
RTVSPost2010PropOp57
 70
     1
102
RTVSPropertyOp0
 70
     1
102
RTVSPropertyOp1
 70
     1
102
RTVSPropertyOp2
 70
     1
102
RTVSPropertyOp3
 70
     1
102
RTVSPropertyOp4
 70
     1
102
RTVSPropertyOp5
 70
     1
102
RTVSPropertyOp6
 70
     1
102
RTVSPropertyOp7
 70
     1
102
RTVSPropertyOp8
 70
     1
102
RTVSPropertyOp9
 70
     1
102
RTVSPropertyOp10
 70
     1
102
RTVSPropertyOp11
 70
     1
102
RTVSPropertyOp12
 70
     1
102
RTVSPropertyOp13
 70
     1
102
RTVSPropertyOp14
 70
     1
102
RTVSPropertyOp15
 70
     1
102
RTVSPropertyOp16
 70
     1
102
RTVSPropertyOp17
 70
     1
102
RTVSPropertyOp18
 70
     1
102
RTVSPropertyOp19
 70
     1
102
RTVSPropertyOp20
 70
     1
102
RTVSPropertyOp21
 70
     1
102
RTVSPropertyOp22
 70
     1
102
RTVSPropertyOp23
 70
     1
102
RTVSPropertyOp24
 70
     1
102
RTVSPropertyOp25
 70
     1
102
RTVSPropertyOp26
 70
     1
102
RTVSPropertyOp27
 70
     1
102
RTVSPropertyOp28
 70
     1
102
RTVSPropertyOp29
 70
     1
102
RTVSPropertyOp30
 70
     1
102
RTVSPropertyOp31
 70
     1
102
RTVSPropertyOp32
 70
     1
102
RTVSPropertyOp33
 70
     1
102
RTVSPropertyOp34
 70
     1
102
RTVSPropertyOp35
 70
     1
102
RTVSPropertyOp36
 70
     1
102
RTVSPropertyOp37
 70
     1
102
RTVSPropertyOp38
 70
     1
102
RTVSPropertyOp39
 70
     1
102
RTVSPropertyOp40
 70
     1
102
RTVSPropertyOp41
 70
     1
102
RTVSPropertyOp42
 70
     1
102
RTVSPropertyOp43
 70
     1
102
RTVSPropertyOp44
 70
     1
102
RTVSPropertyOp45
 70
     1
102
RTVSPropertyOp46
 70
     1
102
RTVSPropertyOp47
 70
     1
102
RTVSPropertyOp48
 70
     1
102
RTVSPropertyOp49
 70
     1
102
RTVSPropertyOp50
 70
     1
102
RTVSPropertyOp51
 70
     0
102
RTVSPropertyOp52
 70
     0
102
RTVSPropertyOp53
 70
     1
102
RTVSPropertyOp54
 70
     1
102
RTVSPropertyOp55
 70
     1
102
RTVSPropertyOp56
 70
     1
102
RTVSPropertyOp57
 70
     1
102
RTVSPropertyOp58
 70
     1
102
RTVSPropertyOp59
 70
     1
102
RTVSPropertyOp60
 70
     1
102
RTVSPropertyOp61
 70
     1
102
RTVSPropertyOp62
 70
     1
  0
XRECORD
  5
2C80F
102
{ACAD_REACTORS
330
2C80E
102
}
330
2C80E
100
AcDbXrecord
280
     1
102
RTVSPost2010Prop28
280
     0
102
RTVSPost2010PropOp28
 70
     1
102
RTVSPost2010Prop29
280
     1
102
RTVSPost2010PropOp29
 70
     1
102
RTVSPost2010Prop30
280
     1
102
RTVSPost2010PropOp30
 70
     1
102
RTVSPost2010Prop31
280
     0
102
RTVSPost2010PropOp31
 70
     1
102
RTVSPost2010Prop32
280
     0
102
RTVSPost2010PropOp32
 70
     1
102
RTVSPost2010Prop33
280
     0
102
RTVSPost2010PropOp33
 70
     1
102
RTVSPost2010Prop34
280
     0
102
RTVSPost2010PropOp34
 70
     1
102
RTVSPost2010Prop35
280
     0
102
RTVSPost2010PropOp35
 70
     1
102
RTVSPost2010Prop36
280
     0
102
RTVSPost2010PropOp36
 70
     1
102
RTVSPost2010Prop37
 90
       50
102
RTVSPost2010PropOp37
 70
     1
102
RTVSPost2010Prop38
140
0.0
102
RTVSPost2010PropOp38
 70
     1
102
RTVSPost2010Prop39
140
1.0
102
RTVSPost2010PropOp39
 70
     1
102
RTVSPost2010Prop40
 90
        0
102
RTVSPost2010PropOp40
 70
     1
102
RTVSPost2010Prop41ColorIndex
 90
       18
102
RTVSPost2010Prop41ColorRGB
 90
        0
102
RTVSPost2010PropOp41
 70
     1
102
RTVSPost2010Prop42
 90
       50
102
RTVSPost2010PropOp42
 70
     1
102
RTVSPost2010Prop43
 90
        3
102
RTVSPost2010PropOp43
 70
     1
102
RTVSPost2010Prop44ColorIndex
 90
        5
102
RTVSPost2010Prop44ColorRGB
 90
      255
102
RTVSPost2010PropOp44
 70
     1
102
RTVSPost2010Prop45
280
     0
102
RTVSPost2010PropOp45
 70
     1
102
RTVSPost2010Prop46
 90
       50
102
RTVSPost2010PropOp46
 70
     1
102
RTVSPost2010Prop47
 90
       50
102
RTVSPost2010PropOp47
 70
     1
102
RTVSPost2010Prop48
 90
       50
102
RTVSPost2010PropOp48
 70
     1
102
RTVSPost2010Prop49
280
     0
102
RTVSPost2010PropOp49
 70
     1
102
RTVSPost2010Prop50
 90
       50
102
RTVSPost2010PropOp50
 70
     1
102
RTVSPost2010Prop51ColorIndex
 90
      256
102
RTVSPost2010Prop51ColorRGB
 90
-16777216
102
RTVSPost2010PropOp51
 70
     0
102
RTVSPost2010Prop52
140
1.0
102
RTVSPost2010PropOp52
 70
     0
102
RTVSPost2010Prop53
 90
        2
102
RTVSPost2010PropOp53
 70
     1
102
RTVSPost2010Prop54
  1
strokes_ogs.tif
102
RTVSPost2010PropOp54
 70
     1
102
RTVSPost2010Prop55
280
     0
102
RTVSPost2010PropOp55
 70
     1
102
RTVSPost2010Prop56
140
1.0
102
RTVSPost2010PropOp56
 70
     1
102
RTVSPost2010Prop57
140
1.0
102
RTVSPost2010PropOp57
 70
     1
102
RTVSPropertyOp0
 70
     1
102
RTVSPropertyOp1
 70
     1
102
RTVSPropertyOp2
 70
     1
102
RTVSPropertyOp3
 70
     1
102
RTVSPropertyOp4
 70
     1
102
RTVSPropertyOp5
 70
     1
102
RTVSPropertyOp6
 70
     1
102
RTVSPropertyOp7
 70
     1
102
RTVSPropertyOp8
 70
     1
102
RTVSPropertyOp9
 70
     1
102
RTVSPropertyOp10
 70
     1
102
RTVSPropertyOp11
 70
     1
102
RTVSPropertyOp12
 70
     1
102
RTVSPropertyOp13
 70
     1
102
RTVSPropertyOp14
 70
     1
102
RTVSPropertyOp15
 70
     1
102
RTVSPropertyOp16
 70
     1
102
RTVSPropertyOp17
 70
     1
102
RTVSPropertyOp18
 70
     1
102
RTVSPropertyOp19
 70
     1
102
RTVSPropertyOp20
 70
     1
102
RTVSPropertyOp21
 70
     1
102
RTVSPropertyOp22
 70
     1
102
RTVSPropertyOp23
 70
     1
102
RTVSPropertyOp24
 70
     1
102
RTVSPropertyOp25
 70
     1
102
RTVSPropertyOp26
 70
     1
102
RTVSPropertyOp27
 70
     1
102
RTVSPropertyOp28
 70
     1
102
RTVSPropertyOp29
 70
     1
102
RTVSPropertyOp30
 70
     1
102
RTVSPropertyOp31
 70
     1
102
RTVSPropertyOp32
 70
     1
102
RTVSPropertyOp33
 70
     1
102
RTVSPropertyOp34
 70
     1
102
RTVSPropertyOp35
 70
     1
102
RTVSPropertyOp36
 70
     1
102
RTVSPropertyOp37
 70
     1
102
RTVSPropertyOp38
 70
     1
102
RTVSPropertyOp39
 70
     1
102
RTVSPropertyOp40
 70
     1
102
RTVSPropertyOp41
 70
     1
102
RTVSPropertyOp42
 70
     1
102
RTVSPropertyOp43
 70
     1
102
RTVSPropertyOp44
 70
     1
102
RTVSPropertyOp45
 70
     1
102
RTVSPropertyOp46
 70
     1
102
RTVSPropertyOp47
 70
     1
102
RTVSPropertyOp48
 70
     1
102
RTVSPropertyOp49
 70
     1
102
RTVSPropertyOp50
 70
     1
102
RTVSPropertyOp51
 70
     0
102
RTVSPropertyOp52
 70
     0
102
RTVSPropertyOp53
 70
     1
102
RTVSPropertyOp54
 70
     1
102
RTVSPropertyOp55
 70
     1
102
RTVSPropertyOp56
 70
     1
102
RTVSPropertyOp57
 70
     1
102
RTVSPropertyOp58
 70
     1
102
RTVSPropertyOp59
 70
     1
102
RTVSPropertyOp60
 70
     1
102
RTVSPropertyOp61
 70
     1
102
RTVSPropertyOp62
 70
     1
  0
XRECORD
  5
2C817
102
{ACAD_REACTORS
330
2C816
102
}
330
2C816
100
AcDbXrecord
280
     1
102
RTVSPost2010Prop28
280
     0
102
RTVSPost2010PropOp28
 70
     1
102
RTVSPost2010Prop29
280
     1
102
RTVSPost2010PropOp29
 70
     1
102
RTVSPost2010Prop30
280
     1
102
RTVSPost2010PropOp30
 70
     1
102
RTVSPost2010Prop31
280
     0
102
RTVSPost2010PropOp31
 70
     1
102
RTVSPost2010Prop32
280
     0
102
RTVSPost2010PropOp32
 70
     1
102
RTVSPost2010Prop33
280
     0
102
RTVSPost2010PropOp33
 70
     1
102
RTVSPost2010Prop34
280
     0
102
RTVSPost2010PropOp34
 70
     1
102
RTVSPost2010Prop35
280
     0
102
RTVSPost2010PropOp35
 70
     1
102
RTVSPost2010Prop36
280
     0
102
RTVSPost2010PropOp36
 70
     1
102
RTVSPost2010Prop37
 90
       50
102
RTVSPost2010PropOp37
 70
     1
102
RTVSPost2010Prop38
140
0.0
102
RTVSPost2010PropOp38
 70
     1
102
RTVSPost2010Prop39
140
1.0
102
RTVSPost2010PropOp39
 70
     1
102
RTVSPost2010Prop40
 90
        0
102
RTVSPost2010PropOp40
 70
     1
102
RTVSPost2010Prop41ColorIndex
 90
       18
102
RTVSPost2010Prop41ColorRGB
 90
        0
102
RTVSPost2010PropOp41
 70
     1
102
RTVSPost2010Prop42
 90
       50
102
RTVSPost2010PropOp42
 70
     1
102
RTVSPost2010Prop43
 90
        3
102
RTVSPost2010PropOp43
 70
     1
102
RTVSPost2010Prop44ColorIndex
 90
        5
102
RTVSPost2010Prop44ColorRGB
 90
      255
102
RTVSPost2010PropOp44
 70
     1
102
RTVSPost2010Prop45
280
     0
102
RTVSPost2010PropOp45
 70
     1
102
RTVSPost2010Prop46
 90
       50
102
RTVSPost2010PropOp46
 70
     1
102
RTVSPost2010Prop47
 90
       50
102
RTVSPost2010PropOp47
 70
     1
102
RTVSPost2010Prop48
 90
       50
102
RTVSPost2010PropOp48
 70
     1
102
RTVSPost2010Prop49
280
     0
102
RTVSPost2010PropOp49
 70
     1
102
RTVSPost2010Prop50
 90
       50
102
RTVSPost2010PropOp50
 70
     1
102
RTVSPost2010Prop51ColorIndex
 90
      256
102
RTVSPost2010Prop51ColorRGB
 90
-16777216
102
RTVSPost2010PropOp51
 70
     0
102
RTVSPost2010Prop52
140
1.0
102
RTVSPost2010PropOp52
 70
     0
102
RTVSPost2010Prop53
 90
        2
102
RTVSPost2010PropOp53
 70
     1
102
RTVSPost2010Prop54
  1
strokes_ogs.tif
102
RTVSPost2010PropOp54
 70
     1
102
RTVSPost2010Prop55
280
     0
102
RTVSPost2010PropOp55
 70
     1
102
RTVSPost2010Prop56
140
1.0
102
RTVSPost2010PropOp56
 70
     1
102
RTVSPost2010Prop57
140
1.0
102
RTVSPost2010PropOp57
 70
     1
102
RTVSPropertyOp0
 70
     1
102
RTVSPropertyOp1
 70
     1
102
RTVSPropertyOp2
 70
     1
102
RTVSPropertyOp3
 70
     1
102
RTVSPropertyOp4
 70
     1
102
RTVSPropertyOp5
 70
     1
102
RTVSPropertyOp6
 70
     1
102
RTVSPropertyOp7
 70
     1
102
RTVSPropertyOp8
 70
     1
102
RTVSPropertyOp9
 70
     1
102
RTVSPropertyOp10
 70
     1
102
RTVSPropertyOp11
 70
     1
102
RTVSPropertyOp12
 70
     1
102
RTVSPropertyOp13
 70
     1
102
RTVSPropertyOp14
 70
     1
102
RTVSPropertyOp15
 70
     1
102
RTVSPropertyOp16
 70
     1
102
RTVSPropertyOp17
 70
     1
102
RTVSPropertyOp18
 70
     1
102
RTVSPropertyOp19
 70
     1
102
RTVSPropertyOp20
 70
     1
102
RTVSPropertyOp21
 70
     1
102
RTVSPropertyOp22
 70
     1
102
RTVSPropertyOp23
 70
     1
102
RTVSPropertyOp24
 70
     1
102
RTVSPropertyOp25
 70
     1
102
RTVSPropertyOp26
 70
     1
102
RTVSPropertyOp27
 70
     1
102
RTVSPropertyOp28
 70
     1
102
RTVSPropertyOp29
 70
     1
102
RTVSPropertyOp30
 70
     1
102
RTVSPropertyOp31
 70
     1
102
RTVSPropertyOp32
 70
     1
102
RTVSPropertyOp33
 70
     1
102
RTVSPropertyOp34
 70
     1
102
RTVSPropertyOp35
 70
     1
102
RTVSPropertyOp36
 70
     1
102
RTVSPropertyOp37
 70
     1
102
RTVSPropertyOp38
 70
     1
102
RTVSPropertyOp39
 70
     1
102
RTVSPropertyOp40
 70
     1
102
RTVSPropertyOp41
 70
     1
102
RTVSPropertyOp42
 70
     1
102
RTVSPropertyOp43
 70
     1
102
RTVSPropertyOp44
 70
     1
102
RTVSPropertyOp45
 70
     1
102
RTVSPropertyOp46
 70
     1
102
RTVSPropertyOp47
 70
     1
102
RTVSPropertyOp48
 70
     1
102
RTVSPropertyOp49
 70
     1
102
RTVSPropertyOp50
 70
     1
102
RTVSPropertyOp51
 70
     0
102
RTVSPropertyOp52
 70
     0
102
RTVSPropertyOp53
 70
     1
102
RTVSPropertyOp54
 70
     1
102
RTVSPropertyOp55
 70
     1
102
RTVSPropertyOp56
 70
     1
102
RTVSPropertyOp57
 70
     1
102
RTVSPropertyOp58
 70
     1
102
RTVSPropertyOp59
 70
     1
102
RTVSPropertyOp60
 70
     1
102
RTVSPropertyOp61
 70
     1
102
RTVSPropertyOp62
 70
     1
  0
XRECORD
  5
2C82B
102
{ACAD_REACTORS
330
2C82A
102
}
330
2C82A
100
AcDbXrecord
280
     1
102
RTVSPost2010Prop28
280
     0
102
RTVSPost2010PropOp28
 70
     1
102
RTVSPost2010Prop29
280
     1
102
RTVSPost2010PropOp29
 70
     1
102
RTVSPost2010Prop30
280
     1
102
RTVSPost2010PropOp30
 70
     1
102
RTVSPost2010Prop31
280
     0
102
RTVSPost2010PropOp31
 70
     1
102
RTVSPost2010Prop32
280
     0
102
RTVSPost2010PropOp32
 70
     1
102
RTVSPost2010Prop33
280
     0
102
RTVSPost2010PropOp33
 70
     1
102
RTVSPost2010Prop34
280
     0
102
RTVSPost2010PropOp34
 70
     1
102
RTVSPost2010Prop35
280
     0
102
RTVSPost2010PropOp35
 70
     1
102
RTVSPost2010Prop36
280
     0
102
RTVSPost2010PropOp36
 70
     1
102
RTVSPost2010Prop37
 90
       50
102
RTVSPost2010PropOp37
 70
     1
102
RTVSPost2010Prop38
140
0.0
102
RTVSPost2010PropOp38
 70
     1
102
RTVSPost2010Prop39
140
1.0
102
RTVSPost2010PropOp39
 70
     1
102
RTVSPost2010Prop40
 90
        0
102
RTVSPost2010PropOp40
 70
     1
102
RTVSPost2010Prop41ColorIndex
 90
       18
102
RTVSPost2010Prop41ColorRGB
 90
        0
102
RTVSPost2010PropOp41
 70
     1
102
RTVSPost2010Prop42
 90
       50
102
RTVSPost2010PropOp42
 70
     1
102
RTVSPost2010Prop43
 90
        3
102
RTVSPost2010PropOp43
 70
     1
102
RTVSPost2010Prop44ColorIndex
 90
        5
102
RTVSPost2010Prop44ColorRGB
 90
      255
102
RTVSPost2010PropOp44
 70
     1
102
RTVSPost2010Prop45
280
     0
102
RTVSPost2010PropOp45
 70
     1
102
RTVSPost2010Prop46
 90
       50
102
RTVSPost2010PropOp46
 70
     1
102
RTVSPost2010Prop47
 90
       50
102
RTVSPost2010PropOp47
 70
     1
102
RTVSPost2010Prop48
 90
       50
102
RTVSPost2010PropOp48
 70
     1
102
RTVSPost2010Prop49
280
     0
102
RTVSPost2010PropOp49
 70
     1
102
RTVSPost2010Prop50
 90
       50
102
RTVSPost2010PropOp50
 70
     1
102
RTVSPost2010Prop51ColorIndex
 90
      256
102
RTVSPost2010Prop51ColorRGB
 90
-16777216
102
RTVSPost2010PropOp51
 70
     0
102
RTVSPost2010Prop52
140
1.0
102
RTVSPost2010PropOp52
 70
     0
102
RTVSPost2010Prop53
 90
        2
102
RTVSPost2010PropOp53
 70
     1
102
RTVSPost2010Prop54
  1
strokes_ogs.tif
102
RTVSPost2010PropOp54
 70
     1
102
RTVSPost2010Prop55
280
     0
102
RTVSPost2010PropOp55
 70
     1
102
RTVSPost2010Prop56
140
1.0
102
RTVSPost2010PropOp56
 70
     1
102
RTVSPost2010Prop57
140
1.0
102
RTVSPost2010PropOp57
 70
     1
102
RTVSPropertyOp0
 70
     0
102
RTVSPropertyOp1
 70
     0
102
RTVSPropertyOp2
 70
     0
102
RTVSPropertyOp3
 70
     0
102
RTVSPropertyOp4
 70
     0
102
RTVSPropertyOp5
 70
     0
102
RTVSPropertyOp6
 70
     0
102
RTVSPropertyOp7
 70
     0
102
RTVSPropertyOp8
 70
     0
102
RTVSPropertyOp9
 70
     0
102
RTVSPropertyOp10
 70
     0
102
RTVSPropertyOp11
 70
     0
102
RTVSPropertyOp12
 70
     0
102
RTVSPropertyOp13
 70
     0
102
RTVSPropertyOp14
 70
     2
102
RTVSPropertyOp15
 70
     0
102
RTVSPropertyOp16
 70
     0
102
RTVSPropertyOp17
 70
     0
102
RTVSPropertyOp18
 70
     0
102
RTVSPropertyOp19
 70
     0
102
RTVSPropertyOp20
 70
     0
102
RTVSPropertyOp21
 70
     0
102
RTVSPropertyOp22
 70
     0
102
RTVSPropertyOp23
 70
     0
102
RTVSPropertyOp24
 70
     0
102
RTVSPropertyOp25
 70
     0
102
RTVSPropertyOp26
 70
     0
102
RTVSPropertyOp27
 70
     0
102
RTVSPropertyOp28
 70
     1
102
RTVSPropertyOp29
 70
     1
102
RTVSPropertyOp30
 70
     1
102
RTVSPropertyOp31
 70
     1
102
RTVSPropertyOp32
 70
     1
102
RTVSPropertyOp33
 70
     1
102
RTVSPropertyOp34
 70
     1
102
RTVSPropertyOp35
 70
     1
102
RTVSPropertyOp36
 70
     1
102
RTVSPropertyOp37
 70
     1
102
RTVSPropertyOp38
 70
     1
102
RTVSPropertyOp39
 70
     1
102
RTVSPropertyOp40
 70
     1
102
RTVSPropertyOp41
 70
     1
102
RTVSPropertyOp42
 70
     1
102
RTVSPropertyOp43
 70
     1
102
RTVSPropertyOp44
 70
     1
102
RTVSPropertyOp45
 70
     1
102
RTVSPropertyOp46
 70
     1
102
RTVSPropertyOp47
 70
     1
102
RTVSPropertyOp48
 70
     1
102
RTVSPropertyOp49
 70
     1
102
RTVSPropertyOp50
 70
     1
102
RTVSPropertyOp51
 70
     0
102
RTVSPropertyOp52
 70
     0
102
RTVSPropertyOp53
 70
     1
102
RTVSPropertyOp54
 70
     1
102
RTVSPropertyOp55
 70
     1
102
RTVSPropertyOp56
 70
     1
102
RTVSPropertyOp57
 70
     1
102
RTVSPropertyOp58
 70
     1
102
RTVSPropertyOp59
 70
     1
102
RTVSPropertyOp60
 70
     1
102
RTVSPropertyOp61
 70
     1
102
RTVSPropertyOp62
 70
     1
  0
XRECORD
  5
2C823
102
{ACAD_REACTORS
330
2C822
102
}
330
2C822
100
AcDbXrecord
280
     1
102
RTVSPost2010Prop28
280
     0
102
RTVSPost2010PropOp28
 70
     1
102
RTVSPost2010Prop29
280
     1
102
RTVSPost2010PropOp29
 70
     1
102
RTVSPost2010Prop30
280
     1
102
RTVSPost2010PropOp30
 70
     1
102
RTVSPost2010Prop31
280
     0
102
RTVSPost2010PropOp31
 70
     1
102
RTVSPost2010Prop32
280
     0
102
RTVSPost2010PropOp32
 70
     1
102
RTVSPost2010Prop33
280
     0
102
RTVSPost2010PropOp33
 70
     1
102
RTVSPost2010Prop34
280
     0
102
RTVSPost2010PropOp34
 70
     1
102
RTVSPost2010Prop35
280
     0
102
RTVSPost2010PropOp35
 70
     1
102
RTVSPost2010Prop36
280
     0
102
RTVSPost2010PropOp36
 70
     1
102
RTVSPost2010Prop37
 90
       50
102
RTVSPost2010PropOp37
 70
     1
102
RTVSPost2010Prop38
140
0.0
102
RTVSPost2010PropOp38
 70
     1
102
RTVSPost2010Prop39
140
1.0
102
RTVSPost2010PropOp39
 70
     1
102
RTVSPost2010Prop40
 90
        0
102
RTVSPost2010PropOp40
 70
     1
102
RTVSPost2010Prop41ColorIndex
 90
       18
102
RTVSPost2010Prop41ColorRGB
 90
        0
102
RTVSPost2010PropOp41
 70
     1
102
RTVSPost2010Prop42
 90
       50
102
RTVSPost2010PropOp42
 70
     1
102
RTVSPost2010Prop43
 90
        3
102
RTVSPost2010PropOp43
 70
     1
102
RTVSPost2010Prop44ColorIndex
 90
        5
102
RTVSPost2010Prop44ColorRGB
 90
      255
102
RTVSPost2010PropOp44
 70
     1
102
RTVSPost2010Prop45
280
     0
102
RTVSPost2010PropOp45
 70
     1
102
RTVSPost2010Prop46
 90
       50
102
RTVSPost2010PropOp46
 70
     1
102
RTVSPost2010Prop47
 90
       50
102
RTVSPost2010PropOp47
 70
     1
102
RTVSPost2010Prop48
 90
       50
102
RTVSPost2010PropOp48
 70
     1
102
RTVSPost2010Prop49
280
     0
102
RTVSPost2010PropOp49
 70
     1
102
RTVSPost2010Prop50
 90
       50
102
RTVSPost2010PropOp50
 70
     1
102
RTVSPost2010Prop51ColorIndex
 90
      256
102
RTVSPost2010Prop51ColorRGB
 90
-16777216
102
RTVSPost2010PropOp51
 70
     0
102
RTVSPost2010Prop52
140
1.0
102
RTVSPost2010PropOp52
 70
     0
102
RTVSPost2010Prop53
 90
        2
102
RTVSPost2010PropOp53
 70
     1
102
RTVSPost2010Prop54
  1
strokes_ogs.tif
102
RTVSPost2010PropOp54
 70
     1
102
RTVSPost2010Prop55
280
     0
102
RTVSPost2010PropOp55
 70
     1
102
RTVSPost2010Prop56
140
1.0
102
RTVSPost2010PropOp56
 70
     1
102
RTVSPost2010Prop57
140
1.0
102
RTVSPost2010PropOp57
 70
     1
102
RTVSPropertyOp0
 70
     1
102
RTVSPropertyOp1
 70
     1
102
RTVSPropertyOp2
 70
     1
102
RTVSPropertyOp3
 70
     1
102
RTVSPropertyOp4
 70
     1
102
RTVSPropertyOp5
 70
     1
102
RTVSPropertyOp6
 70
     1
102
RTVSPropertyOp7
 70
     1
102
RTVSPropertyOp8
 70
     1
102
RTVSPropertyOp9
 70
     1
102
RTVSPropertyOp10
 70
     1
102
RTVSPropertyOp11
 70
     1
102
RTVSPropertyOp12
 70
     1
102
RTVSPropertyOp13
 70
     1
102
RTVSPropertyOp14
 70
     1
102
RTVSPropertyOp15
 70
     1
102
RTVSPropertyOp16
 70
     1
102
RTVSPropertyOp17
 70
     1
102
RTVSPropertyOp18
 70
     1
102
RTVSPropertyOp19
 70
     1
102
RTVSPropertyOp20
 70
     1
102
RTVSPropertyOp21
 70
     1
102
RTVSPropertyOp22
 70
     1
102
RTVSPropertyOp23
 70
     1
102
RTVSPropertyOp24
 70
     1
102
RTVSPropertyOp25
 70
     1
102
RTVSPropertyOp26
 70
     1
102
RTVSPropertyOp27
 70
     1
102
RTVSPropertyOp28
 70
     1
102
RTVSPropertyOp29
 70
     1
102
RTVSPropertyOp30
 70
     1
102
RTVSPropertyOp31
 70
     1
102
RTVSPropertyOp32
 70
     1
102
RTVSPropertyOp33
 70
     1
102
RTVSPropertyOp34
 70
     1
102
RTVSPropertyOp35
 70
     1
102
RTVSPropertyOp36
 70
     1
102
RTVSPropertyOp37
 70
     1
102
RTVSPropertyOp38
 70
     1
102
RTVSPropertyOp39
 70
     1
102
RTVSPropertyOp40
 70
     1
102
RTVSPropertyOp41
 70
     1
102
RTVSPropertyOp42
 70
     1
102
RTVSPropertyOp43
 70
     1
102
RTVSPropertyOp44
 70
     1
102
RTVSPropertyOp45
 70
     1
102
RTVSPropertyOp46
 70
     1
102
RTVSPropertyOp47
 70
     1
102
RTVSPropertyOp48
 70
     1
102
RTVSPropertyOp49
 70
     1
102
RTVSPropertyOp50
 70
     1
102
RTVSPropertyOp51
 70
     0
102
RTVSPropertyOp52
 70
     0
102
RTVSPropertyOp53
 70
     1
102
RTVSPropertyOp54
 70
     1
102
RTVSPropertyOp55
 70
     1
102
RTVSPropertyOp56
 70
     1
102
RTVSPropertyOp57
 70
     1
102
RTVSPropertyOp58
 70
     1
102
RTVSPropertyOp59
 70
     1
102
RTVSPropertyOp60
 70
     1
102
RTVSPropertyOp61
 70
     1
102
RTVSPropertyOp62
 70
     1
  0
XRECORD
  5
2C82D
102
{ACAD_REACTORS
330
2C82C
102
}
330
2C82C
100
AcDbXrecord
280
     1
102
RTVSPost2010Prop28
280
     0
102
RTVSPost2010PropOp28
 70
     1
102
RTVSPost2010Prop29
280
     1
102
RTVSPost2010PropOp29
 70
     1
102
RTVSPost2010Prop30
280
     1
102
RTVSPost2010PropOp30
 70
     1
102
RTVSPost2010Prop31
280
     0
102
RTVSPost2010PropOp31
 70
     1
102
RTVSPost2010Prop32
280
     0
102
RTVSPost2010PropOp32
 70
     1
102
RTVSPost2010Prop33
280
     0
102
RTVSPost2010PropOp33
 70
     1
102
RTVSPost2010Prop34
280
     0
102
RTVSPost2010PropOp34
 70
     1
102
RTVSPost2010Prop35
280
     0
102
RTVSPost2010PropOp35
 70
     1
102
RTVSPost2010Prop36
280
     0
102
RTVSPost2010PropOp36
 70
     1
102
RTVSPost2010Prop37
 90
       50
102
RTVSPost2010PropOp37
 70
     1
102
RTVSPost2010Prop38
140
0.0
102
RTVSPost2010PropOp38
 70
     1
102
RTVSPost2010Prop39
140
1.0
102
RTVSPost2010PropOp39
 70
     1
102
RTVSPost2010Prop40
 90
        0
102
RTVSPost2010PropOp40
 70
     1
102
RTVSPost2010Prop41ColorIndex
 90
       18
102
RTVSPost2010Prop41ColorRGB
 90
        0
102
RTVSPost2010PropOp41
 70
     1
102
RTVSPost2010Prop42
 90
       50
102
RTVSPost2010PropOp42
 70
     1
102
RTVSPost2010Prop43
 90
        3
102
RTVSPost2010PropOp43
 70
     1
102
RTVSPost2010Prop44ColorIndex
 90
        5
102
RTVSPost2010Prop44ColorRGB
 90
      255
102
RTVSPost2010PropOp44
 70
     1
102
RTVSPost2010Prop45
280
     0
102
RTVSPost2010PropOp45
 70
     1
102
RTVSPost2010Prop46
 90
       50
102
RTVSPost2010PropOp46
 70
     1
102
RTVSPost2010Prop47
 90
       50
102
RTVSPost2010PropOp47
 70
     1
102
RTVSPost2010Prop48
 90
       50
102
RTVSPost2010PropOp48
 70
     1
102
RTVSPost2010Prop49
280
     0
102
RTVSPost2010PropOp49
 70
     1
102
RTVSPost2010Prop50
 90
       50
102
RTVSPost2010PropOp50
 70
     1
102
RTVSPost2010Prop51ColorIndex
 90
      256
102
RTVSPost2010Prop51ColorRGB
 90
-16777216
102
RTVSPost2010PropOp51
 70
     0
102
RTVSPost2010Prop52
140
1.0
102
RTVSPost2010PropOp52
 70
     0
102
RTVSPost2010Prop53
 90
        2
102
RTVSPost2010PropOp53
 70
     1
102
RTVSPost2010Prop54
  1
strokes_ogs.tif
102
RTVSPost2010PropOp54
 70
     1
102
RTVSPost2010Prop55
280
     0
102
RTVSPost2010PropOp55
 70
     1
102
RTVSPost2010Prop56
140
1.0
102
RTVSPost2010PropOp56
 70
     1
102
RTVSPost2010Prop57
140
1.0
102
RTVSPost2010PropOp57
 70
     1
102
RTVSPropertyOp0
 70
     0
102
RTVSPropertyOp1
 70
     0
102
RTVSPropertyOp2
 70
     0
102
RTVSPropertyOp3
 70
     0
102
RTVSPropertyOp4
 70
     0
102
RTVSPropertyOp5
 70
     0
102
RTVSPropertyOp6
 70
     0
102
RTVSPropertyOp7
 70
     0
102
RTVSPropertyOp8
 70
     0
102
RTVSPropertyOp9
 70
     0
102
RTVSPropertyOp10
 70
     0
102
RTVSPropertyOp11
 70
     0
102
RTVSPropertyOp12
 70
     0
102
RTVSPropertyOp13
 70
     0
102
RTVSPropertyOp14
 70
     2
102
RTVSPropertyOp15
 70
     0
102
RTVSPropertyOp16
 70
     0
102
RTVSPropertyOp17
 70
     0
102
RTVSPropertyOp18
 70
     0
102
RTVSPropertyOp19
 70
     0
102
RTVSPropertyOp20
 70
     0
102
RTVSPropertyOp21
 70
     0
102
RTVSPropertyOp22
 70
     0
102
RTVSPropertyOp23
 70
     0
102
RTVSPropertyOp24
 70
     0
102
RTVSPropertyOp25
 70
     0
102
RTVSPropertyOp26
 70
     0
102
RTVSPropertyOp27
 70
     0
102
RTVSPropertyOp28
 70
     1
102
RTVSPropertyOp29
 70
     1
102
RTVSPropertyOp30
 70
     1
102
RTVSPropertyOp31
 70
     1
102
RTVSPropertyOp32
 70
     1
102
RTVSPropertyOp33
 70
     1
102
RTVSPropertyOp34
 70
     1
102
RTVSPropertyOp35
 70
     1
102
RTVSPropertyOp36
 70
     1
102
RTVSPropertyOp37
 70
     1
102
RTVSPropertyOp38
 70
     1
102
RTVSPropertyOp39
 70
     1
102
RTVSPropertyOp40
 70
     1
102
RTVSPropertyOp41
 70
     1
102
RTVSPropertyOp42
 70
     1
102
RTVSPropertyOp43
 70
     1
102
RTVSPropertyOp44
 70
     1
102
RTVSPropertyOp45
 70
     1
102
RTVSPropertyOp46
 70
     1
102
RTVSPropertyOp47
 70
     1
102
RTVSPropertyOp48
 70
     1
102
RTVSPropertyOp49
 70
     1
102
RTVSPropertyOp50
 70
     1
102
RTVSPropertyOp51
 70
     0
102
RTVSPropertyOp52
 70
     0
102
RTVSPropertyOp53
 70
     1
102
RTVSPropertyOp54
 70
     1
102
RTVSPropertyOp55
 70
     1
102
RTVSPropertyOp56
 70
     1
102
RTVSPropertyOp57
 70
     1
102
RTVSPropertyOp58
 70
     1
102
RTVSPropertyOp59
 70
     1
102
RTVSPropertyOp60
 70
     1
102
RTVSPropertyOp61
 70
     1
102
RTVSPropertyOp62
 70
     1
  0
XRECORD
  5
2C81B
102
{ACAD_REACTORS
330
2C81A
102
}
330
2C81A
100
AcDbXrecord
280
     1
102
RTVSPost2010Prop28
280
     0
102
RTVSPost2010PropOp28
 70
     1
102
RTVSPost2010Prop29
280
     1
102
RTVSPost2010PropOp29
 70
     1
102
RTVSPost2010Prop30
280
     1
102
RTVSPost2010PropOp30
 70
     1
102
RTVSPost2010Prop31
280
     0
102
RTVSPost2010PropOp31
 70
     1
102
RTVSPost2010Prop32
280
     0
102
RTVSPost2010PropOp32
 70
     1
102
RTVSPost2010Prop33
280
     0
102
RTVSPost2010PropOp33
 70
     1
102
RTVSPost2010Prop34
280
     0
102
RTVSPost2010PropOp34
 70
     1
102
RTVSPost2010Prop35
280
     0
102
RTVSPost2010PropOp35
 70
     1
102
RTVSPost2010Prop36
280
     0
102
RTVSPost2010PropOp36
 70
     1
102
RTVSPost2010Prop37
 90
       50
102
RTVSPost2010PropOp37
 70
     1
102
RTVSPost2010Prop38
140
0.0
102
RTVSPost2010PropOp38
 70
     1
102
RTVSPost2010Prop39
140
1.0
102
RTVSPost2010PropOp39
 70
     1
102
RTVSPost2010Prop40
 90
        0
102
RTVSPost2010PropOp40
 70
     1
102
RTVSPost2010Prop41ColorIndex
 90
       18
102
RTVSPost2010Prop41ColorRGB
 90
        0
102
RTVSPost2010PropOp41
 70
     1
102
RTVSPost2010Prop42
 90
       50
102
RTVSPost2010PropOp42
 70
     1
102
RTVSPost2010Prop43
 90
        3
102
RTVSPost2010PropOp43
 70
     1
102
RTVSPost2010Prop44ColorIndex
 90
        5
102
RTVSPost2010Prop44ColorRGB
 90
      255
102
RTVSPost2010PropOp44
 70
     1
102
RTVSPost2010Prop45
280
     0
102
RTVSPost2010PropOp45
 70
     1
102
RTVSPost2010Prop46
 90
       50
102
RTVSPost2010PropOp46
 70
     1
102
RTVSPost2010Prop47
 90
       50
102
RTVSPost2010PropOp47
 70
     1
102
RTVSPost2010Prop48
 90
       50
102
RTVSPost2010PropOp48
 70
     1
102
RTVSPost2010Prop49
280
     0
102
RTVSPost2010PropOp49
 70
     1
102
RTVSPost2010Prop50
 90
       50
102
RTVSPost2010PropOp50
 70
     1
102
RTVSPost2010Prop51ColorIndex
 90
      256
102
RTVSPost2010Prop51ColorRGB
 90
-16777216
102
RTVSPost2010PropOp51
 70
     0
102
RTVSPost2010Prop52
140
1.0
102
RTVSPost2010PropOp52
 70
     0
102
RTVSPost2010Prop53
 90
        2
102
RTVSPost2010PropOp53
 70
     1
102
RTVSPost2010Prop54
  1
strokes_ogs.tif
102
RTVSPost2010PropOp54
 70
     1
102
RTVSPost2010Prop55
280
     0
102
RTVSPost2010PropOp55
 70
     1
102
RTVSPost2010Prop56
140
1.0
102
RTVSPost2010PropOp56
 70
     1
102
RTVSPost2010Prop57
140
1.0
102
RTVSPost2010PropOp57
 70
     1
102
RTVSPropertyOp0
 70
     1
102
RTVSPropertyOp1
 70
     1
102
RTVSPropertyOp2
 70
     1
102
RTVSPropertyOp3
 70
     1
102
RTVSPropertyOp4
 70
     1
102
RTVSPropertyOp5
 70
     1
102
RTVSPropertyOp6
 70
     1
102
RTVSPropertyOp7
 70
     1
102
RTVSPropertyOp8
 70
     1
102
RTVSPropertyOp9
 70
     1
102
RTVSPropertyOp10
 70
     1
102
RTVSPropertyOp11
 70
     1
102
RTVSPropertyOp12
 70
     1
102
RTVSPropertyOp13
 70
     1
102
RTVSPropertyOp14
 70
     1
102
RTVSPropertyOp15
 70
     1
102
RTVSPropertyOp16
 70
     1
102
RTVSPropertyOp17
 70
     1
102
RTVSPropertyOp18
 70
     1
102
RTVSPropertyOp19
 70
     1
102
RTVSPropertyOp20
 70
     1
102
RTVSPropertyOp21
 70
     1
102
RTVSPropertyOp22
 70
     1
102
RTVSPropertyOp23
 70
     1
102
RTVSPropertyOp24
 70
     1
102
RTVSPropertyOp25
 70
     1
102
RTVSPropertyOp26
 70
     1
102
RTVSPropertyOp27
 70
     1
102
RTVSPropertyOp28
 70
     1
102
RTVSPropertyOp29
 70
     1
102
RTVSPropertyOp30
 70
     1
102
RTVSPropertyOp31
 70
     1
102
RTVSPropertyOp32
 70
     1
102
RTVSPropertyOp33
 70
     1
102
RTVSPropertyOp34
 70
     1
102
RTVSPropertyOp35
 70
     1
102
RTVSPropertyOp36
 70
     1
102
RTVSPropertyOp37
 70
     1
102
RTVSPropertyOp38
 70
     1
102
RTVSPropertyOp39
 70
     1
102
RTVSPropertyOp40
 70
     1
102
RTVSPropertyOp41
 70
     1
102
RTVSPropertyOp42
 70
     1
102
RTVSPropertyOp43
 70
     1
102
RTVSPropertyOp44
 70
     1
102
RTVSPropertyOp45
 70
     1
102
RTVSPropertyOp46
 70
     1
102
RTVSPropertyOp47
 70
     1
102
RTVSPropertyOp48
 70
     1
102
RTVSPropertyOp49
 70
     1
102
RTVSPropertyOp50
 70
     1
102
RTVSPropertyOp51
 70
     0
102
RTVSPropertyOp52
 70
     0
102
RTVSPropertyOp53
 70
     1
102
RTVSPropertyOp54
 70
     1
102
RTVSPropertyOp55
 70
     1
102
RTVSPropertyOp56
 70
     1
102
RTVSPropertyOp57
 70
     1
102
RTVSPropertyOp58
 70
     1
102
RTVSPropertyOp59
 70
     1
102
RTVSPropertyOp60
 70
     1
102
RTVSPropertyOp61
 70
     1
102
RTVSPropertyOp62
 70
     1
  0
XRECORD
  5
2C839
102
{ACAD_REACTORS
330
2C838
102
}
330
2C838
100
AcDbXrecord
280
     1
102
RTVSPost2010Prop28
280
     0
102
RTVSPost2010PropOp28
 70
     1
102
RTVSPost2010Prop29
280
     1
102
RTVSPost2010PropOp29
 70
     1
102
RTVSPost2010Prop30
280
     1
102
RTVSPost2010PropOp30
 70
     1
102
RTVSPost2010Prop31
280
     0
102
RTVSPost2010PropOp31
 70
     1
102
RTVSPost2010Prop32
280
     0
102
RTVSPost2010PropOp32
 70
     1
102
RTVSPost2010Prop33
280
     0
102
RTVSPost2010PropOp33
 70
     1
102
RTVSPost2010Prop34
280
     0
102
RTVSPost2010PropOp34
 70
     1
102
RTVSPost2010Prop35
280
     0
102
RTVSPost2010PropOp35
 70
     1
102
RTVSPost2010Prop36
280
     0
102
RTVSPost2010PropOp36
 70
     1
102
RTVSPost2010Prop37
 90
       50
102
RTVSPost2010PropOp37
 70
     1
102
RTVSPost2010Prop38
140
0.0
102
RTVSPost2010PropOp38
 70
     1
102
RTVSPost2010Prop39
140
1.0
102
RTVSPost2010PropOp39
 70
     1
102
RTVSPost2010Prop40
 90
        0
102
RTVSPost2010PropOp40
 70
     1
102
RTVSPost2010Prop41ColorIndex
 90
       18
102
RTVSPost2010Prop41ColorRGB
 90
        0
102
RTVSPost2010PropOp41
 70
     1
102
RTVSPost2010Prop42
 90
       50
102
RTVSPost2010PropOp42
 70
     1
102
RTVSPost2010Prop43
 90
        3
102
RTVSPost2010PropOp43
 70
     1
102
RTVSPost2010Prop44ColorIndex
 90
        5
102
RTVSPost2010Prop44ColorRGB
 90
      255
102
RTVSPost2010PropOp44
 70
     1
102
RTVSPost2010Prop45
280
     0
102
RTVSPost2010PropOp45
 70
     1
102
RTVSPost2010Prop46
 90
       50
102
RTVSPost2010PropOp46
 70
     1
102
RTVSPost2010Prop47
 90
       50
102
RTVSPost2010PropOp47
 70
     1
102
RTVSPost2010Prop48
 90
       50
102
RTVSPost2010PropOp48
 70
     1
102
RTVSPost2010Prop49
280
     0
102
RTVSPost2010PropOp49
 70
     1
102
RTVSPost2010Prop50
 90
       50
102
RTVSPost2010PropOp50
 70
     1
102
RTVSPost2010Prop51ColorIndex
 90
      256
102
RTVSPost2010Prop51ColorRGB
 90
-16777216
102
RTVSPost2010PropOp51
 70
     0
102
RTVSPost2010Prop52
140
1.0
102
RTVSPost2010PropOp52
 70
     0
102
RTVSPost2010Prop53
 90
        2
102
RTVSPost2010PropOp53
 70
     1
102
RTVSPost2010Prop54
  1
strokes_ogs.tif
102
RTVSPost2010PropOp54
 70
     1
102
RTVSPost2010Prop55
280
     0
102
RTVSPost2010PropOp55
 70
     1
102
RTVSPost2010Prop56
140
1.0
102
RTVSPost2010PropOp56
 70
     1
102
RTVSPost2010Prop57
140
1.0
102
RTVSPost2010PropOp57
 70
     1
102
RTVSPropertyOp0
 70
     1
102
RTVSPropertyOp1
 70
     1
102
RTVSPropertyOp2
 70
     1
102
RTVSPropertyOp3
 70
     1
102
RTVSPropertyOp4
 70
     1
102
RTVSPropertyOp5
 70
     1
102
RTVSPropertyOp6
 70
     1
102
RTVSPropertyOp7
 70
     1
102
RTVSPropertyOp8
 70
     1
102
RTVSPropertyOp9
 70
     1
102
RTVSPropertyOp10
 70
     1
102
RTVSPropertyOp11
 70
     1
102
RTVSPropertyOp12
 70
     1
102
RTVSPropertyOp13
 70
     1
102
RTVSPropertyOp14
 70
     1
102
RTVSPropertyOp15
 70
     1
102
RTVSPropertyOp16
 70
     1
102
RTVSPropertyOp17
 70
     1
102
RTVSPropertyOp18
 70
     1
102
RTVSPropertyOp19
 70
     1
102
RTVSPropertyOp20
 70
     1
102
RTVSPropertyOp21
 70
     1
102
RTVSPropertyOp22
 70
     1
102
RTVSPropertyOp23
 70
     1
102
RTVSPropertyOp24
 70
     1
102
RTVSPropertyOp25
 70
     1
102
RTVSPropertyOp26
 70
     1
102
RTVSPropertyOp27
 70
     1
102
RTVSPropertyOp28
 70
     1
102
RTVSPropertyOp29
 70
     1
102
RTVSPropertyOp30
 70
     1
102
RTVSPropertyOp31
 70
     1
102
RTVSPropertyOp32
 70
     1
102
RTVSPropertyOp33
 70
     1
102
RTVSPropertyOp34
 70
     1
102
RTVSPropertyOp35
 70
     1
102
RTVSPropertyOp36
 70
     1
102
RTVSPropertyOp37
 70
     1
102
RTVSPropertyOp38
 70
     1
102
RTVSPropertyOp39
 70
     1
102
RTVSPropertyOp40
 70
     1
102
RTVSPropertyOp41
 70
     1
102
RTVSPropertyOp42
 70
     1
102
RTVSPropertyOp43
 70
     1
102
RTVSPropertyOp44
 70
     1
102
RTVSPropertyOp45
 70
     1
102
RTVSPropertyOp46
 70
     1
102
RTVSPropertyOp47
 70
     1
102
RTVSPropertyOp48
 70
     1
102
RTVSPropertyOp49
 70
     1
102
RTVSPropertyOp50
 70
     1
102
RTVSPropertyOp51
 70
     0
102
RTVSPropertyOp52
 70
     0
102
RTVSPropertyOp53
 70
     1
102
RTVSPropertyOp54
 70
     1
102
RTVSPropertyOp55
 70
     1
102
RTVSPropertyOp56
 70
     1
102
RTVSPropertyOp57
 70
     1
102
RTVSPropertyOp58
 70
     1
102
RTVSPropertyOp59
 70
     1
102
RTVSPropertyOp60
 70
     1
102
RTVSPropertyOp61
 70
     1
102
RTVSPropertyOp62
 70
     1
  0
XRECORD
  5
2C837
102
{ACAD_REACTORS
330
2C836
102
}
330
2C836
100
AcDbXrecord
280
     1
102
RTVSPost2010Prop28
280
     0
102
RTVSPost2010PropOp28
 70
     1
102
RTVSPost2010Prop29
280
     1
102
RTVSPost2010PropOp29
 70
     1
102
RTVSPost2010Prop30
280
     1
102
RTVSPost2010PropOp30
 70
     1
102
RTVSPost2010Prop31
280
     0
102
RTVSPost2010PropOp31
 70
     1
102
RTVSPost2010Prop32
280
     0
102
RTVSPost2010PropOp32
 70
     1
102
RTVSPost2010Prop33
280
     0
102
RTVSPost2010PropOp33
 70
     1
102
RTVSPost2010Prop34
280
     0
102
RTVSPost2010PropOp34
 70
     1
102
RTVSPost2010Prop35
280
     0
102
RTVSPost2010PropOp35
 70
     1
102
RTVSPost2010Prop36
280
     0
102
RTVSPost2010PropOp36
 70
     1
102
RTVSPost2010Prop37
 90
       50
102
RTVSPost2010PropOp37
 70
     1
102
RTVSPost2010Prop38
140
0.0
102
RTVSPost2010PropOp38
 70
     1
102
RTVSPost2010Prop39
140
1.0
102
RTVSPost2010PropOp39
 70
     1
102
RTVSPost2010Prop40
 90
        0
102
RTVSPost2010PropOp40
 70
     1
102
RTVSPost2010Prop41ColorIndex
 90
       18
102
RTVSPost2010Prop41ColorRGB
 90
        0
102
RTVSPost2010PropOp41
 70
     1
102
RTVSPost2010Prop42
 90
       50
102
RTVSPost2010PropOp42
 70
     1
102
RTVSPost2010Prop43
 90
        3
102
RTVSPost2010PropOp43
 70
     1
102
RTVSPost2010Prop44ColorIndex
 90
        5
102
RTVSPost2010Prop44ColorRGB
 90
      255
102
RTVSPost2010PropOp44
 70
     1
102
RTVSPost2010Prop45
280
     0
102
RTVSPost2010PropOp45
 70
     1
102
RTVSPost2010Prop46
 90
       50
102
RTVSPost2010PropOp46
 70
     1
102
RTVSPost2010Prop47
 90
       50
102
RTVSPost2010PropOp47
 70
     1
102
RTVSPost2010Prop48
 90
       50
102
RTVSPost2010PropOp48
 70
     1
102
RTVSPost2010Prop49
280
     0
102
RTVSPost2010PropOp49
 70
     1
102
RTVSPost2010Prop50
 90
       50
102
RTVSPost2010PropOp50
 70
     1
102
RTVSPost2010Prop51ColorIndex
 90
      256
102
RTVSPost2010Prop51ColorRGB
 90
-16777216
102
RTVSPost2010PropOp51
 70
     0
102
RTVSPost2010Prop52
140
1.0
102
RTVSPost2010PropOp52
 70
     0
102
RTVSPost2010Prop53
 90
        2
102
RTVSPost2010PropOp53
 70
     1
102
RTVSPost2010Prop54
  1
strokes_ogs.tif
102
RTVSPost2010PropOp54
 70
     1
102
RTVSPost2010Prop55
280
     0
102
RTVSPost2010PropOp55
 70
     1
102
RTVSPost2010Prop56
140
1.0
102
RTVSPost2010PropOp56
 70
     1
102
RTVSPost2010Prop57
140
1.0
102
RTVSPost2010PropOp57
 70
     1
102
RTVSPropertyOp0
 70
     1
102
RTVSPropertyOp1
 70
     1
102
RTVSPropertyOp2
 70
     1
102
RTVSPropertyOp3
 70
     1
102
RTVSPropertyOp4
 70
     1
102
RTVSPropertyOp5
 70
     1
102
RTVSPropertyOp6
 70
     1
102
RTVSPropertyOp7
 70
     1
102
RTVSPropertyOp8
 70
     1
102
RTVSPropertyOp9
 70
     1
102
RTVSPropertyOp10
 70
     1
102
RTVSPropertyOp11
 70
     1
102
RTVSPropertyOp12
 70
     1
102
RTVSPropertyOp13
 70
     1
102
RTVSPropertyOp14
 70
     1
102
RTVSPropertyOp15
 70
     1
102
RTVSPropertyOp16
 70
     1
102
RTVSPropertyOp17
 70
     1
102
RTVSPropertyOp18
 70
     1
102
RTVSPropertyOp19
 70
     1
102
RTVSPropertyOp20
 70
     1
102
RTVSPropertyOp21
 70
     1
102
RTVSPropertyOp22
 70
     1
102
RTVSPropertyOp23
 70
     1
102
RTVSPropertyOp24
 70
     1
102
RTVSPropertyOp25
 70
     1
102
RTVSPropertyOp26
 70
     1
102
RTVSPropertyOp27
 70
     1
102
RTVSPropertyOp28
 70
     1
102
RTVSPropertyOp29
 70
     1
102
RTVSPropertyOp30
 70
     1
102
RTVSPropertyOp31
 70
     1
102
RTVSPropertyOp32
 70
     1
102
RTVSPropertyOp33
 70
     1
102
RTVSPropertyOp34
 70
     1
102
RTVSPropertyOp35
 70
     1
102
RTVSPropertyOp36
 70
     1
102
RTVSPropertyOp37
 70
     1
102
RTVSPropertyOp38
 70
     1
102
RTVSPropertyOp39
 70
     1
102
RTVSPropertyOp40
 70
     1
102
RTVSPropertyOp41
 70
     1
102
RTVSPropertyOp42
 70
     1
102
RTVSPropertyOp43
 70
     1
102
RTVSPropertyOp44
 70
     1
102
RTVSPropertyOp45
 70
     1
102
RTVSPropertyOp46
 70
     1
102
RTVSPropertyOp47
 70
     1
102
RTVSPropertyOp48
 70
     1
102
RTVSPropertyOp49
 70
     1
102
RTVSPropertyOp50
 70
     1
102
RTVSPropertyOp51
 70
     0
102
RTVSPropertyOp52
 70
     0
102
RTVSPropertyOp53
 70
     1
102
RTVSPropertyOp54
 70
     1
102
RTVSPropertyOp55
 70
     1
102
RTVSPropertyOp56
 70
     1
102
RTVSPropertyOp57
 70
     1
102
RTVSPropertyOp58
 70
     1
102
RTVSPropertyOp59
 70
     1
102
RTVSPropertyOp60
 70
     1
102
RTVSPropertyOp61
 70
     1
102
RTVSPropertyOp62
 70
     1
  0
XRECORD
  5
2C831
102
{ACAD_REACTORS
330
2C830
102
}
330
2C830
100
AcDbXrecord
280
     1
102
RTVSPost2010Prop28
280
     0
102
RTVSPost2010PropOp28
 70
     1
102
RTVSPost2010Prop29
280
     1
102
RTVSPost2010PropOp29
 70
     1
102
RTVSPost2010Prop30
280
     1
102
RTVSPost2010PropOp30
 70
     1
102
RTVSPost2010Prop31
280
     0
102
RTVSPost2010PropOp31
 70
     1
102
RTVSPost2010Prop32
280
     0
102
RTVSPost2010PropOp32
 70
     1
102
RTVSPost2010Prop33
280
     0
102
RTVSPost2010PropOp33
 70
     1
102
RTVSPost2010Prop34
280
     0
102
RTVSPost2010PropOp34
 70
     1
102
RTVSPost2010Prop35
280
     0
102
RTVSPost2010PropOp35
 70
     1
102
RTVSPost2010Prop36
280
     0
102
RTVSPost2010PropOp36
 70
     1
102
RTVSPost2010Prop37
 90
       50
102
RTVSPost2010PropOp37
 70
     1
102
RTVSPost2010Prop38
140
0.0
102
RTVSPost2010PropOp38
 70
     1
102
RTVSPost2010Prop39
140
1.0
102
RTVSPost2010PropOp39
 70
     1
102
RTVSPost2010Prop40
 90
        0
102
RTVSPost2010PropOp40
 70
     1
102
RTVSPost2010Prop41ColorIndex
 90
       18
102
RTVSPost2010Prop41ColorRGB
 90
        0
102
RTVSPost2010PropOp41
 70
     1
102
RTVSPost2010Prop42
 90
       50
102
RTVSPost2010PropOp42
 70
     1
102
RTVSPost2010Prop43
 90
        3
102
RTVSPost2010PropOp43
 70
     1
102
RTVSPost2010Prop44ColorIndex
 90
        5
102
RTVSPost2010Prop44ColorRGB
 90
      255
102
RTVSPost2010PropOp44
 70
     1
102
RTVSPost2010Prop45
280
     0
102
RTVSPost2010PropOp45
 70
     1
102
RTVSPost2010Prop46
 90
       50
102
RTVSPost2010PropOp46
 70
     1
102
RTVSPost2010Prop47
 90
       50
102
RTVSPost2010PropOp47
 70
     1
102
RTVSPost2010Prop48
 90
       50
102
RTVSPost2010PropOp48
 70
     1
102
RTVSPost2010Prop49
280
     0
102
RTVSPost2010PropOp49
 70
     1
102
RTVSPost2010Prop50
 90
       50
102
RTVSPost2010PropOp50
 70
     1
102
RTVSPost2010Prop51ColorIndex
 90
      256
102
RTVSPost2010Prop51ColorRGB
 90
-16777216
102
RTVSPost2010PropOp51
 70
     0
102
RTVSPost2010Prop52
140
1.0
102
RTVSPost2010PropOp52
 70
     0
102
RTVSPost2010Prop53
 90
        2
102
RTVSPost2010PropOp53
 70
     1
102
RTVSPost2010Prop54
  1
strokes_ogs.tif
102
RTVSPost2010PropOp54
 70
     1
102
RTVSPost2010Prop55
280
     0
102
RTVSPost2010PropOp55
 70
     1
102
RTVSPost2010Prop56
140
1.0
102
RTVSPost2010PropOp56
 70
     1
102
RTVSPost2010Prop57
140
1.0
102
RTVSPost2010PropOp57
 70
     1
102
RTVSPropertyOp0
 70
     1
102
RTVSPropertyOp1
 70
     1
102
RTVSPropertyOp2
 70
     1
102
RTVSPropertyOp3
 70
     1
102
RTVSPropertyOp4
 70
     1
102
RTVSPropertyOp5
 70
     1
102
RTVSPropertyOp6
 70
     1
102
RTVSPropertyOp7
 70
     1
102
RTVSPropertyOp8
 70
     1
102
RTVSPropertyOp9
 70
     1
102
RTVSPropertyOp10
 70
     1
102
RTVSPropertyOp11
 70
     1
102
RTVSPropertyOp12
 70
     1
102
RTVSPropertyOp13
 70
     1
102
RTVSPropertyOp14
 70
     1
102
RTVSPropertyOp15
 70
     1
102
RTVSPropertyOp16
 70
     1
102
RTVSPropertyOp17
 70
     1
102
RTVSPropertyOp18
 70
     1
102
RTVSPropertyOp19
 70
     1
102
RTVSPropertyOp20
 70
     1
102
RTVSPropertyOp21
 70
     1
102
RTVSPropertyOp22
 70
     1
102
RTVSPropertyOp23
 70
     1
102
RTVSPropertyOp24
 70
     1
102
RTVSPropertyOp25
 70
     1
102
RTVSPropertyOp26
 70
     1
102
RTVSPropertyOp27
 70
     1
102
RTVSPropertyOp28
 70
     1
102
RTVSPropertyOp29
 70
     1
102
RTVSPropertyOp30
 70
     1
102
RTVSPropertyOp31
 70
     1
102
RTVSPropertyOp32
 70
     1
102
RTVSPropertyOp33
 70
     1
102
RTVSPropertyOp34
 70
     1
102
RTVSPropertyOp35
 70
     1
102
RTVSPropertyOp36
 70
     1
102
RTVSPropertyOp37
 70
     1
102
RTVSPropertyOp38
 70
     1
102
RTVSPropertyOp39
 70
     1
102
RTVSPropertyOp40
 70
     1
102
RTVSPropertyOp41
 70
     1
102
RTVSPropertyOp42
 70
     1
102
RTVSPropertyOp43
 70
     1
102
RTVSPropertyOp44
 70
     1
102
RTVSPropertyOp45
 70
     1
102
RTVSPropertyOp46
 70
     1
102
RTVSPropertyOp47
 70
     1
102
RTVSPropertyOp48
 70
     1
102
RTVSPropertyOp49
 70
     1
102
RTVSPropertyOp50
 70
     1
102
RTVSPropertyOp51
 70
     0
102
RTVSPropertyOp52
 70
     0
102
RTVSPropertyOp53
 70
     1
102
RTVSPropertyOp54
 70
     1
102
RTVSPropertyOp55
 70
     1
102
RTVSPropertyOp56
 70
     1
102
RTVSPropertyOp57
 70
     1
102
RTVSPropertyOp58
 70
     1
102
RTVSPropertyOp59
 70
     1
102
RTVSPropertyOp60
 70
     1
102
RTVSPropertyOp61
 70
     1
102
RTVSPropertyOp62
 70
     1
  0
XRECORD
  5
2C833
102
{ACAD_REACTORS
330
2C832
102
}
330
2C832
100
AcDbXrecord
280
     1
102
RTVSPost2010Prop28
280
     0
102
RTVSPost2010PropOp28
 70
     1
102
RTVSPost2010Prop29
280
     1
102
RTVSPost2010PropOp29
 70
     1
102
RTVSPost2010Prop30
280
     1
102
RTVSPost2010PropOp30
 70
     1
102
RTVSPost2010Prop31
280
     0
102
RTVSPost2010PropOp31
 70
     1
102
RTVSPost2010Prop32
280
     0
102
RTVSPost2010PropOp32
 70
     1
102
RTVSPost2010Prop33
280
     0
102
RTVSPost2010PropOp33
 70
     1
102
RTVSPost2010Prop34
280
     0
102
RTVSPost2010PropOp34
 70
     1
102
RTVSPost2010Prop35
280
     0
102
RTVSPost2010PropOp35
 70
     1
102
RTVSPost2010Prop36
280
     0
102
RTVSPost2010PropOp36
 70
     1
102
RTVSPost2010Prop37
 90
       50
102
RTVSPost2010PropOp37
 70
     1
102
RTVSPost2010Prop38
140
0.0
102
RTVSPost2010PropOp38
 70
     1
102
RTVSPost2010Prop39
140
1.0
102
RTVSPost2010PropOp39
 70
     1
102
RTVSPost2010Prop40
 90
        0
102
RTVSPost2010PropOp40
 70
     1
102
RTVSPost2010Prop41ColorIndex
 90
       18
102
RTVSPost2010Prop41ColorRGB
 90
        0
102
RTVSPost2010PropOp41
 70
     1
102
RTVSPost2010Prop42
 90
       50
102
RTVSPost2010PropOp42
 70
     1
102
RTVSPost2010Prop43
 90
        3
102
RTVSPost2010PropOp43
 70
     1
102
RTVSPost2010Prop44ColorIndex
 90
        5
102
RTVSPost2010Prop44ColorRGB
 90
      255
102
RTVSPost2010PropOp44
 70
     1
102
RTVSPost2010Prop45
280
     0
102
RTVSPost2010PropOp45
 70
     1
102
RTVSPost2010Prop46
 90
       50
102
RTVSPost2010PropOp46
 70
     1
102
RTVSPost2010Prop47
 90
       50
102
RTVSPost2010PropOp47
 70
     1
102
RTVSPost2010Prop48
 90
       50
102
RTVSPost2010PropOp48
 70
     1
102
RTVSPost2010Prop49
280
     0
102
RTVSPost2010PropOp49
 70
     1
102
RTVSPost2010Prop50
 90
       50
102
RTVSPost2010PropOp50
 70
     1
102
RTVSPost2010Prop51ColorIndex
 90
      256
102
RTVSPost2010Prop51ColorRGB
 90
-16777216
102
RTVSPost2010PropOp51
 70
     0
102
RTVSPost2010Prop52
140
1.0
102
RTVSPost2010PropOp52
 70
     0
102
RTVSPost2010Prop53
 90
        2
102
RTVSPost2010PropOp53
 70
     1
102
RTVSPost2010Prop54
  1
strokes_ogs.tif
102
RTVSPost2010PropOp54
 70
     1
102
RTVSPost2010Prop55
280
     0
102
RTVSPost2010PropOp55
 70
     1
102
RTVSPost2010Prop56
140
1.0
102
RTVSPost2010PropOp56
 70
     1
102
RTVSPost2010Prop57
140
1.0
102
RTVSPost2010PropOp57
 70
     1
102
RTVSPropertyOp0
 70
     1
102
RTVSPropertyOp1
 70
     1
102
RTVSPropertyOp2
 70
     1
102
RTVSPropertyOp3
 70
     1
102
RTVSPropertyOp4
 70
     1
102
RTVSPropertyOp5
 70
     1
102
RTVSPropertyOp6
 70
     1
102
RTVSPropertyOp7
 70
     1
102
RTVSPropertyOp8
 70
     1
102
RTVSPropertyOp9
 70
     1
102
RTVSPropertyOp10
 70
     1
102
RTVSPropertyOp11
 70
     1
102
RTVSPropertyOp12
 70
     1
102
RTVSPropertyOp13
 70
     1
102
RTVSPropertyOp14
 70
     1
102
RTVSPropertyOp15
 70
     1
102
RTVSPropertyOp16
 70
     1
102
RTVSPropertyOp17
 70
     1
102
RTVSPropertyOp18
 70
     1
102
RTVSPropertyOp19
 70
     1
102
RTVSPropertyOp20
 70
     1
102
RTVSPropertyOp21
 70
     1
102
RTVSPropertyOp22
 70
     1
102
RTVSPropertyOp23
 70
     1
102
RTVSPropertyOp24
 70
     1
102
RTVSPropertyOp25
 70
     1
102
RTVSPropertyOp26
 70
     1
102
RTVSPropertyOp27
 70
     1
102
RTVSPropertyOp28
 70
     1
102
RTVSPropertyOp29
 70
     1
102
RTVSPropertyOp30
 70
     1
102
RTVSPropertyOp31
 70
     1
102
RTVSPropertyOp32
 70
     1
102
RTVSPropertyOp33
 70
     1
102
RTVSPropertyOp34
 70
     1
102
RTVSPropertyOp35
 70
     1
102
RTVSPropertyOp36
 70
     1
102
RTVSPropertyOp37
 70
     1
102
RTVSPropertyOp38
 70
     1
102
RTVSPropertyOp39
 70
     1
102
RTVSPropertyOp40
 70
     1
102
RTVSPropertyOp41
 70
     1
102
RTVSPropertyOp42
 70
     1
102
RTVSPropertyOp43
 70
     1
102
RTVSPropertyOp44
 70
     1
102
RTVSPropertyOp45
 70
     1
102
RTVSPropertyOp46
 70
     1
102
RTVSPropertyOp47
 70
     1
102
RTVSPropertyOp48
 70
     1
102
RTVSPropertyOp49
 70
     1
102
RTVSPropertyOp50
 70
     1
102
RTVSPropertyOp51
 70
     0
102
RTVSPropertyOp52
 70
     0
102
RTVSPropertyOp53
 70
     1
102
RTVSPropertyOp54
 70
     1
102
RTVSPropertyOp55
 70
     1
102
RTVSPropertyOp56
 70
     1
102
RTVSPropertyOp57
 70
     1
102
RTVSPropertyOp58
 70
     1
102
RTVSPropertyOp59
 70
     1
102
RTVSPropertyOp60
 70
     1
102
RTVSPropertyOp61
 70
     1
102
RTVSPropertyOp62
 70
     1
  0
XRECORD
  5
2C821
102
{ACAD_REACTORS
330
2C820
102
}
330
2C820
100
AcDbXrecord
280
     1
102
RTVSPost2010Prop28
280
     0
102
RTVSPost2010PropOp28
 70
     1
102
RTVSPost2010Prop29
280
     1
102
RTVSPost2010PropOp29
 70
     1
102
RTVSPost2010Prop30
280
     1
102
RTVSPost2010PropOp30
 70
     1
102
RTVSPost2010Prop31
280
     0
102
RTVSPost2010PropOp31
 70
     1
102
RTVSPost2010Prop32
280
     0
102
RTVSPost2010PropOp32
 70
     1
102
RTVSPost2010Prop33
280
     0
102
RTVSPost2010PropOp33
 70
     1
102
RTVSPost2010Prop34
280
     0
102
RTVSPost2010PropOp34
 70
     1
102
RTVSPost2010Prop35
280
     0
102
RTVSPost2010PropOp35
 70
     1
102
RTVSPost2010Prop36
280
     0
102
RTVSPost2010PropOp36
 70
     1
102
RTVSPost2010Prop37
 90
       50
102
RTVSPost2010PropOp37
 70
     1
102
RTVSPost2010Prop38
140
0.0
102
RTVSPost2010PropOp38
 70
     1
102
RTVSPost2010Prop39
140
1.0
102
RTVSPost2010PropOp39
 70
     1
102
RTVSPost2010Prop40
 90
        0
102
RTVSPost2010PropOp40
 70
     1
102
RTVSPost2010Prop41ColorIndex
 90
       18
102
RTVSPost2010Prop41ColorRGB
 90
        0
102
RTVSPost2010PropOp41
 70
     1
102
RTVSPost2010Prop42
 90
       50
102
RTVSPost2010PropOp42
 70
     1
102
RTVSPost2010Prop43
 90
        3
102
RTVSPost2010PropOp43
 70
     1
102
RTVSPost2010Prop44ColorIndex
 90
        5
102
RTVSPost2010Prop44ColorRGB
 90
      255
102
RTVSPost2010PropOp44
 70
     1
102
RTVSPost2010Prop45
280
     0
102
RTVSPost2010PropOp45
 70
     1
102
RTVSPost2010Prop46
 90
       50
102
RTVSPost2010PropOp46
 70
     1
102
RTVSPost2010Prop47
 90
       50
102
RTVSPost2010PropOp47
 70
     1
102
RTVSPost2010Prop48
 90
       50
102
RTVSPost2010PropOp48
 70
     1
102
RTVSPost2010Prop49
280
     0
102
RTVSPost2010PropOp49
 70
     1
102
RTVSPost2010Prop50
 90
       50
102
RTVSPost2010PropOp50
 70
     1
102
RTVSPost2010Prop51ColorIndex
 90
      256
102
RTVSPost2010Prop51ColorRGB
 90
-16777216
102
RTVSPost2010PropOp51
 70
     0
102
RTVSPost2010Prop52
140
1.0
102
RTVSPost2010PropOp52
 70
     0
102
RTVSPost2010Prop53
 90
        2
102
RTVSPost2010PropOp53
 70
     1
102
RTVSPost2010Prop54
  1
strokes_ogs.tif
102
RTVSPost2010PropOp54
 70
     1
102
RTVSPost2010Prop55
280
     0
102
RTVSPost2010PropOp55
 70
     1
102
RTVSPost2010Prop56
140
1.0
102
RTVSPost2010PropOp56
 70
     1
102
RTVSPost2010Prop57
140
1.0
102
RTVSPost2010PropOp57
 70
     1
102
RTVSPropertyOp0
 70
     1
102
RTVSPropertyOp1
 70
     1
102
RTVSPropertyOp2
 70
     1
102
RTVSPropertyOp3
 70
     1
102
RTVSPropertyOp4
 70
     1
102
RTVSPropertyOp5
 70
     1
102
RTVSPropertyOp6
 70
     1
102
RTVSPropertyOp7
 70
     1
102
RTVSPropertyOp8
 70
     1
102
RTVSPropertyOp9
 70
     1
102
RTVSPropertyOp10
 70
     1
102
RTVSPropertyOp11
 70
     1
102
RTVSPropertyOp12
 70
     1
102
RTVSPropertyOp13
 70
     1
102
RTVSPropertyOp14
 70
     1
102
RTVSPropertyOp15
 70
     1
102
RTVSPropertyOp16
 70
     1
102
RTVSPropertyOp17
 70
     1
102
RTVSPropertyOp18
 70
     1
102
RTVSPropertyOp19
 70
     1
102
RTVSPropertyOp20
 70
     1
102
RTVSPropertyOp21
 70
     1
102
RTVSPropertyOp22
 70
     1
102
RTVSPropertyOp23
 70
     1
102
RTVSPropertyOp24
 70
     1
102
RTVSPropertyOp25
 70
     1
102
RTVSPropertyOp26
 70
     1
102
RTVSPropertyOp27
 70
     1
102
RTVSPropertyOp28
 70
     1
102
RTVSPropertyOp29
 70
     1
102
RTVSPropertyOp30
 70
     1
102
RTVSPropertyOp31
 70
     1
102
RTVSPropertyOp32
 70
     1
102
RTVSPropertyOp33
 70
     1
102
RTVSPropertyOp34
 70
     1
102
RTVSPropertyOp35
 70
     1
102
RTVSPropertyOp36
 70
     1
102
RTVSPropertyOp37
 70
     1
102
RTVSPropertyOp38
 70
     1
102
RTVSPropertyOp39
 70
     1
102
RTVSPropertyOp40
 70
     1
102
RTVSPropertyOp41
 70
     1
102
RTVSPropertyOp42
 70
     1
102
RTVSPropertyOp43
 70
     1
102
RTVSPropertyOp44
 70
     1
102
RTVSPropertyOp45
 70
     1
102
RTVSPropertyOp46
 70
     1
102
RTVSPropertyOp47
 70
     1
102
RTVSPropertyOp48
 70
     1
102
RTVSPropertyOp49
 70
     1
102
RTVSPropertyOp50
 70
     1
102
RTVSPropertyOp51
 70
     0
102
RTVSPropertyOp52
 70
     0
102
RTVSPropertyOp53
 70
     1
102
RTVSPropertyOp54
 70
     1
102
RTVSPropertyOp55
 70
     1
102
RTVSPropertyOp56
 70
     1
102
RTVSPropertyOp57
 70
     1
102
RTVSPropertyOp58
 70
     1
102
RTVSPropertyOp59
 70
     1
102
RTVSPropertyOp60
 70
     1
102
RTVSPropertyOp61
 70
     1
102
RTVSPropertyOp62
 70
     1
  0
XRECORD
  5
2C815
102
{ACAD_REACTORS
330
2C814
102
}
330
2C814
100
AcDbXrecord
280
     1
102
RTVSPost2010Prop28
280
     0
102
RTVSPost2010PropOp28
 70
     1
102
RTVSPost2010Prop29
280
     1
102
RTVSPost2010PropOp29
 70
     1
102
RTVSPost2010Prop30
280
     1
102
RTVSPost2010PropOp30
 70
     1
102
RTVSPost2010Prop31
280
     0
102
RTVSPost2010PropOp31
 70
     1
102
RTVSPost2010Prop32
280
     0
102
RTVSPost2010PropOp32
 70
     1
102
RTVSPost2010Prop33
280
     0
102
RTVSPost2010PropOp33
 70
     1
102
RTVSPost2010Prop34
280
     0
102
RTVSPost2010PropOp34
 70
     1
102
RTVSPost2010Prop35
280
     0
102
RTVSPost2010PropOp35
 70
     1
102
RTVSPost2010Prop36
280
     0
102
RTVSPost2010PropOp36
 70
     1
102
RTVSPost2010Prop37
 90
       50
102
RTVSPost2010PropOp37
 70
     1
102
RTVSPost2010Prop38
140
0.0
102
RTVSPost2010PropOp38
 70
     1
102
RTVSPost2010Prop39
140
1.0
102
RTVSPost2010PropOp39
 70
     1
102
RTVSPost2010Prop40
 90
        0
102
RTVSPost2010PropOp40
 70
     1
102
RTVSPost2010Prop41ColorIndex
 90
       18
102
RTVSPost2010Prop41ColorRGB
 90
        0
102
RTVSPost2010PropOp41
 70
     1
102
RTVSPost2010Prop42
 90
       50
102
RTVSPost2010PropOp42
 70
     1
102
RTVSPost2010Prop43
 90
        3
102
RTVSPost2010PropOp43
 70
     1
102
RTVSPost2010Prop44ColorIndex
 90
        5
102
RTVSPost2010Prop44ColorRGB
 90
      255
102
RTVSPost2010PropOp44
 70
     1
102
RTVSPost2010Prop45
280
     0
102
RTVSPost2010PropOp45
 70
     1
102
RTVSPost2010Prop46
 90
       50
102
RTVSPost2010PropOp46
 70
     1
102
RTVSPost2010Prop47
 90
       50
102
RTVSPost2010PropOp47
 70
     1
102
RTVSPost2010Prop48
 90
       50
102
RTVSPost2010PropOp48
 70
     1
102
RTVSPost2010Prop49
280
     0
102
RTVSPost2010PropOp49
 70
     1
102
RTVSPost2010Prop50
 90
       50
102
RTVSPost2010PropOp50
 70
     1
102
RTVSPost2010Prop51ColorIndex
 90
      256
102
RTVSPost2010Prop51ColorRGB
 90
-16777216
102
RTVSPost2010PropOp51
 70
     0
102
RTVSPost2010Prop52
140
1.0
102
RTVSPost2010PropOp52
 70
     0
102
RTVSPost2010Prop53
 90
        2
102
RTVSPost2010PropOp53
 70
     1
102
RTVSPost2010Prop54
  1
strokes_ogs.tif
102
RTVSPost2010PropOp54
 70
     1
102
RTVSPost2010Prop55
280
     0
102
RTVSPost2010PropOp55
 70
     1
102
RTVSPost2010Prop56
140
1.0
102
RTVSPost2010PropOp56
 70
     1
102
RTVSPost2010Prop57
140
1.0
102
RTVSPost2010PropOp57
 70
     1
102
RTVSPropertyOp0
 70
     1
102
RTVSPropertyOp1
 70
     1
102
RTVSPropertyOp2
 70
     1
102
RTVSPropertyOp3
 70
     1
102
RTVSPropertyOp4
 70
     1
102
RTVSPropertyOp5
 70
     1
102
RTVSPropertyOp6
 70
     1
102
RTVSPropertyOp7
 70
     1
102
RTVSPropertyOp8
 70
     1
102
RTVSPropertyOp9
 70
     1
102
RTVSPropertyOp10
 70
     1
102
RTVSPropertyOp11
 70
     1
102
RTVSPropertyOp12
 70
     1
102
RTVSPropertyOp13
 70
     1
102
RTVSPropertyOp14
 70
     1
102
RTVSPropertyOp15
 70
     1
102
RTVSPropertyOp16
 70
     1
102
RTVSPropertyOp17
 70
     1
102
RTVSPropertyOp18
 70
     1
102
RTVSPropertyOp19
 70
     1
102
RTVSPropertyOp20
 70
     1
102
RTVSPropertyOp21
 70
     1
102
RTVSPropertyOp22
 70
     1
102
RTVSPropertyOp23
 70
     1
102
RTVSPropertyOp24
 70
     1
102
RTVSPropertyOp25
 70
     1
102
RTVSPropertyOp26
 70
     1
102
RTVSPropertyOp27
 70
     1
102
RTVSPropertyOp28
 70
     1
102
RTVSPropertyOp29
 70
     1
102
RTVSPropertyOp30
 70
     1
102
RTVSPropertyOp31
 70
     1
102
RTVSPropertyOp32
 70
     1
102
RTVSPropertyOp33
 70
     1
102
RTVSPropertyOp34
 70
     1
102
RTVSPropertyOp35
 70
     1
102
RTVSPropertyOp36
 70
     1
102
RTVSPropertyOp37
 70
     1
102
RTVSPropertyOp38
 70
     1
102
RTVSPropertyOp39
 70
     1
102
RTVSPropertyOp40
 70
     1
102
RTVSPropertyOp41
 70
     1
102
RTVSPropertyOp42
 70
     1
102
RTVSPropertyOp43
 70
     1
102
RTVSPropertyOp44
 70
     1
102
RTVSPropertyOp45
 70
     1
102
RTVSPropertyOp46
 70
     1
102
RTVSPropertyOp47
 70
     1
102
RTVSPropertyOp48
 70
     1
102
RTVSPropertyOp49
 70
     1
102
RTVSPropertyOp50
 70
     1
102
RTVSPropertyOp51
 70
     0
102
RTVSPropertyOp52
 70
     0
102
RTVSPropertyOp53
 70
     1
102
RTVSPropertyOp54
 70
     1
102
RTVSPropertyOp55
 70
     1
102
RTVSPropertyOp56
 70
     1
102
RTVSPropertyOp57
 70
     1
102
RTVSPropertyOp58
 70
     1
102
RTVSPropertyOp59
 70
     1
102
RTVSPropertyOp60
 70
     1
102
RTVSPropertyOp61
 70
     1
102
RTVSPropertyOp62
 70
     1
  0
XRECORD
  5
2C835
102
{ACAD_REACTORS
330
2C834
102
}
330
2C834
100
AcDbXrecord
280
     1
102
RTVSPost2010Prop28
280
     0
102
RTVSPost2010PropOp28
 70
     1
102
RTVSPost2010Prop29
280
     1
102
RTVSPost2010PropOp29
 70
     1
102
RTVSPost2010Prop30
280
     1
102
RTVSPost2010PropOp30
 70
     1
102
RTVSPost2010Prop31
280
     0
102
RTVSPost2010PropOp31
 70
     1
102
RTVSPost2010Prop32
280
     0
102
RTVSPost2010PropOp32
 70
     1
102
RTVSPost2010Prop33
280
     0
102
RTVSPost2010PropOp33
 70
     1
102
RTVSPost2010Prop34
280
     0
102
RTVSPost2010PropOp34
 70
     1
102
RTVSPost2010Prop35
280
     0
102
RTVSPost2010PropOp35
 70
     1
102
RTVSPost2010Prop36
280
     0
102
RTVSPost2010PropOp36
 70
     1
102
RTVSPost2010Prop37
 90
       50
102
RTVSPost2010PropOp37
 70
     1
102
RTVSPost2010Prop38
140
0.0
102
RTVSPost2010PropOp38
 70
     1
102
RTVSPost2010Prop39
140
1.0
102
RTVSPost2010PropOp39
 70
     1
102
RTVSPost2010Prop40
 90
        0
102
RTVSPost2010PropOp40
 70
     1
102
RTVSPost2010Prop41ColorIndex
 90
       18
102
RTVSPost2010Prop41ColorRGB
 90
        0
102
RTVSPost2010PropOp41
 70
     1
102
RTVSPost2010Prop42
 90
       50
102
RTVSPost2010PropOp42
 70
     1
102
RTVSPost2010Prop43
 90
        3
102
RTVSPost2010PropOp43
 70
     1
102
RTVSPost2010Prop44ColorIndex
 90
        5
102
RTVSPost2010Prop44ColorRGB
 90
      255
102
RTVSPost2010PropOp44
 70
     1
102
RTVSPost2010Prop45
280
     0
102
RTVSPost2010PropOp45
 70
     1
102
RTVSPost2010Prop46
 90
       50
102
RTVSPost2010PropOp46
 70
     1
102
RTVSPost2010Prop47
 90
       50
102
RTVSPost2010PropOp47
 70
     1
102
RTVSPost2010Prop48
 90
       50
102
RTVSPost2010PropOp48
 70
     1
102
RTVSPost2010Prop49
280
     0
102
RTVSPost2010PropOp49
 70
     1
102
RTVSPost2010Prop50
 90
       50
102
RTVSPost2010PropOp50
 70
     1
102
RTVSPost2010Prop51ColorIndex
 90
      256
102
RTVSPost2010Prop51ColorRGB
 90
-16777216
102
RTVSPost2010PropOp51
 70
     0
102
RTVSPost2010Prop52
140
1.0
102
RTVSPost2010PropOp52
 70
     0
102
RTVSPost2010Prop53
 90
        2
102
RTVSPost2010PropOp53
 70
     1
102
RTVSPost2010Prop54
  1
strokes_ogs.tif
102
RTVSPost2010PropOp54
 70
     1
102
RTVSPost2010Prop55
280
     0
102
RTVSPost2010PropOp55
 70
     1
102
RTVSPost2010Prop56
140
1.0
102
RTVSPost2010PropOp56
 70
     1
102
RTVSPost2010Prop57
140
1.0
102
RTVSPost2010PropOp57
 70
     1
102
RTVSPropertyOp0
 70
     1
102
RTVSPropertyOp1
 70
     1
102
RTVSPropertyOp2
 70
     1
102
RTVSPropertyOp3
 70
     1
102
RTVSPropertyOp4
 70
     1
102
RTVSPropertyOp5
 70
     1
102
RTVSPropertyOp6
 70
     1
102
RTVSPropertyOp7
 70
     1
102
RTVSPropertyOp8
 70
     1
102
RTVSPropertyOp9
 70
     1
102
RTVSPropertyOp10
 70
     1
102
RTVSPropertyOp11
 70
     1
102
RTVSPropertyOp12
 70
     1
102
RTVSPropertyOp13
 70
     1
102
RTVSPropertyOp14
 70
     1
102
RTVSPropertyOp15
 70
     1
102
RTVSPropertyOp16
 70
     1
102
RTVSPropertyOp17
 70
     1
102
RTVSPropertyOp18
 70
     1
102
RTVSPropertyOp19
 70
     1
102
RTVSPropertyOp20
 70
     1
102
RTVSPropertyOp21
 70
     1
102
RTVSPropertyOp22
 70
     1
102
RTVSPropertyOp23
 70
     1
102
RTVSPropertyOp24
 70
     1
102
RTVSPropertyOp25
 70
     1
102
RTVSPropertyOp26
 70
     1
102
RTVSPropertyOp27
 70
     1
102
RTVSPropertyOp28
 70
     1
102
RTVSPropertyOp29
 70
     1
102
RTVSPropertyOp30
 70
     1
102
RTVSPropertyOp31
 70
     1
102
RTVSPropertyOp32
 70
     1
102
RTVSPropertyOp33
 70
     1
102
RTVSPropertyOp34
 70
     1
102
RTVSPropertyOp35
 70
     1
102
RTVSPropertyOp36
 70
     1
102
RTVSPropertyOp37
 70
     1
102
RTVSPropertyOp38
 70
     1
102
RTVSPropertyOp39
 70
     1
102
RTVSPropertyOp40
 70
     1
102
RTVSPropertyOp41
 70
     1
102
RTVSPropertyOp42
 70
     1
102
RTVSPropertyOp43
 70
     1
102
RTVSPropertyOp44
 70
     1
102
RTVSPropertyOp45
 70
     1
102
RTVSPropertyOp46
 70
     1
102
RTVSPropertyOp47
 70
     1
102
RTVSPropertyOp48
 70
     1
102
RTVSPropertyOp49
 70
     1
102
RTVSPropertyOp50
 70
     1
102
RTVSPropertyOp51
 70
     0
102
RTVSPropertyOp52
 70
     0
102
RTVSPropertyOp53
 70
     1
102
RTVSPropertyOp54
 70
     1
102
RTVSPropertyOp55
 70
     1
102
RTVSPropertyOp56
 70
     1
102
RTVSPropertyOp57
 70
     1
102
RTVSPropertyOp58
 70
     1
102
RTVSPropertyOp59
 70
     1
102
RTVSPropertyOp60
 70
     1
102
RTVSPropertyOp61
 70
     1
102
RTVSPropertyOp62
 70
     1
  0
ENDSEC
  0
EOF
